ISO-10303-21;
HEADER;
FILE_DESCRIPTION( ( 'STEP AP214' ), '1' );
FILE_NAME( '//goodhand-server/Shared Folders/GoodHand Data/Kipp CAD/K0390/K0390.081X35.stp', '2020-12-07T10:15:25', ( '' ), ( '' ), ' ', 'PARTsolutions', ' ' );
FILE_SCHEMA( ( 'AUTOMOTIVE_DESIGN { 1 0 10303 214 1 1 1 1 }' ) );
ENDSEC;
DATA;
#1 = MECHANICAL_DESIGN_GEOMETRIC_PRESENTATION_REPRESENTATION( ' ', ( #10, #11, #12, #13, #14, #15, #16, #17, #18, #19, #20, #21, #22 ), #6 );
#2 = PRODUCT_DEFINITION_CONTEXT( '', #23, 'design' );
#3 = APPLICATION_PROTOCOL_DEFINITION( 'international standard', 'automotive_design', 2001, #23 );
#4 = PRODUCT_CATEGORY_RELATIONSHIP( 'NONE', 'NONE', #24, #25 );
#5 = SHAPE_DEFINITION_REPRESENTATION( #26, #27 );
#6 =  ( GEOMETRIC_REPRESENTATION_CONTEXT( 3 )GLOBAL_UNCERTAINTY_ASSIGNED_CONTEXT( ( #30 ) )GLOBAL_UNIT_ASSIGNED_CONTEXT( ( #32, #33, #34 ) )REPRESENTATION_CONTEXT( 'NONE', 'WORKSPACE' ) );
#10 = STYLED_ITEM( '', ( #36 ), #37 );
#11 = STYLED_ITEM( '', ( #38 ), #39 );
#12 = STYLED_ITEM( '', ( #40 ), #41 );
#13 = STYLED_ITEM( '', ( #42 ), #43 );
#14 = STYLED_ITEM( '', ( #44 ), #45 );
#15 = STYLED_ITEM( '', ( #46 ), #47 );
#16 = STYLED_ITEM( '', ( #48 ), #49 );
#17 = STYLED_ITEM( '', ( #50 ), #51 );
#18 = STYLED_ITEM( '', ( #52 ), #53 );
#19 = STYLED_ITEM( '', ( #54 ), #55 );
#20 = STYLED_ITEM( '', ( #56 ), #57 );
#21 = STYLED_ITEM( '', ( #58 ), #59 );
#22 = STYLED_ITEM( '', ( #60 ), #61 );
#23 = APPLICATION_CONTEXT( 'core data for automotive mechanical design processes' );
#24 = PRODUCT_CATEGORY( 'part', 'NONE' );
#25 = PRODUCT_RELATED_PRODUCT_CATEGORY( 'detail', ' ', ( #62 ) );
#26 = PRODUCT_DEFINITION_SHAPE( 'NONE', 'NONE', #63 );
#27 = ADVANCED_BREP_SHAPE_REPRESENTATION( '_K0390.081X35', ( #64, #65 ), #6 );
#30 = UNCERTAINTY_MEASURE_WITH_UNIT( LENGTH_MEASURE( 0.00100000000000000 ), #32, '', '' );
#32 =  ( CONVERSION_BASED_UNIT( 'MILLIMETRE', #68 )LENGTH_UNIT(  )NAMED_UNIT( #71 ) );
#33 =  ( NAMED_UNIT( #73 )PLANE_ANGLE_UNIT(  )SI_UNIT( $, .RADIAN. ) );
#34 =  ( NAMED_UNIT( #73 )SI_UNIT( $, .STERADIAN. )SOLID_ANGLE_UNIT(  ) );
#36 = PRESENTATION_STYLE_ASSIGNMENT( ( #79 ) );
#37 = ADVANCED_FACE( '', ( #80, #81 ), #82, .T. );
#38 = PRESENTATION_STYLE_ASSIGNMENT( ( #83 ) );
#39 = ADVANCED_FACE( '', ( #84, #85 ), #86, .T. );
#40 = PRESENTATION_STYLE_ASSIGNMENT( ( #87 ) );
#41 = ADVANCED_FACE( '', ( #88 ), #89, .T. );
#42 = PRESENTATION_STYLE_ASSIGNMENT( ( #90 ) );
#43 = ADVANCED_FACE( '', ( #91 ), #92, .F. );
#44 = PRESENTATION_STYLE_ASSIGNMENT( ( #93 ) );
#45 = ADVANCED_FACE( '', ( #94, #95 ), #96, .T. );
#46 = PRESENTATION_STYLE_ASSIGNMENT( ( #97 ) );
#47 = ADVANCED_FACE( '', ( #98, #99 ), #100, .T. );
#48 = PRESENTATION_STYLE_ASSIGNMENT( ( #101 ) );
#49 = ADVANCED_FACE( '', ( #102 ), #103, .F. );
#50 = PRESENTATION_STYLE_ASSIGNMENT( ( #104 ) );
#51 = ADVANCED_FACE( '', ( #105 ), #106, .F. );
#52 = PRESENTATION_STYLE_ASSIGNMENT( ( #107 ) );
#53 = ADVANCED_FACE( '', ( #108 ), #109, .T. );
#54 = PRESENTATION_STYLE_ASSIGNMENT( ( #110 ) );
#55 = ADVANCED_FACE( '', ( #111, #112 ), #113, .T. );
#56 = PRESENTATION_STYLE_ASSIGNMENT( ( #114 ) );
#57 = ADVANCED_FACE( '', ( #115, #116 ), #117, .F. );
#58 = PRESENTATION_STYLE_ASSIGNMENT( ( #118 ) );
#59 = ADVANCED_FACE( '', ( #119 ), #120, .F. );
#60 = PRESENTATION_STYLE_ASSIGNMENT( ( #121 ) );
#61 = ADVANCED_FACE( '', ( #122 ), #123, .T. );
#62 = PRODUCT( '_K0390.081X35', '_K0390.081X35', 'PART-_K0390.081X35-DESC', ( #124 ) );
#63 = PRODUCT_DEFINITION( 'NONE', 'NONE', #125, #2 );
#64 = MANIFOLD_SOLID_BREP( '_K0390.081X35', #126 );
#65 = AXIS2_PLACEMENT_3D( '', #127, #128, #129 );
#68 = LENGTH_MEASURE_WITH_UNIT( LENGTH_MEASURE( 1.00000000000000 ), #130 );
#71 = DIMENSIONAL_EXPONENTS( 1.00000000000000, 0.000000000000000, 0.000000000000000, 0.000000000000000, 0.000000000000000, 0.000000000000000, 0.000000000000000 );
#73 = DIMENSIONAL_EXPONENTS( 0.000000000000000, 0.000000000000000, 0.000000000000000, 0.000000000000000, 0.000000000000000, 0.000000000000000, 0.000000000000000 );
#79 = SURFACE_STYLE_USAGE( .BOTH., #131 );
#80 = FACE_OUTER_BOUND( '', #132, .T. );
#81 = FACE_OUTER_BOUND( '', #133, .T. );
#82 = CYLINDRICAL_SURFACE( '', #134, 2.70000000000000 );
#83 = SURFACE_STYLE_USAGE( .BOTH., #135 );
#84 = FACE_BOUND( '', #136, .T. );
#85 = FACE_OUTER_BOUND( '', #137, .T. );
#86 = CONICAL_SURFACE( '', #138, 4.00000000000000, 1.06399014130000 );
#87 = SURFACE_STYLE_USAGE( .BOTH., #139 );
#88 = FACE_OUTER_BOUND( '', #140, .T. );
#89 = PLANE( '', #141 );
#90 = SURFACE_STYLE_USAGE( .BOTH., #142 );
#91 = FACE_OUTER_BOUND( '', #143, .T. );
#92 = PLANE( '', #144 );
#93 = SURFACE_STYLE_USAGE( .BOTH., #145 );
#94 = FACE_OUTER_BOUND( '', #146, .T. );
#95 = FACE_OUTER_BOUND( '', #147, .T. );
#96 = CYLINDRICAL_SURFACE( '', #148, 3.00000000000000 );
#97 = SURFACE_STYLE_USAGE( .BOTH., #149 );
#98 = FACE_OUTER_BOUND( '', #150, .T. );
#99 = FACE_OUTER_BOUND( '', #151, .T. );
#100 = CYLINDRICAL_SURFACE( '', #152, 4.00000000000000 );
#101 = SURFACE_STYLE_USAGE( .BOTH., #153 );
#102 = FACE_OUTER_BOUND( '', #154, .T. );
#103 = PLANE( '', #155 );
#104 = SURFACE_STYLE_USAGE( .BOTH., #156 );
#105 = FACE_OUTER_BOUND( '', #157, .T. );
#106 = PLANE( '', #158 );
#107 = SURFACE_STYLE_USAGE( .BOTH., #159 );
#108 = FACE_OUTER_BOUND( '', #160, .T. );
#109 = CONICAL_SURFACE( '', #161, 3.23300000000000, 0.785398163400000 );
#110 = SURFACE_STYLE_USAGE( .BOTH., #162 );
#111 = FACE_BOUND( '', #163, .T. );
#112 = FACE_OUTER_BOUND( '', #164, .T. );
#113 = SPHERICAL_SURFACE( '', #165, 5.03220000000000 );
#114 = SURFACE_STYLE_USAGE( .BOTH., #166 );
#115 = FACE_OUTER_BOUND( '', #167, .T. );
#116 = FACE_BOUND( '', #168, .T. );
#117 = PLANE( '', #169 );
#118 = SURFACE_STYLE_USAGE( .BOTH., #170 );
#119 = FACE_OUTER_BOUND( '', #171, .T. );
#120 = PLANE( '', #172 );
#121 = SURFACE_STYLE_USAGE( .BOTH., #173 );
#122 = FACE_OUTER_BOUND( '', #174, .T. );
#123 = CONICAL_SURFACE( '', #175, 3.23300000000000, 0.785398163400000 );
#124 = PRODUCT_CONTEXT( '', #23, 'mechanical' );
#125 = PRODUCT_DEFINITION_FORMATION_WITH_SPECIFIED_SOURCE( ' ', 'NONE', #62, .NOT_KNOWN. );
#126 = CLOSED_SHELL( '', ( #43, #49, #55, #45, #57, #37, #39, #47, #53, #59, #61, #51, #41 ) );
#127 = CARTESIAN_POINT( '', ( 0.000000000000000, 0.000000000000000, 0.000000000000000 ) );
#128 = DIRECTION( '', ( 0.000000000000000, 0.000000000000000, 1.00000000000000 ) );
#129 = DIRECTION( '', ( 1.00000000000000, 0.000000000000000, 0.000000000000000 ) );
#130 =  ( LENGTH_UNIT(  )NAMED_UNIT( #71 )SI_UNIT( .MILLI., .METRE. ) );
#131 = SURFACE_SIDE_STYLE( '', ( #177 ) );
#132 = EDGE_LOOP( '', ( #178 ) );
#133 = EDGE_LOOP( '', ( #179 ) );
#134 = AXIS2_PLACEMENT_3D( '', #180, #181, #182 );
#135 = SURFACE_SIDE_STYLE( '', ( #183 ) );
#136 = EDGE_LOOP( '', ( #184 ) );
#137 = EDGE_LOOP( '', ( #185 ) );
#138 = AXIS2_PLACEMENT_3D( '', #186, #187, #188 );
#139 = SURFACE_SIDE_STYLE( '', ( #189 ) );
#140 = EDGE_LOOP( '', ( #190, #191, #192, #193 ) );
#141 = AXIS2_PLACEMENT_3D( '', #194, #195, #196 );
#142 = SURFACE_SIDE_STYLE( '', ( #197 ) );
#143 = EDGE_LOOP( '', ( #198, #199, #200, #201, #202, #203 ) );
#144 = AXIS2_PLACEMENT_3D( '', #204, #205, #206 );
#145 = SURFACE_SIDE_STYLE( '', ( #207 ) );
#146 = EDGE_LOOP( '', ( #208 ) );
#147 = EDGE_LOOP( '', ( #209 ) );
#148 = AXIS2_PLACEMENT_3D( '', #210, #211, #212 );
#149 = SURFACE_SIDE_STYLE( '', ( #213 ) );
#150 = EDGE_LOOP( '', ( #214 ) );
#151 = EDGE_LOOP( '', ( #215, #216, #217, #218, #219, #220, #221, #222 ) );
#152 = AXIS2_PLACEMENT_3D( '', #223, #224, #225 );
#153 = SURFACE_SIDE_STYLE( '', ( #226 ) );
#154 = EDGE_LOOP( '', ( #227, #228, #229, #230, #231, #232 ) );
#155 = AXIS2_PLACEMENT_3D( '', #233, #234, #235 );
#156 = SURFACE_SIDE_STYLE( '', ( #236 ) );
#157 = EDGE_LOOP( '', ( #237, #238 ) );
#158 = AXIS2_PLACEMENT_3D( '', #239, #240, #241 );
#159 = SURFACE_SIDE_STYLE( '', ( #242 ) );
#160 = EDGE_LOOP( '', ( #243, #244, #245, #246 ) );
#161 = AXIS2_PLACEMENT_3D( '', #247, #248, #249 );
#162 = SURFACE_SIDE_STYLE( '', ( #250 ) );
#163 = VERTEX_LOOP( '', #251 );
#164 = EDGE_LOOP( '', ( #252 ) );
#165 = AXIS2_PLACEMENT_3D( '', #253, #254, #255 );
#166 = SURFACE_SIDE_STYLE( '', ( #256 ) );
#167 = EDGE_LOOP( '', ( #257 ) );
#168 = EDGE_LOOP( '', ( #258 ) );
#169 = AXIS2_PLACEMENT_3D( '', #259, #260, #261 );
#170 = SURFACE_SIDE_STYLE( '', ( #262 ) );
#171 = EDGE_LOOP( '', ( #263, #264 ) );
#172 = AXIS2_PLACEMENT_3D( '', #265, #266, #267 );
#173 = SURFACE_SIDE_STYLE( '', ( #268 ) );
#174 = EDGE_LOOP( '', ( #269, #270, #271, #272 ) );
#175 = AXIS2_PLACEMENT_3D( '', #273, #274, #275 );
#177 = SURFACE_STYLE_FILL_AREA( #276 );
#178 = ORIENTED_EDGE( '', *, *, #277, .F. );
#179 = ORIENTED_EDGE( '', *, *, #278, .T. );
#180 = CARTESIAN_POINT( '', ( 35.0000000000000, 0.000000000000000, 0.000000000000000 ) );
#181 = DIRECTION( '', ( -1.00000000000000, 6.12323399573676E-17, 0.000000000000000 ) );
#182 = DIRECTION( '', ( 6.12323399573677E-17, 1.00000000000000, 0.000000000000000 ) );
#183 = SURFACE_STYLE_FILL_AREA( #279 );
#184 = ORIENTED_EDGE( '', *, *, #278, .F. );
#185 = ORIENTED_EDGE( '', *, *, #280, .T. );
#186 = CARTESIAN_POINT( '', ( 27.5000000000000, 4.59242549680258E-16, 0.000000000000000 ) );
#187 = DIRECTION( '', ( -1.00000000000000, 6.12323399573677E-17, -0.000000000000000 ) );
#188 = DIRECTION( '', ( -6.12323399573677E-17, -1.00000000000000, 0.000000000000000 ) );
#189 = SURFACE_STYLE_FILL_AREA( #281 );
#190 = ORIENTED_EDGE( '', *, *, #282, .T. );
#191 = ORIENTED_EDGE( '', *, *, #283, .T. );
#192 = ORIENTED_EDGE( '', *, *, #284, .T. );
#193 = ORIENTED_EDGE( '', *, *, #285, .T. );
#194 = CARTESIAN_POINT( '', ( 3.00000000000000, 0.000000000000000, 0.000000000000000 ) );
#195 = DIRECTION( '', ( -1.00000000000000, 0.000000000000000, 0.000000000000000 ) );
#196 = DIRECTION( '', ( 0.000000000000000, 0.000000000000000, 1.00000000000000 ) );
#197 = SURFACE_STYLE_FILL_AREA( #286 );
#198 = ORIENTED_EDGE( '', *, *, #287, .F. );
#199 = ORIENTED_EDGE( '', *, *, #288, .T. );
#200 = ORIENTED_EDGE( '', *, *, #289, .F. );
#201 = ORIENTED_EDGE( '', *, *, #290, .F. );
#202 = ORIENTED_EDGE( '', *, *, #285, .F. );
#203 = ORIENTED_EDGE( '', *, *, #291, .F. );
#204 = CARTESIAN_POINT( '', ( 3.00000000000000, 0.900000000000002, 10.5000000000000 ) );
#205 = DIRECTION( '', ( 0.000000000000000, 1.00000000000000, 0.000000000000000 ) );
#206 = DIRECTION( '', ( 0.000000000000000, -0.000000000000000, 1.00000000000000 ) );
#207 = SURFACE_STYLE_FILL_AREA( #292 );
#208 = ORIENTED_EDGE( '', *, *, #293, .F. );
#209 = ORIENTED_EDGE( '', *, *, #294, .T. );
#210 = CARTESIAN_POINT( '', ( 35.0000000000000, 0.000000000000000, 0.000000000000000 ) );
#211 = DIRECTION( '', ( -1.00000000000000, 6.12323399573677E-17, 0.000000000000000 ) );
#212 = DIRECTION( '', ( 6.12323399573677E-17, 1.00000000000000, 0.000000000000000 ) );
#213 = SURFACE_STYLE_FILL_AREA( #295 );
#214 = ORIENTED_EDGE( '', *, *, #280, .F. );
#215 = ORIENTED_EDGE( '', *, *, #296, .T. );
#216 = ORIENTED_EDGE( '', *, *, #297, .T. );
#217 = ORIENTED_EDGE( '', *, *, #282, .F. );
#218 = ORIENTED_EDGE( '', *, *, #290, .T. );
#219 = ORIENTED_EDGE( '', *, *, #298, .T. );
#220 = ORIENTED_EDGE( '', *, *, #291, .T. );
#221 = ORIENTED_EDGE( '', *, *, #284, .F. );
#222 = ORIENTED_EDGE( '', *, *, #299, .T. );
#223 = CARTESIAN_POINT( '', ( 35.0000000000000, 0.000000000000000, 0.000000000000000 ) );
#224 = DIRECTION( '', ( -1.00000000000000, 6.12323399573677E-17, 0.000000000000000 ) );
#225 = DIRECTION( '', ( 6.12323399573677E-17, 1.00000000000000, 0.000000000000000 ) );
#226 = SURFACE_STYLE_FILL_AREA( #300 );
#227 = ORIENTED_EDGE( '', *, *, #301, .T. );
#228 = ORIENTED_EDGE( '', *, *, #302, .F. );
#229 = ORIENTED_EDGE( '', *, *, #299, .F. );
#230 = ORIENTED_EDGE( '', *, *, #283, .F. );
#231 = ORIENTED_EDGE( '', *, *, #297, .F. );
#232 = ORIENTED_EDGE( '', *, *, #303, .F. );
#233 = CARTESIAN_POINT( '', ( 3.00000000000000, -0.899999999999998, -10.5000000000000 ) );
#234 = DIRECTION( '', ( 0.000000000000000, -1.00000000000000, 0.000000000000000 ) );
#235 = DIRECTION( '', ( 0.000000000000000, 0.000000000000000, -1.00000000000000 ) );
#236 = SURFACE_STYLE_FILL_AREA( #304 );
#237 = ORIENTED_EDGE( '', *, *, #305, .F. );
#238 = ORIENTED_EDGE( '', *, *, #288, .F. );
#239 = CARTESIAN_POINT( '', ( -9.89820775410848E-17, 2.14313189850787E-15, 0.000000000000000 ) );
#240 = DIRECTION( '', ( 1.00000000000000, -6.12323399573677E-17, -0.000000000000000 ) );
#241 = DIRECTION( '', ( 6.12323399573677E-17, 1.00000000000000, 0.000000000000000 ) );
#242 = SURFACE_STYLE_FILL_AREA( #306 );
#243 = ORIENTED_EDGE( '', *, *, #305, .T. );
#244 = ORIENTED_EDGE( '', *, *, #287, .T. );
#245 = ORIENTED_EDGE( '', *, *, #298, .F. );
#246 = ORIENTED_EDGE( '', *, *, #289, .T. );
#247 = CARTESIAN_POINT( '', ( 0.000000000000000, 2.14313189850787E-15, 0.000000000000000 ) );
#248 = DIRECTION( '', ( 1.00000000000000, -6.12323399573677E-17, -0.000000000000000 ) );
#249 = DIRECTION( '', ( 6.12323399573677E-17, 1.00000000000000, 0.000000000000000 ) );
#250 = SURFACE_STYLE_FILL_AREA( #307 );
#251 = VERTEX_POINT( '', #308 );
#252 = ORIENTED_EDGE( '', *, *, #293, .T. );
#253 = CARTESIAN_POINT( '', ( 29.9678000000000, 1.30104260698261E-14, 0.000000000000000 ) );
#254 = DIRECTION( '', ( 1.00000000000000, 0.000000000000000, 0.000000000000000 ) );
#255 = DIRECTION( '', ( 0.000000000000000, -1.00000000000000, 0.000000000000000 ) );
#256 = SURFACE_STYLE_FILL_AREA( #309 );
#257 = ORIENTED_EDGE( '', *, *, #294, .F. );
#258 = ORIENTED_EDGE( '', *, *, #277, .T. );
#259 = CARTESIAN_POINT( '', ( 32.0000000000000, 2.70000000000000, 0.000000000000000 ) );
#260 = DIRECTION( '', ( 1.00000000000000, -6.12323399573677E-17, -0.000000000000000 ) );
#261 = DIRECTION( '', ( 6.12323399573677E-17, 1.00000000000000, 0.000000000000000 ) );
#262 = SURFACE_STYLE_FILL_AREA( #310 );
#263 = ORIENTED_EDGE( '', *, *, #311, .F. );
#264 = ORIENTED_EDGE( '', *, *, #301, .F. );
#265 = CARTESIAN_POINT( '', ( -9.89820775410848E-17, 2.14313189850787E-15, 0.000000000000000 ) );
#266 = DIRECTION( '', ( 1.00000000000000, -6.12323399573677E-17, -0.000000000000000 ) );
#267 = DIRECTION( '', ( 6.12323399573677E-17, 1.00000000000000, 0.000000000000000 ) );
#268 = SURFACE_STYLE_FILL_AREA( #312 );
#269 = ORIENTED_EDGE( '', *, *, #296, .F. );
#270 = ORIENTED_EDGE( '', *, *, #302, .T. );
#271 = ORIENTED_EDGE( '', *, *, #311, .T. );
#272 = ORIENTED_EDGE( '', *, *, #303, .T. );
#273 = CARTESIAN_POINT( '', ( 0.000000000000000, 2.14313189850787E-15, 0.000000000000000 ) );
#274 = DIRECTION( '', ( 1.00000000000000, -6.12323399573677E-17, -0.000000000000000 ) );
#275 = DIRECTION( '', ( 6.12323399573677E-17, 1.00000000000000, 0.000000000000000 ) );
#276 = FILL_AREA_STYLE( '', ( #313 ) );
#277 = EDGE_CURVE( '', #314, #314, #315, .T. );
#278 = EDGE_CURVE( '', #316, #316, #317, .T. );
#279 = FILL_AREA_STYLE( '', ( #318 ) );
#280 = EDGE_CURVE( '', #319, #319, #320, .T. );
#281 = FILL_AREA_STYLE( '', ( #321 ) );
#282 = EDGE_CURVE( '', #322, #323, #324, .T. );
#283 = EDGE_CURVE( '', #323, #325, #326, .T. );
#284 = EDGE_CURVE( '', #325, #327, #328, .T. );
#285 = EDGE_CURVE( '', #327, #322, #329, .T. );
#286 = FILL_AREA_STYLE( '', ( #330 ) );
#287 = EDGE_CURVE( '', #331, #332, #333, .T. );
#288 = EDGE_CURVE( '', #331, #334, #335, .T. );
#289 = EDGE_CURVE( '', #336, #334, #337, .T. );
#290 = EDGE_CURVE( '', #322, #336, #338, .F. );
#291 = EDGE_CURVE( '', #332, #327, #339, .T. );
#292 = FILL_AREA_STYLE( '', ( #340 ) );
#293 = EDGE_CURVE( '', #341, #341, #342, .T. );
#294 = EDGE_CURVE( '', #343, #343, #344, .T. );
#295 = FILL_AREA_STYLE( '', ( #345 ) );
#296 = EDGE_CURVE( '', #346, #347, #348, .T. );
#297 = EDGE_CURVE( '', #347, #323, #349, .T. );
#298 = EDGE_CURVE( '', #336, #332, #350, .T. );
#299 = EDGE_CURVE( '', #325, #346, #351, .F. );
#300 = FILL_AREA_STYLE( '', ( #352 ) );
#301 = EDGE_CURVE( '', #353, #354, #355, .T. );
#302 = EDGE_CURVE( '', #346, #354, #356, .T. );
#303 = EDGE_CURVE( '', #353, #347, #357, .T. );
#304 = FILL_AREA_STYLE( '', ( #358 ) );
#305 = EDGE_CURVE( '', #334, #331, #359, .T. );
#306 = FILL_AREA_STYLE( '', ( #360 ) );
#307 = FILL_AREA_STYLE( '', ( #361 ) );
#308 = CARTESIAN_POINT( '', ( 35.0000000000000, 1.23941593075591E-14, 0.000000000000000 ) );
#309 = FILL_AREA_STYLE( '', ( #362 ) );
#310 = FILL_AREA_STYLE( '', ( #363 ) );
#311 = EDGE_CURVE( '', #354, #353, #364, .T. );
#312 = FILL_AREA_STYLE( '', ( #365 ) );
#313 = FILL_AREA_STYLE_COLOUR( '', #366 );
#314 = VERTEX_POINT( '', #367 );
#315 = CIRCLE( '', #368, 2.70000000000000 );
#316 = VERTEX_POINT( '', #369 );
#317 = CIRCLE( '', #370, 2.70000000000000 );
#318 = FILL_AREA_STYLE_COLOUR( '', #371 );
#319 = VERTEX_POINT( '', #372 );
#320 = CIRCLE( '', #373, 4.00000000000000 );
#321 = FILL_AREA_STYLE_COLOUR( '', #374 );
#322 = VERTEX_POINT( '', #375 );
#323 = VERTEX_POINT( '', #376 );
#324 = CIRCLE( '', #377, 4.00000000000000 );
#325 = VERTEX_POINT( '', #378 );
#326 = LINE( '', #379, #380 );
#327 = VERTEX_POINT( '', #381 );
#328 = CIRCLE( '', #382, 4.00000000000000 );
#329 = LINE( '', #383, #384 );
#330 = FILL_AREA_STYLE_COLOUR( '', #385 );
#331 = VERTEX_POINT( '', #386 );
#332 = VERTEX_POINT( '', #387 );
#333 = B_SPLINE_CURVE_WITH_KNOTS( '', 3, ( #388, #389, #390, #391 ), .UNSPECIFIED., .F., .F., ( 4, 4 ), ( 0.0158157249040059, 0.0169130244324276 ), .UNSPECIFIED. );
#334 = VERTEX_POINT( '', #392 );
#335 = LINE( '', #393, #394 );
#336 = VERTEX_POINT( '', #395 );
#337 = B_SPLINE_CURVE_WITH_KNOTS( '', 3, ( #396, #397, #398, #399 ), .UNSPECIFIED., .F., .F., ( 4, 4 ), ( 0.00685941369446052, 0.00796210091278452 ), .UNSPECIFIED. );
#338 = LINE( '', #400, #401 );
#339 = LINE( '', #402, #403 );
#340 = FILL_AREA_STYLE_COLOUR( '', #404 );
#341 = VERTEX_POINT( '', #405 );
#342 = CIRCLE( '', #406, 3.00000000000000 );
#343 = VERTEX_POINT( '', #407 );
#344 = CIRCLE( '', #408, 3.00000000000000 );
#345 = FILL_AREA_STYLE_COLOUR( '', #409 );
#346 = VERTEX_POINT( '', #410 );
#347 = VERTEX_POINT( '', #411 );
#348 = CIRCLE( '', #412, 4.00000000000000 );
#349 = LINE( '', #413, #414 );
#350 = CIRCLE( '', #415, 4.00000000000000 );
#351 = LINE( '', #416, #417 );
#352 = FILL_AREA_STYLE_COLOUR( '', #418 );
#353 = VERTEX_POINT( '', #419 );
#354 = VERTEX_POINT( '', #420 );
#355 = LINE( '', #421, #422 );
#356 = B_SPLINE_CURVE_WITH_KNOTS( '', 3, ( #423, #424, #425, #426 ), .UNSPECIFIED., .F., .F., ( 4, 4 ), ( 0.00685941369446052, 0.00796210091278451 ), .UNSPECIFIED. );
#357 = B_SPLINE_CURVE_WITH_KNOTS( '', 3, ( #427, #428, #429, #430 ), .UNSPECIFIED., .F., .F., ( 4, 4 ), ( 0.0158157249040059, 0.0169130244324276 ), .UNSPECIFIED. );
#358 = FILL_AREA_STYLE_COLOUR( '', #431 );
#359 = CIRCLE( '', #432, 3.23300000000000 );
#360 = FILL_AREA_STYLE_COLOUR( '', #433 );
#361 = FILL_AREA_STYLE_COLOUR( '', #434 );
#362 = FILL_AREA_STYLE_COLOUR( '', #435 );
#363 = FILL_AREA_STYLE_COLOUR( '', #436 );
#364 = CIRCLE( '', #437, 3.23300000000000 );
#365 = FILL_AREA_STYLE_COLOUR( '', #438 );
#366 = COLOUR_RGB( '', 0.689999997600000, 0.689999997600000, 0.689999997600000 );
#367 = CARTESIAN_POINT( '', ( 32.0000000000000, 2.70000000000000, 0.000000000000000 ) );
#368 = AXIS2_PLACEMENT_3D( '', #439, #440, #441 );
#369 = CARTESIAN_POINT( '', ( 28.2217250000000, 2.70000000000000, 0.000000000000000 ) );
#370 = AXIS2_PLACEMENT_3D( '', #442, #443, #444 );
#371 = COLOUR_RGB( '', 0.689999997600000, 0.689999997600000, 0.689999997600000 );
#372 = CARTESIAN_POINT( '', ( 27.5000000000000, 4.00000000000000, 0.000000000000000 ) );
#373 = AXIS2_PLACEMENT_3D( '', #445, #446, #447 );
#374 = COLOUR_RGB( '', 0.689999997600000, 0.689999997600000, 0.689999997600000 );
#375 = CARTESIAN_POINT( '', ( 3.00000000000000, 0.900000000000002, -3.89743505398101 ) );
#376 = CARTESIAN_POINT( '', ( 3.00000000000000, -0.899999999999998, -3.89743505398101 ) );
#377 = AXIS2_PLACEMENT_3D( '', #448, #449, #450 );
#378 = CARTESIAN_POINT( '', ( 3.00000000000000, -0.899999999999998, 3.89743505398101 ) );
#379 = CARTESIAN_POINT( '', ( 3.00000000000000, -0.899999999999998, -10.5000000000000 ) );
#380 = VECTOR( '', #451, 1000.00000000000 );
#381 = CARTESIAN_POINT( '', ( 3.00000000000000, 0.900000000000002, 3.89743505398101 ) );
#382 = AXIS2_PLACEMENT_3D( '', #452, #453, #454 );
#383 = CARTESIAN_POINT( '', ( 3.00000000000000, 0.900000000000002, 10.5000000000000 ) );
#384 = VECTOR( '', #455, 1000.00000000000 );
#385 = COLOUR_RGB( '', 0.689999997600000, 0.689999997600000, 0.689999997600000 );
#386 = CARTESIAN_POINT( '', ( 0.000000000000000, 0.900000000000002, 3.10520353600211 ) );
#387 = CARTESIAN_POINT( '', ( 0.767000000000004, 0.900000000000004, 3.89743505398101 ) );
#388 = CARTESIAN_POINT( '', ( 7.74313155387832E-16, 0.900000000000002, 3.10520353600211 ) );
#389 = CARTESIAN_POINT( '', ( 0.254623855499882, 0.900000000000002, 3.37030658489628 ) );
#390 = CARTESIAN_POINT( '', ( 0.510496360619596, 0.900000000000002, 3.63418126185596 ) );
#391 = CARTESIAN_POINT( '', ( 0.767000000000000, 0.900000000000002, 3.89743505398102 ) );
#392 = CARTESIAN_POINT( '', ( 0.000000000000000, 0.900000000000002, -3.10520353600211 ) );
#393 = CARTESIAN_POINT( '', ( 0.000000000000000, 0.900000000000002, 10.5000000000000 ) );
#394 = VECTOR( '', #456, 1000.00000000000 );
#395 = CARTESIAN_POINT( '', ( 0.767000000000004, 0.900000000000004, -3.89743505398101 ) );
#396 = CARTESIAN_POINT( '', ( 0.767000000000000, 0.900000000000002, -3.89743505398102 ) );
#397 = CARTESIAN_POINT( '', ( 0.510490421567082, 0.900000000000002, -3.63417516651128 ) );
#398 = CARTESIAN_POINT( '', ( 0.254616510453989, 0.900000000000002, -3.37029893756074 ) );
#399 = CARTESIAN_POINT( '', ( 1.90736923016854E-16, 0.900000000000002, -3.10520353600211 ) );
#400 = CARTESIAN_POINT( '', ( 35.0000000000000, 0.900000000000002, -3.89743505398101 ) );
#401 = VECTOR( '', #457, 1000.00000000000 );
#402 = CARTESIAN_POINT( '', ( 35.0000000000000, 0.900000000000002, 3.89743505398101 ) );
#403 = VECTOR( '', #458, 1000.00000000000 );
#404 = COLOUR_RGB( '', 0.689999997600000, 0.689999997600000, 0.689999997600000 );
#405 = CARTESIAN_POINT( '', ( 34.0079778228192, 3.00000000000000, 0.000000000000000 ) );
#406 = AXIS2_PLACEMENT_3D( '', #459, #460, #461 );
#407 = CARTESIAN_POINT( '', ( 32.0000000000000, 3.00000000000000, 0.000000000000000 ) );
#408 = AXIS2_PLACEMENT_3D( '', #462, #463, #464 );
#409 = COLOUR_RGB( '', 0.689999997600000, 0.689999997600000, 0.689999997600000 );
#410 = CARTESIAN_POINT( '', ( 0.767000000000004, -0.899999999999996, 3.89743505398102 ) );
#411 = CARTESIAN_POINT( '', ( 0.767000000000004, -0.899999999999996, -3.89743505398102 ) );
#412 = AXIS2_PLACEMENT_3D( '', #465, #466, #467 );
#413 = CARTESIAN_POINT( '', ( 35.0000000000000, -0.899999999999998, -3.89743505398102 ) );
#414 = VECTOR( '', #468, 1000.00000000000 );
#415 = AXIS2_PLACEMENT_3D( '', #469, #470, #471 );
#416 = CARTESIAN_POINT( '', ( 35.0000000000000, -0.899999999999998, 3.89743505398102 ) );
#417 = VECTOR( '', #472, 1000.00000000000 );
#418 = COLOUR_RGB( '', 0.689999997600000, 0.689999997600000, 0.689999997600000 );
#419 = CARTESIAN_POINT( '', ( 0.000000000000000, -0.899999999999998, -3.10520353600211 ) );
#420 = CARTESIAN_POINT( '', ( 0.000000000000000, -0.899999999999998, 3.10520353600211 ) );
#421 = CARTESIAN_POINT( '', ( 0.000000000000000, -0.899999999999998, -10.5000000000000 ) );
#422 = VECTOR( '', #473, 1000.00000000000 );
#423 = CARTESIAN_POINT( '', ( 0.766999999999999, -0.899999999999998, 3.89743505398102 ) );
#424 = CARTESIAN_POINT( '', ( 0.510490421567081, -0.899999999999998, 3.63417516651127 ) );
#425 = CARTESIAN_POINT( '', ( 0.254616510453987, -0.899999999999998, 3.37029893756073 ) );
#426 = CARTESIAN_POINT( '', ( -1.59249995932834E-15, -0.899999999999998, 3.10520353600211 ) );
#427 = CARTESIAN_POINT( '', ( -2.56229099095225E-16, -0.899999999999998, -3.10520353600211 ) );
#428 = CARTESIAN_POINT( '', ( 0.254623855499881, -0.899999999999998, -3.37030658489628 ) );
#429 = CARTESIAN_POINT( '', ( 0.510496360619597, -0.899999999999998, -3.63418126185597 ) );
#430 = CARTESIAN_POINT( '', ( 0.767000000000001, -0.899999999999998, -3.89743505398102 ) );
#431 = COLOUR_RGB( '', 0.689999997600000, 0.689999997600000, 0.689999997600000 );
#432 = AXIS2_PLACEMENT_3D( '', #474, #475, #476 );
#433 = COLOUR_RGB( '', 0.689999997600000, 0.689999997600000, 0.689999997600000 );
#434 = COLOUR_RGB( '', 0.689999997600000, 0.689999997600000, 0.689999997600000 );
#435 = COLOUR_RGB( '', 0.689999997600000, 0.689999997600000, 0.689999997600000 );
#436 = COLOUR_RGB( '', 0.689999997600000, 0.689999997600000, 0.689999997600000 );
#437 = AXIS2_PLACEMENT_3D( '', #477, #478, #479 );
#438 = COLOUR_RGB( '', 0.689999997600000, 0.689999997600000, 0.689999997600000 );
#439 = CARTESIAN_POINT( '', ( 32.0000000000000, 1.83697019872103E-16, 0.000000000000000 ) );
#440 = DIRECTION( '', ( 1.00000000000000, -6.12323399573676E-17, -0.000000000000000 ) );
#441 = DIRECTION( '', ( 6.12323399573677E-17, 1.00000000000000, 0.000000000000000 ) );
#442 = CARTESIAN_POINT( '', ( 28.2217250000000, 4.15049639124526E-16, 0.000000000000000 ) );
#443 = DIRECTION( '', ( 1.00000000000000, -6.12323399573676E-17, -0.000000000000000 ) );
#444 = DIRECTION( '', ( 6.12323399573677E-17, 1.00000000000000, 0.000000000000000 ) );
#445 = CARTESIAN_POINT( '', ( 27.5000000000000, 4.59242549680258E-16, 0.000000000000000 ) );
#446 = DIRECTION( '', ( 1.00000000000000, -6.12323399573677E-17, -0.000000000000000 ) );
#447 = DIRECTION( '', ( 6.12323399573677E-17, 1.00000000000000, 0.000000000000000 ) );
#448 = CARTESIAN_POINT( '', ( 3.00000000000000, 1.95943487863577E-15, 0.000000000000000 ) );
#449 = DIRECTION( '', ( -1.00000000000000, 0.000000000000000, 0.000000000000000 ) );
#450 = DIRECTION( '', ( 0.000000000000000, 0.000000000000000, 1.00000000000000 ) );
#451 = DIRECTION( '', ( 0.000000000000000, 0.000000000000000, 1.00000000000000 ) );
#452 = CARTESIAN_POINT( '', ( 3.00000000000000, 1.95943487863577E-15, 0.000000000000000 ) );
#453 = DIRECTION( '', ( -1.00000000000000, 0.000000000000000, 0.000000000000000 ) );
#454 = DIRECTION( '', ( 0.000000000000000, 0.000000000000000, 1.00000000000000 ) );
#455 = DIRECTION( '', ( 0.000000000000000, 0.000000000000000, -1.00000000000000 ) );
#456 = DIRECTION( '', ( 0.000000000000000, 0.000000000000000, -1.00000000000000 ) );
#457 = DIRECTION( '', ( 1.00000000000000, -6.12323399573677E-17, -0.000000000000000 ) );
#458 = DIRECTION( '', ( 1.00000000000000, -6.12323399573677E-17, -0.000000000000000 ) );
#459 = CARTESIAN_POINT( '', ( 34.0079778228192, 6.07438391983836E-17, 0.000000000000000 ) );
#460 = DIRECTION( '', ( 1.00000000000000, -6.12323399573677E-17, -0.000000000000000 ) );
#461 = DIRECTION( '', ( 6.12323399573677E-17, 1.00000000000000, 0.000000000000000 ) );
#462 = CARTESIAN_POINT( '', ( 32.0000000000000, 1.83697019872103E-16, 0.000000000000000 ) );
#463 = DIRECTION( '', ( 1.00000000000000, -6.12323399573677E-17, -0.000000000000000 ) );
#464 = DIRECTION( '', ( 6.12323399573677E-17, 1.00000000000000, 0.000000000000000 ) );
#465 = CARTESIAN_POINT( '', ( 0.766999999999997, 2.09616669376057E-15, 0.000000000000000 ) );
#466 = DIRECTION( '', ( 1.00000000000000, -6.12323399573677E-17, -0.000000000000000 ) );
#467 = DIRECTION( '', ( 6.12323399573677E-17, 1.00000000000000, 0.000000000000000 ) );
#468 = DIRECTION( '', ( 1.00000000000000, -6.12323399573677E-17, -0.000000000000000 ) );
#469 = CARTESIAN_POINT( '', ( 0.766999999999997, 2.09616669376057E-15, 0.000000000000000 ) );
#470 = DIRECTION( '', ( 1.00000000000000, -6.12323399573677E-17, -0.000000000000000 ) );
#471 = DIRECTION( '', ( 6.12323399573677E-17, 1.00000000000000, 0.000000000000000 ) );
#472 = DIRECTION( '', ( 1.00000000000000, -6.12323399573677E-17, -0.000000000000000 ) );
#473 = DIRECTION( '', ( 0.000000000000000, 0.000000000000000, 1.00000000000000 ) );
#474 = CARTESIAN_POINT( '', ( 0.000000000000000, 2.14313189850787E-15, 0.000000000000000 ) );
#475 = DIRECTION( '', ( 1.00000000000000, -6.12323399573677E-17, -0.000000000000000 ) );
#476 = DIRECTION( '', ( 6.12323399573677E-17, 1.00000000000000, 0.000000000000000 ) );
#477 = CARTESIAN_POINT( '', ( 0.000000000000000, 2.14313189850787E-15, 0.000000000000000 ) );
#478 = DIRECTION( '', ( 1.00000000000000, -6.12323399573677E-17, -0.000000000000000 ) );
#479 = DIRECTION( '', ( 6.12323399573677E-17, 1.00000000000000, 0.000000000000000 ) );
ENDSEC;
END-ISO-10303-21;
