ISO-10303-21;
HEADER;
FILE_DESCRIPTION( ( 'STEP AP214' ), '1' );
FILE_NAME( '//goodhand-server/Shared Folders/GoodHand Data/Kipp CAD/K0127/27618-0808119.stp', '2020-11-25T11:42:52', ( '' ), ( '' ), ' ', 'PARTsolutions', ' ' );
FILE_SCHEMA( ( 'AUTOMOTIVE_DESIGN { 1 0 10303 214 1 1 1 1 }' ) );
ENDSEC;
DATA;
#1 = MECHANICAL_DESIGN_GEOMETRIC_PRESENTATION_REPRESENTATION( ' ', ( #10, #11, #12, #13, #14, #15, #16, #17, #18, #19, #20, #21, #22 ), #6 );
#2 = PRODUCT_DEFINITION_CONTEXT( '', #23, 'design' );
#3 = APPLICATION_PROTOCOL_DEFINITION( 'international standard', 'automotive_design', 2001, #23 );
#4 = PRODUCT_CATEGORY_RELATIONSHIP( 'NONE', 'NONE', #24, #25 );
#5 = SHAPE_DEFINITION_REPRESENTATION( #26, #27 );
#6 =  ( GEOMETRIC_REPRESENTATION_CONTEXT( 3 )GLOBAL_UNCERTAINTY_ASSIGNED_CONTEXT( ( #30 ) )GLOBAL_UNIT_ASSIGNED_CONTEXT( ( #32, #33, #34 ) )REPRESENTATION_CONTEXT( 'NONE', 'WORKSPACE' ) );
#10 = STYLED_ITEM( '', ( #36 ), #37 );
#11 = STYLED_ITEM( '', ( #38 ), #39 );
#12 = STYLED_ITEM( '', ( #40 ), #41 );
#13 = STYLED_ITEM( '', ( #42 ), #43 );
#14 = STYLED_ITEM( '', ( #44 ), #45 );
#15 = STYLED_ITEM( '', ( #46 ), #47 );
#16 = STYLED_ITEM( '', ( #48 ), #49 );
#17 = STYLED_ITEM( '', ( #50 ), #51 );
#18 = STYLED_ITEM( '', ( #52 ), #53 );
#19 = STYLED_ITEM( '', ( #54 ), #55 );
#20 = STYLED_ITEM( '', ( #56 ), #57 );
#21 = STYLED_ITEM( '', ( #58 ), #59 );
#22 = STYLED_ITEM( '', ( #60 ), #61 );
#23 = APPLICATION_CONTEXT( 'core data for automotive mechanical design processes' );
#24 = PRODUCT_CATEGORY( 'part', 'NONE' );
#25 = PRODUCT_RELATED_PRODUCT_CATEGORY( 'detail', ' ', ( #62 ) );
#26 = PRODUCT_DEFINITION_SHAPE( 'NONE', 'NONE', #63 );
#27 = ADVANCED_BREP_SHAPE_REPRESENTATION( '_27618-0808119', ( #64, #65 ), #6 );
#30 = UNCERTAINTY_MEASURE_WITH_UNIT( LENGTH_MEASURE( 0.00100000000000000 ), #32, '', '' );
#32 =  ( CONVERSION_BASED_UNIT( 'MILLIMETRE', #68 )LENGTH_UNIT(  )NAMED_UNIT( #71 ) );
#33 =  ( NAMED_UNIT( #73 )PLANE_ANGLE_UNIT(  )SI_UNIT( $, .RADIAN. ) );
#34 =  ( NAMED_UNIT( #73 )SI_UNIT( $, .STERADIAN. )SOLID_ANGLE_UNIT(  ) );
#36 = PRESENTATION_STYLE_ASSIGNMENT( ( #79 ) );
#37 = ADVANCED_FACE( '', ( #80, #81 ), #82, .F. );
#38 = PRESENTATION_STYLE_ASSIGNMENT( ( #83 ) );
#39 = ADVANCED_FACE( '', ( #84, #85 ), #86, .F. );
#40 = PRESENTATION_STYLE_ASSIGNMENT( ( #87 ) );
#41 = ADVANCED_FACE( '', ( #88 ), #89, .F. );
#42 = PRESENTATION_STYLE_ASSIGNMENT( ( #90 ) );
#43 = ADVANCED_FACE( '', ( #91 ), #92, .T. );
#44 = PRESENTATION_STYLE_ASSIGNMENT( ( #93 ) );
#45 = ADVANCED_FACE( '', ( #94, #95 ), #96, .F. );
#46 = PRESENTATION_STYLE_ASSIGNMENT( ( #97 ) );
#47 = ADVANCED_FACE( '', ( #98 ), #99, .T. );
#48 = PRESENTATION_STYLE_ASSIGNMENT( ( #100 ) );
#49 = ADVANCED_FACE( '', ( #101, #102 ), #103, .T. );
#50 = PRESENTATION_STYLE_ASSIGNMENT( ( #104 ) );
#51 = ADVANCED_FACE( '', ( #105, #106 ), #107, .T. );
#52 = PRESENTATION_STYLE_ASSIGNMENT( ( #108 ) );
#53 = ADVANCED_FACE( '', ( #109, #110 ), #111, .F. );
#54 = PRESENTATION_STYLE_ASSIGNMENT( ( #112 ) );
#55 = ADVANCED_FACE( '', ( #113, #114 ), #115, .T. );
#56 = PRESENTATION_STYLE_ASSIGNMENT( ( #116 ) );
#57 = ADVANCED_FACE( '', ( #117, #118 ), #119, .F. );
#58 = PRESENTATION_STYLE_ASSIGNMENT( ( #120 ) );
#59 = ADVANCED_FACE( '', ( #121, #122 ), #123, .F. );
#60 = PRESENTATION_STYLE_ASSIGNMENT( ( #124 ) );
#61 = ADVANCED_FACE( '', ( #125, #126 ), #127, .T. );
#62 = PRODUCT( '_27618-0808119', '_27618-0808119', 'PART-_27618-0808119-DESC', ( #128 ) );
#63 = PRODUCT_DEFINITION( 'NONE', 'NONE', #129, #2 );
#64 = MANIFOLD_SOLID_BREP( '_27618-0808119', #130 );
#65 = AXIS2_PLACEMENT_3D( '', #131, #132, #133 );
#68 = LENGTH_MEASURE_WITH_UNIT( LENGTH_MEASURE( 1.00000000000000 ), #134 );
#71 = DIMENSIONAL_EXPONENTS( 1.00000000000000, 0.000000000000000, 0.000000000000000, 0.000000000000000, 0.000000000000000, 0.000000000000000, 0.000000000000000 );
#73 = DIMENSIONAL_EXPONENTS( 0.000000000000000, 0.000000000000000, 0.000000000000000, 0.000000000000000, 0.000000000000000, 0.000000000000000, 0.000000000000000 );
#79 = SURFACE_STYLE_USAGE( .BOTH., #135 );
#80 = FACE_BOUND( '', #136, .T. );
#81 = FACE_OUTER_BOUND( '', #137, .T. );
#82 = PLANE( '', #138 );
#83 = SURFACE_STYLE_USAGE( .BOTH., #139 );
#84 = FACE_BOUND( '', #140, .T. );
#85 = FACE_OUTER_BOUND( '', #141, .T. );
#86 = CONICAL_SURFACE( '', #142, 4.00000000000000, 0.785398163400000 );
#87 = SURFACE_STYLE_USAGE( .BOTH., #143 );
#88 = FACE_OUTER_BOUND( '', #144, .T. );
#89 = PLANE( '', #145 );
#90 = SURFACE_STYLE_USAGE( .BOTH., #146 );
#91 = FACE_OUTER_BOUND( '', #147, .T. );
#92 = PLANE( '', #148 );
#93 = SURFACE_STYLE_USAGE( .BOTH., #149 );
#94 = FACE_OUTER_BOUND( '', #150, .T. );
#95 = FACE_OUTER_BOUND( '', #151, .T. );
#96 = CYLINDRICAL_SURFACE( '', #152, 4.05000000000000 );
#97 = SURFACE_STYLE_USAGE( .BOTH., #153 );
#98 = FACE_OUTER_BOUND( '', #154, .T. );
#99 = PLANE( '', #155 );
#100 = SURFACE_STYLE_USAGE( .BOTH., #156 );
#101 = FACE_BOUND( '', #157, .T. );
#102 = FACE_OUTER_BOUND( '', #158, .T. );
#103 = PLANE( '', #159 );
#104 = SURFACE_STYLE_USAGE( .BOTH., #160 );
#105 = FACE_BOUND( '', #161, .T. );
#106 = FACE_OUTER_BOUND( '', #162, .T. );
#107 = PLANE( '', #163 );
#108 = SURFACE_STYLE_USAGE( .BOTH., #164 );
#109 = FACE_BOUND( '', #165, .T. );
#110 = FACE_OUTER_BOUND( '', #166, .T. );
#111 = CONICAL_SURFACE( '', #167, 4.55000000000000, 0.785398163400000 );
#112 = SURFACE_STYLE_USAGE( .BOTH., #168 );
#113 = FACE_BOUND( '', #169, .T. );
#114 = FACE_OUTER_BOUND( '', #170, .T. );
#115 = SPHERICAL_SURFACE( '', #171, 7.00000000000000 );
#116 = SURFACE_STYLE_USAGE( .BOTH., #172 );
#117 = FACE_OUTER_BOUND( '', #173, .T. );
#118 = FACE_OUTER_BOUND( '', #174, .T. );
#119 = CYLINDRICAL_SURFACE( '', #175, 3.32350000000000 );
#120 = SURFACE_STYLE_USAGE( .BOTH., #176 );
#121 = FACE_OUTER_BOUND( '', #177, .T. );
#122 = FACE_BOUND( '', #178, .T. );
#123 = CONICAL_SURFACE( '', #179, 4.05000000000000, 0.785398163400000 );
#124 = SURFACE_STYLE_USAGE( .BOTH., #180 );
#125 = FACE_OUTER_BOUND( '', #181, .T. );
#126 = FACE_OUTER_BOUND( '', #182, .T. );
#127 = CYLINDRICAL_SURFACE( '', #183, 7.00000000000000 );
#128 = PRODUCT_CONTEXT( '', #23, 'mechanical' );
#129 = PRODUCT_DEFINITION_FORMATION_WITH_SPECIFIED_SOURCE( ' ', 'NONE', #62, .NOT_KNOWN. );
#130 = CLOSED_SHELL( '', ( #55, #61, #37, #39, #57, #41, #47, #49, #51, #43, #53, #45, #59 ) );
#131 = CARTESIAN_POINT( '', ( 0.000000000000000, 0.000000000000000, 0.000000000000000 ) );
#132 = DIRECTION( '', ( 0.000000000000000, 0.000000000000000, 1.00000000000000 ) );
#133 = DIRECTION( '', ( 1.00000000000000, 0.000000000000000, 0.000000000000000 ) );
#134 =  ( LENGTH_UNIT(  )NAMED_UNIT( #71 )SI_UNIT( .MILLI., .METRE. ) );
#135 = SURFACE_SIDE_STYLE( '', ( #185 ) );
#136 = EDGE_LOOP( '', ( #186 ) );
#137 = EDGE_LOOP( '', ( #187 ) );
#138 = AXIS2_PLACEMENT_3D( '', #188, #189, #190 );
#139 = SURFACE_SIDE_STYLE( '', ( #191 ) );
#140 = EDGE_LOOP( '', ( #192 ) );
#141 = EDGE_LOOP( '', ( #193 ) );
#142 = AXIS2_PLACEMENT_3D( '', #194, #195, #196 );
#143 = SURFACE_SIDE_STYLE( '', ( #197 ) );
#144 = EDGE_LOOP( '', ( #198 ) );
#145 = AXIS2_PLACEMENT_3D( '', #199, #200, #201 );
#146 = SURFACE_SIDE_STYLE( '', ( #202 ) );
#147 = EDGE_LOOP( '', ( #203, #204 ) );
#148 = AXIS2_PLACEMENT_3D( '', #205, #206, #207 );
#149 = SURFACE_SIDE_STYLE( '', ( #208 ) );
#150 = EDGE_LOOP( '', ( #209 ) );
#151 = EDGE_LOOP( '', ( #210 ) );
#152 = AXIS2_PLACEMENT_3D( '', #211, #212, #213 );
#153 = SURFACE_SIDE_STYLE( '', ( #214 ) );
#154 = EDGE_LOOP( '', ( #215, #216 ) );
#155 = AXIS2_PLACEMENT_3D( '', #217, #218, #219 );
#156 = SURFACE_SIDE_STYLE( '', ( #220 ) );
#157 = EDGE_LOOP( '', ( #221 ) );
#158 = EDGE_LOOP( '', ( #222, #223, #224, #225 ) );
#159 = AXIS2_PLACEMENT_3D( '', #226, #227, #228 );
#160 = SURFACE_SIDE_STYLE( '', ( #229 ) );
#161 = EDGE_LOOP( '', ( #230 ) );
#162 = EDGE_LOOP( '', ( #231, #232, #233, #234 ) );
#163 = AXIS2_PLACEMENT_3D( '', #235, #236, #237 );
#164 = SURFACE_SIDE_STYLE( '', ( #238 ) );
#165 = EDGE_LOOP( '', ( #239 ) );
#166 = EDGE_LOOP( '', ( #240 ) );
#167 = AXIS2_PLACEMENT_3D( '', #241, #242, #243 );
#168 = SURFACE_SIDE_STYLE( '', ( #244 ) );
#169 = VERTEX_LOOP( '', #245 );
#170 = EDGE_LOOP( '', ( #246, #247, #248, #249 ) );
#171 = AXIS2_PLACEMENT_3D( '', #250, #251, #252 );
#172 = SURFACE_SIDE_STYLE( '', ( #253 ) );
#173 = EDGE_LOOP( '', ( #254 ) );
#174 = EDGE_LOOP( '', ( #255 ) );
#175 = AXIS2_PLACEMENT_3D( '', #256, #257, #258 );
#176 = SURFACE_SIDE_STYLE( '', ( #259 ) );
#177 = EDGE_LOOP( '', ( #260 ) );
#178 = EDGE_LOOP( '', ( #261 ) );
#179 = AXIS2_PLACEMENT_3D( '', #262, #263, #264 );
#180 = SURFACE_SIDE_STYLE( '', ( #265 ) );
#181 = EDGE_LOOP( '', ( #266 ) );
#182 = EDGE_LOOP( '', ( #267, #268, #269, #270, #271, #272, #273, #274 ) );
#183 = AXIS2_PLACEMENT_3D( '', #275, #276, #277 );
#185 = SURFACE_STYLE_FILL_AREA( #278 );
#186 = ORIENTED_EDGE( '', *, *, #279, .F. );
#187 = ORIENTED_EDGE( '', *, *, #280, .T. );
#188 = CARTESIAN_POINT( '', ( 7.00000000000000, 0.000000000000000, 0.000000000000000 ) );
#189 = DIRECTION( '', ( 0.000000000000000, 1.00000000000000, 0.000000000000000 ) );
#190 = DIRECTION( '', ( 0.000000000000000, -0.000000000000000, 1.00000000000000 ) );
#191 = SURFACE_STYLE_FILL_AREA( #281 );
#192 = ORIENTED_EDGE( '', *, *, #282, .F. );
#193 = ORIENTED_EDGE( '', *, *, #279, .T. );
#194 = CARTESIAN_POINT( '', ( 0.000000000000000, 0.000000000000000, 0.000000000000000 ) );
#195 = DIRECTION( '', ( -0.000000000000000, -1.00000000000000, -0.000000000000000 ) );
#196 = DIRECTION( '', ( 0.000000000000000, 0.000000000000000, -1.00000000000000 ) );
#197 = SURFACE_STYLE_FILL_AREA( #283 );
#198 = ORIENTED_EDGE( '', *, *, #284, .T. );
#199 = CARTESIAN_POINT( '', ( 3.32350000000000, 11.0000000000000, 0.000000000000000 ) );
#200 = DIRECTION( '', ( 0.000000000000000, 1.00000000000000, 0.000000000000000 ) );
#201 = DIRECTION( '', ( 0.000000000000000, -0.000000000000000, 1.00000000000000 ) );
#202 = SURFACE_STYLE_FILL_AREA( #285 );
#203 = ORIENTED_EDGE( '', *, *, #286, .F. );
#204 = ORIENTED_EDGE( '', *, *, #287, .T. );
#205 = CARTESIAN_POINT( '', ( 5.00000000000000, 12.0000000000000, 7.00000000000000 ) );
#206 = DIRECTION( '', ( 0.000000000000000, 1.00000000000000, 0.000000000000000 ) );
#207 = DIRECTION( '', ( 0.000000000000000, -0.000000000000000, 1.00000000000000 ) );
#208 = SURFACE_STYLE_FILL_AREA( #288 );
#209 = ORIENTED_EDGE( '', *, *, #289, .T. );
#210 = ORIENTED_EDGE( '', *, *, #290, .F. );
#211 = CARTESIAN_POINT( '', ( 5.00000000000000, 19.0000000000000, 0.000000000000000 ) );
#212 = DIRECTION( '', ( -1.00000000000000, -0.000000000000000, 0.000000000000000 ) );
#213 = DIRECTION( '', ( -0.000000000000000, 0.000000000000000, -1.00000000000000 ) );
#214 = SURFACE_STYLE_FILL_AREA( #291 );
#215 = ORIENTED_EDGE( '', *, *, #292, .T. );
#216 = ORIENTED_EDGE( '', *, *, #293, .T. );
#217 = CARTESIAN_POINT( '', ( -7.00000000000000, 12.0000000000000, 7.00000000000000 ) );
#218 = DIRECTION( '', ( 0.000000000000000, 1.00000000000000, 0.000000000000000 ) );
#219 = DIRECTION( '', ( 0.000000000000000, -0.000000000000000, 1.00000000000000 ) );
#220 = SURFACE_STYLE_FILL_AREA( #294 );
#221 = ORIENTED_EDGE( '', *, *, #295, .T. );
#222 = ORIENTED_EDGE( '', *, *, #296, .T. );
#223 = ORIENTED_EDGE( '', *, *, #292, .F. );
#224 = ORIENTED_EDGE( '', *, *, #297, .T. );
#225 = ORIENTED_EDGE( '', *, *, #298, .F. );
#226 = CARTESIAN_POINT( '', ( -5.00000000000000, 12.0000000000000, 7.00000000000000 ) );
#227 = DIRECTION( '', ( -1.00000000000000, 0.000000000000000, 0.000000000000000 ) );
#228 = DIRECTION( '', ( 0.000000000000000, 0.000000000000000, 1.00000000000000 ) );
#229 = SURFACE_STYLE_FILL_AREA( #299 );
#230 = ORIENTED_EDGE( '', *, *, #300, .F. );
#231 = ORIENTED_EDGE( '', *, *, #301, .T. );
#232 = ORIENTED_EDGE( '', *, *, #286, .T. );
#233 = ORIENTED_EDGE( '', *, *, #302, .T. );
#234 = ORIENTED_EDGE( '', *, *, #303, .F. );
#235 = CARTESIAN_POINT( '', ( 5.00000000000000, 26.0000000000000, 7.00000000000000 ) );
#236 = DIRECTION( '', ( 1.00000000000000, 0.000000000000000, -0.000000000000000 ) );
#237 = DIRECTION( '', ( -0.000000000000000, 0.000000000000000, -1.00000000000000 ) );
#238 = SURFACE_STYLE_FILL_AREA( #304 );
#239 = ORIENTED_EDGE( '', *, *, #290, .T. );
#240 = ORIENTED_EDGE( '', *, *, #295, .F. );
#241 = CARTESIAN_POINT( '', ( -5.00000000000000, 19.0000000000000, 0.000000000000000 ) );
#242 = DIRECTION( '', ( -1.00000000000000, 0.000000000000000, -0.000000000000000 ) );
#243 = DIRECTION( '', ( 0.000000000000000, 0.000000000000000, 1.00000000000000 ) );
#244 = SURFACE_STYLE_FILL_AREA( #305 );
#245 = VERTEX_POINT( '', #306 );
#246 = ORIENTED_EDGE( '', *, *, #307, .F. );
#247 = ORIENTED_EDGE( '', *, *, #298, .T. );
#248 = ORIENTED_EDGE( '', *, *, #308, .F. );
#249 = ORIENTED_EDGE( '', *, *, #303, .T. );
#250 = CARTESIAN_POINT( '', ( -3.03576608295941E-15, 19.0000000000000, 0.000000000000000 ) );
#251 = DIRECTION( '', ( 0.000000000000000, -1.00000000000000, 0.000000000000000 ) );
#252 = DIRECTION( '', ( 1.00000000000000, 0.000000000000000, 0.000000000000000 ) );
#253 = SURFACE_STYLE_FILL_AREA( #309 );
#254 = ORIENTED_EDGE( '', *, *, #284, .F. );
#255 = ORIENTED_EDGE( '', *, *, #282, .T. );
#256 = CARTESIAN_POINT( '', ( 0.000000000000000, 0.000000000000000, 0.000000000000000 ) );
#257 = DIRECTION( '', ( -0.000000000000000, 1.00000000000000, 0.000000000000000 ) );
#258 = DIRECTION( '', ( 0.000000000000000, 0.000000000000000, -1.00000000000000 ) );
#259 = SURFACE_STYLE_FILL_AREA( #310 );
#260 = ORIENTED_EDGE( '', *, *, #300, .T. );
#261 = ORIENTED_EDGE( '', *, *, #289, .F. );
#262 = CARTESIAN_POINT( '', ( 4.50000000000000, 19.0000000000000, 0.000000000000000 ) );
#263 = DIRECTION( '', ( 1.00000000000000, -0.000000000000000, -0.000000000000000 ) );
#264 = DIRECTION( '', ( -0.000000000000000, 0.000000000000000, -1.00000000000000 ) );
#265 = SURFACE_STYLE_FILL_AREA( #311 );
#266 = ORIENTED_EDGE( '', *, *, #280, .F. );
#267 = ORIENTED_EDGE( '', *, *, #293, .F. );
#268 = ORIENTED_EDGE( '', *, *, #296, .F. );
#269 = ORIENTED_EDGE( '', *, *, #307, .T. );
#270 = ORIENTED_EDGE( '', *, *, #302, .F. );
#271 = ORIENTED_EDGE( '', *, *, #287, .F. );
#272 = ORIENTED_EDGE( '', *, *, #301, .F. );
#273 = ORIENTED_EDGE( '', *, *, #308, .T. );
#274 = ORIENTED_EDGE( '', *, *, #297, .F. );
#275 = CARTESIAN_POINT( '', ( 0.000000000000000, 0.000000000000000, 0.000000000000000 ) );
#276 = DIRECTION( '', ( -0.000000000000000, 1.00000000000000, 0.000000000000000 ) );
#277 = DIRECTION( '', ( 0.000000000000000, 0.000000000000000, -1.00000000000000 ) );
#278 = FILL_AREA_STYLE( '', ( #312 ) );
#279 = EDGE_CURVE( '', #313, #313, #314, .T. );
#280 = EDGE_CURVE( '', #315, #315, #316, .T. );
#281 = FILL_AREA_STYLE( '', ( #317 ) );
#282 = EDGE_CURVE( '', #318, #318, #319, .T. );
#283 = FILL_AREA_STYLE( '', ( #320 ) );
#284 = EDGE_CURVE( '', #321, #321, #322, .T. );
#285 = FILL_AREA_STYLE( '', ( #323 ) );
#286 = EDGE_CURVE( '', #324, #325, #326, .T. );
#287 = EDGE_CURVE( '', #324, #325, #327, .T. );
#288 = FILL_AREA_STYLE( '', ( #328 ) );
#289 = EDGE_CURVE( '', #329, #329, #330, .T. );
#290 = EDGE_CURVE( '', #331, #331, #332, .T. );
#291 = FILL_AREA_STYLE( '', ( #333 ) );
#292 = EDGE_CURVE( '', #334, #335, #336, .T. );
#293 = EDGE_CURVE( '', #335, #334, #337, .T. );
#294 = FILL_AREA_STYLE( '', ( #338 ) );
#295 = EDGE_CURVE( '', #339, #339, #340, .T. );
#296 = EDGE_CURVE( '', #341, #335, #342, .T. );
#297 = EDGE_CURVE( '', #334, #343, #344, .F. );
#298 = EDGE_CURVE( '', #341, #343, #345, .F. );
#299 = FILL_AREA_STYLE( '', ( #346 ) );
#300 = EDGE_CURVE( '', #347, #347, #348, .T. );
#301 = EDGE_CURVE( '', #349, #324, #350, .T. );
#302 = EDGE_CURVE( '', #325, #351, #352, .F. );
#303 = EDGE_CURVE( '', #349, #351, #353, .F. );
#304 = FILL_AREA_STYLE( '', ( #354 ) );
#305 = FILL_AREA_STYLE( '', ( #355 ) );
#306 = CARTESIAN_POINT( '', ( -2.60713970325784E-15, 26.0000000000000, 0.000000000000000 ) );
#307 = EDGE_CURVE( '', #341, #351, #356, .T. );
#308 = EDGE_CURVE( '', #349, #343, #357, .T. );
#309 = FILL_AREA_STYLE( '', ( #358 ) );
#310 = FILL_AREA_STYLE( '', ( #359 ) );
#311 = FILL_AREA_STYLE( '', ( #360 ) );
#312 = FILL_AREA_STYLE_COLOUR( '', #361 );
#313 = VERTEX_POINT( '', #362 );
#314 = CIRCLE( '', #363, 4.00000000000000 );
#315 = VERTEX_POINT( '', #364 );
#316 = CIRCLE( '', #365, 7.00000000000000 );
#317 = FILL_AREA_STYLE_COLOUR( '', #366 );
#318 = VERTEX_POINT( '', #367 );
#319 = CIRCLE( '', #368, 3.32350000000000 );
#320 = FILL_AREA_STYLE_COLOUR( '', #369 );
#321 = VERTEX_POINT( '', #370 );
#322 = CIRCLE( '', #371, 3.32350000000000 );
#323 = FILL_AREA_STYLE_COLOUR( '', #372 );
#324 = VERTEX_POINT( '', #373 );
#325 = VERTEX_POINT( '', #374 );
#326 = LINE( '', #375, #376 );
#327 = CIRCLE( '', #377, 7.00000000000000 );
#328 = FILL_AREA_STYLE_COLOUR( '', #378 );
#329 = VERTEX_POINT( '', #379 );
#330 = CIRCLE( '', #380, 4.05000000000000 );
#331 = VERTEX_POINT( '', #381 );
#332 = CIRCLE( '', #382, 4.05000000000000 );
#333 = FILL_AREA_STYLE_COLOUR( '', #383 );
#334 = VERTEX_POINT( '', #384 );
#335 = VERTEX_POINT( '', #385 );
#336 = LINE( '', #386, #387 );
#337 = CIRCLE( '', #388, 7.00000000000000 );
#338 = FILL_AREA_STYLE_COLOUR( '', #389 );
#339 = VERTEX_POINT( '', #390 );
#340 = CIRCLE( '', #391, 4.55000000000000 );
#341 = VERTEX_POINT( '', #392 );
#342 = LINE( '', #393, #394 );
#343 = VERTEX_POINT( '', #395 );
#344 = LINE( '', #396, #397 );
#345 = CIRCLE( '', #398, 4.89897948560000 );
#346 = FILL_AREA_STYLE_COLOUR( '', #399 );
#347 = VERTEX_POINT( '', #400 );
#348 = CIRCLE( '', #401, 4.55000000000000 );
#349 = VERTEX_POINT( '', #402 );
#350 = LINE( '', #403, #404 );
#351 = VERTEX_POINT( '', #405 );
#352 = LINE( '', #406, #407 );
#353 = CIRCLE( '', #408, 4.89897948560000 );
#354 = FILL_AREA_STYLE_COLOUR( '', #409 );
#355 = FILL_AREA_STYLE_COLOUR( '', #410 );
#356 = CIRCLE( '', #411, 7.00000000000000 );
#357 = CIRCLE( '', #412, 7.00000000000000 );
#358 = FILL_AREA_STYLE_COLOUR( '', #413 );
#359 = FILL_AREA_STYLE_COLOUR( '', #414 );
#360 = FILL_AREA_STYLE_COLOUR( '', #415 );
#361 = COLOUR_RGB( '', 0.689999997600000, 0.689999997600000, 0.689999997600000 );
#362 = CARTESIAN_POINT( '', ( 0.000000000000000, 0.000000000000000, -4.00000000000000 ) );
#363 = AXIS2_PLACEMENT_3D( '', #416, #417, #418 );
#364 = CARTESIAN_POINT( '', ( 0.000000000000000, 0.000000000000000, -7.00000000000000 ) );
#365 = AXIS2_PLACEMENT_3D( '', #419, #420, #421 );
#366 = COLOUR_RGB( '', 0.689999997600000, 0.689999997600000, 0.689999997600000 );
#367 = CARTESIAN_POINT( '', ( 0.000000000000000, 0.676500000000000, -3.32350000000000 ) );
#368 = AXIS2_PLACEMENT_3D( '', #422, #423, #424 );
#369 = COLOUR_RGB( '', 0.689999997600000, 0.689999997600000, 0.689999997600000 );
#370 = CARTESIAN_POINT( '', ( 0.000000000000000, 11.0000000000000, -3.32350000000000 ) );
#371 = AXIS2_PLACEMENT_3D( '', #425, #426, #427 );
#372 = COLOUR_RGB( '', 0.689999997600000, 0.689999997600000, 0.689999997600000 );
#373 = CARTESIAN_POINT( '', ( 5.00000000000000, 12.0000000000000, 4.89897948556635 ) );
#374 = CARTESIAN_POINT( '', ( 5.00000000000000, 12.0000000000000, -4.89897948556635 ) );
#375 = CARTESIAN_POINT( '', ( 5.00000000000000, 12.0000000000000, 7.00000000000000 ) );
#376 = VECTOR( '', #428, 1000.00000000000 );
#377 = AXIS2_PLACEMENT_3D( '', #429, #430, #431 );
#378 = COLOUR_RGB( '', 0.689999997600000, 0.689999997600000, 0.689999997600000 );
#379 = CARTESIAN_POINT( '', ( 4.50000000000000, 19.0000000000000, -4.05000000000000 ) );
#380 = AXIS2_PLACEMENT_3D( '', #432, #433, #434 );
#381 = CARTESIAN_POINT( '', ( -4.50000000000000, 19.0000000000000, -4.05000000000000 ) );
#382 = AXIS2_PLACEMENT_3D( '', #435, #436, #437 );
#383 = COLOUR_RGB( '', 0.689999997600000, 0.689999997600000, 0.689999997600000 );
#384 = CARTESIAN_POINT( '', ( -5.00000000000000, 12.0000000000000, 4.89897948556635 ) );
#385 = CARTESIAN_POINT( '', ( -5.00000000000000, 12.0000000000000, -4.89897948556635 ) );
#386 = CARTESIAN_POINT( '', ( -5.00000000000000, 12.0000000000000, 7.00000000000000 ) );
#387 = VECTOR( '', #438, 1000.00000000000 );
#388 = AXIS2_PLACEMENT_3D( '', #439, #440, #441 );
#389 = COLOUR_RGB( '', 0.689999997600000, 0.689999997600000, 0.689999997600000 );
#390 = CARTESIAN_POINT( '', ( -5.00000000000000, 19.0000000000000, -4.55000000000000 ) );
#391 = AXIS2_PLACEMENT_3D( '', #442, #443, #444 );
#392 = CARTESIAN_POINT( '', ( -5.00000000000000, 19.0000000000000, -4.89897948556636 ) );
#393 = CARTESIAN_POINT( '', ( -5.00000000000000, 0.000000000000000, -4.89897948556635 ) );
#394 = VECTOR( '', #445, 1000.00000000000 );
#395 = CARTESIAN_POINT( '', ( -5.00000000000000, 19.0000000000000, 4.89897948556635 ) );
#396 = CARTESIAN_POINT( '', ( -5.00000000000000, 0.000000000000000, 4.89897948556635 ) );
#397 = VECTOR( '', #446, 1000.00000000000 );
#398 = AXIS2_PLACEMENT_3D( '', #447, #448, #449 );
#399 = COLOUR_RGB( '', 0.689999997600000, 0.689999997600000, 0.689999997600000 );
#400 = CARTESIAN_POINT( '', ( 5.00000000000000, 19.0000000000000, -4.55000000000000 ) );
#401 = AXIS2_PLACEMENT_3D( '', #450, #451, #452 );
#402 = CARTESIAN_POINT( '', ( 5.00000000000000, 19.0000000000000, 4.89897948556636 ) );
#403 = CARTESIAN_POINT( '', ( 5.00000000000000, 0.000000000000000, 4.89897948556635 ) );
#404 = VECTOR( '', #453, 1000.00000000000 );
#405 = CARTESIAN_POINT( '', ( 5.00000000000000, 19.0000000000000, -4.89897948556635 ) );
#406 = CARTESIAN_POINT( '', ( 5.00000000000000, 0.000000000000000, -4.89897948556635 ) );
#407 = VECTOR( '', #454, 1000.00000000000 );
#408 = AXIS2_PLACEMENT_3D( '', #455, #456, #457 );
#409 = COLOUR_RGB( '', 0.689999997600000, 0.689999997600000, 0.689999997600000 );
#410 = COLOUR_RGB( '', 0.689999997600000, 0.689999997600000, 0.689999997600000 );
#411 = AXIS2_PLACEMENT_3D( '', #458, #459, #460 );
#412 = AXIS2_PLACEMENT_3D( '', #461, #462, #463 );
#413 = COLOUR_RGB( '', 0.689999997600000, 0.689999997600000, 0.689999997600000 );
#414 = COLOUR_RGB( '', 0.689999997600000, 0.689999997600000, 0.689999997600000 );
#415 = COLOUR_RGB( '', 0.689999997600000, 0.689999997600000, 0.689999997600000 );
#416 = CARTESIAN_POINT( '', ( 0.000000000000000, 0.000000000000000, 0.000000000000000 ) );
#417 = DIRECTION( '', ( 0.000000000000000, -1.00000000000000, -0.000000000000000 ) );
#418 = DIRECTION( '', ( 0.000000000000000, 0.000000000000000, -1.00000000000000 ) );
#419 = CARTESIAN_POINT( '', ( 0.000000000000000, 0.000000000000000, 0.000000000000000 ) );
#420 = DIRECTION( '', ( 0.000000000000000, -1.00000000000000, -0.000000000000000 ) );
#421 = DIRECTION( '', ( 0.000000000000000, 0.000000000000000, -1.00000000000000 ) );
#422 = CARTESIAN_POINT( '', ( 0.000000000000000, 0.676500000000000, 0.000000000000000 ) );
#423 = DIRECTION( '', ( 0.000000000000000, -1.00000000000000, -0.000000000000000 ) );
#424 = DIRECTION( '', ( 0.000000000000000, 0.000000000000000, -1.00000000000000 ) );
#425 = CARTESIAN_POINT( '', ( 0.000000000000000, 11.0000000000000, 0.000000000000000 ) );
#426 = DIRECTION( '', ( 0.000000000000000, -1.00000000000000, -0.000000000000000 ) );
#427 = DIRECTION( '', ( 0.000000000000000, 0.000000000000000, -1.00000000000000 ) );
#428 = DIRECTION( '', ( -0.000000000000000, -0.000000000000000, -1.00000000000000 ) );
#429 = CARTESIAN_POINT( '', ( 0.000000000000000, 12.0000000000000, 0.000000000000000 ) );
#430 = DIRECTION( '', ( 0.000000000000000, 1.00000000000000, 0.000000000000000 ) );
#431 = DIRECTION( '', ( 0.000000000000000, -0.000000000000000, 1.00000000000000 ) );
#432 = CARTESIAN_POINT( '', ( 4.50000000000000, 19.0000000000000, 0.000000000000000 ) );
#433 = DIRECTION( '', ( 1.00000000000000, 0.000000000000000, -0.000000000000000 ) );
#434 = DIRECTION( '', ( -0.000000000000000, 0.000000000000000, -1.00000000000000 ) );
#435 = CARTESIAN_POINT( '', ( -4.50000000000000, 19.0000000000000, 0.000000000000000 ) );
#436 = DIRECTION( '', ( 1.00000000000000, 0.000000000000000, -0.000000000000000 ) );
#437 = DIRECTION( '', ( -0.000000000000000, 0.000000000000000, -1.00000000000000 ) );
#438 = DIRECTION( '', ( -0.000000000000000, -0.000000000000000, -1.00000000000000 ) );
#439 = CARTESIAN_POINT( '', ( 0.000000000000000, 12.0000000000000, 0.000000000000000 ) );
#440 = DIRECTION( '', ( 0.000000000000000, 1.00000000000000, 0.000000000000000 ) );
#441 = DIRECTION( '', ( 0.000000000000000, -0.000000000000000, 1.00000000000000 ) );
#442 = CARTESIAN_POINT( '', ( -5.00000000000000, 19.0000000000000, 0.000000000000000 ) );
#443 = DIRECTION( '', ( 1.00000000000000, 0.000000000000000, -0.000000000000000 ) );
#444 = DIRECTION( '', ( -0.000000000000000, 0.000000000000000, -1.00000000000000 ) );
#445 = DIRECTION( '', ( -0.000000000000000, -1.00000000000000, -0.000000000000000 ) );
#446 = DIRECTION( '', ( -0.000000000000000, -1.00000000000000, -0.000000000000000 ) );
#447 = CARTESIAN_POINT( '', ( -5.00000000000000, 19.0000000000000, 0.000000000000000 ) );
#448 = DIRECTION( '', ( -1.00000000000000, 0.000000000000000, 0.000000000000000 ) );
#449 = DIRECTION( '', ( 0.000000000000000, 0.000000000000000, 1.00000000000000 ) );
#450 = CARTESIAN_POINT( '', ( 5.00000000000000, 19.0000000000000, 0.000000000000000 ) );
#451 = DIRECTION( '', ( 1.00000000000000, 0.000000000000000, -0.000000000000000 ) );
#452 = DIRECTION( '', ( -0.000000000000000, 0.000000000000000, -1.00000000000000 ) );
#453 = DIRECTION( '', ( -0.000000000000000, -1.00000000000000, -0.000000000000000 ) );
#454 = DIRECTION( '', ( -0.000000000000000, -1.00000000000000, -0.000000000000000 ) );
#455 = CARTESIAN_POINT( '', ( 5.00000000000000, 19.0000000000000, 0.000000000000000 ) );
#456 = DIRECTION( '', ( 1.00000000000000, 0.000000000000000, -0.000000000000000 ) );
#457 = DIRECTION( '', ( -0.000000000000000, 0.000000000000000, -1.00000000000000 ) );
#458 = CARTESIAN_POINT( '', ( 0.000000000000000, 19.0000000000000, 0.000000000000000 ) );
#459 = DIRECTION( '', ( 0.000000000000000, -1.00000000000000, -0.000000000000000 ) );
#460 = DIRECTION( '', ( 0.000000000000000, 0.000000000000000, -1.00000000000000 ) );
#461 = CARTESIAN_POINT( '', ( 0.000000000000000, 19.0000000000000, 0.000000000000000 ) );
#462 = DIRECTION( '', ( 0.000000000000000, -1.00000000000000, -0.000000000000000 ) );
#463 = DIRECTION( '', ( 0.000000000000000, 0.000000000000000, -1.00000000000000 ) );
ENDSEC;
END-ISO-10303-21;
