ISO-10303-21;
HEADER;
FILE_DESCRIPTION( ( 'STEP AP214' ), '1' );
FILE_NAME( '//goodhand-server/Shared Folders/GoodHand Data/Kipp CAD/K0163/K0163.0200X18.stp', '2020-11-26T10:29:20', ( '' ), ( '' ), ' ', 'PARTsolutions', ' ' );
FILE_SCHEMA( ( 'AUTOMOTIVE_DESIGN { 1 0 10303 214 1 1 1 1 }' ) );
ENDSEC;
DATA;
#1 = MECHANICAL_DESIGN_GEOMETRIC_PRESENTATION_REPRESENTATION( ' ', ( #10, #11, #12, #13, #14, #15, #16, #17, #18, #19, #20, #21 ), #6 );
#2 = PRODUCT_DEFINITION_CONTEXT( '', #22, 'design' );
#3 = APPLICATION_PROTOCOL_DEFINITION( 'international standard', 'automotive_design', 2001, #22 );
#4 = PRODUCT_CATEGORY_RELATIONSHIP( 'NONE', 'NONE', #23, #24 );
#5 = SHAPE_DEFINITION_REPRESENTATION( #25, #26 );
#6 =  ( GEOMETRIC_REPRESENTATION_CONTEXT( 3 )GLOBAL_UNCERTAINTY_ASSIGNED_CONTEXT( ( #29 ) )GLOBAL_UNIT_ASSIGNED_CONTEXT( ( #31, #32, #33 ) )REPRESENTATION_CONTEXT( 'NONE', 'WORKSPACE' ) );
#10 = STYLED_ITEM( '', ( #35 ), #36 );
#11 = STYLED_ITEM( '', ( #37 ), #38 );
#12 = STYLED_ITEM( '', ( #39 ), #40 );
#13 = STYLED_ITEM( '', ( #41 ), #42 );
#14 = STYLED_ITEM( '', ( #43 ), #44 );
#15 = STYLED_ITEM( '', ( #45 ), #46 );
#16 = STYLED_ITEM( '', ( #47 ), #48 );
#17 = STYLED_ITEM( '', ( #49 ), #50 );
#18 = STYLED_ITEM( '', ( #51 ), #52 );
#19 = STYLED_ITEM( '', ( #53 ), #54 );
#20 = STYLED_ITEM( '', ( #55 ), #56 );
#21 = STYLED_ITEM( '', ( #57 ), #58 );
#22 = APPLICATION_CONTEXT( 'core data for automotive mechanical design processes' );
#23 = PRODUCT_CATEGORY( 'part', 'NONE' );
#24 = PRODUCT_RELATED_PRODUCT_CATEGORY( 'detail', ' ', ( #59 ) );
#25 = PRODUCT_DEFINITION_SHAPE( 'NONE', 'NONE', #60 );
#26 = ADVANCED_BREP_SHAPE_REPRESENTATION( '_K0163.0200X18', ( #61, #62 ), #6 );
#29 = UNCERTAINTY_MEASURE_WITH_UNIT( LENGTH_MEASURE( 0.00100000000000000 ), #31, '', '' );
#31 =  ( CONVERSION_BASED_UNIT( 'MILLIMETRE', #65 )LENGTH_UNIT(  )NAMED_UNIT( #68 ) );
#32 =  ( NAMED_UNIT( #70 )PLANE_ANGLE_UNIT(  )SI_UNIT( $, .RADIAN. ) );
#33 =  ( NAMED_UNIT( #70 )SI_UNIT( $, .STERADIAN. )SOLID_ANGLE_UNIT(  ) );
#35 = PRESENTATION_STYLE_ASSIGNMENT( ( #76 ) );
#36 = ADVANCED_FACE( '', ( #77, #78, #79 ), #80, .T. );
#37 = PRESENTATION_STYLE_ASSIGNMENT( ( #81 ) );
#38 = ADVANCED_FACE( '', ( #82, #83 ), #84, .F. );
#39 = PRESENTATION_STYLE_ASSIGNMENT( ( #85 ) );
#40 = ADVANCED_FACE( '', ( #86, #87 ), #88, .T. );
#41 = PRESENTATION_STYLE_ASSIGNMENT( ( #89 ) );
#42 = ADVANCED_FACE( '', ( #90, #91 ), #92, .F. );
#43 = PRESENTATION_STYLE_ASSIGNMENT( ( #93 ) );
#44 = ADVANCED_FACE( '', ( #94, #95 ), #96, .T. );
#45 = PRESENTATION_STYLE_ASSIGNMENT( ( #97 ) );
#46 = ADVANCED_FACE( '', ( #98, #99 ), #100, .F. );
#47 = PRESENTATION_STYLE_ASSIGNMENT( ( #101 ) );
#48 = ADVANCED_FACE( '', ( #102, #103 ), #104, .F. );
#49 = PRESENTATION_STYLE_ASSIGNMENT( ( #105 ) );
#50 = ADVANCED_FACE( '', ( #106, #107 ), #108, .T. );
#51 = PRESENTATION_STYLE_ASSIGNMENT( ( #109 ) );
#52 = ADVANCED_FACE( '', ( #110, #111 ), #112, .F. );
#53 = PRESENTATION_STYLE_ASSIGNMENT( ( #113 ) );
#54 = ADVANCED_FACE( '', ( #114, #115 ), #116, .T. );
#55 = PRESENTATION_STYLE_ASSIGNMENT( ( #117 ) );
#56 = ADVANCED_FACE( '', ( #118, #119 ), #120, .F. );
#57 = PRESENTATION_STYLE_ASSIGNMENT( ( #121 ) );
#58 = ADVANCED_FACE( '', ( #122, #123 ), #124, .F. );
#59 = PRODUCT( '_K0163.0200X18', '_K0163.0200X18', 'PART-_K0163.0200X18-DESC', ( #125 ) );
#60 = PRODUCT_DEFINITION( 'NONE', 'NONE', #126, #2 );
#61 = MANIFOLD_SOLID_BREP( '_K0163.0200X18', #127 );
#62 = AXIS2_PLACEMENT_3D( '', #128, #129, #130 );
#65 = LENGTH_MEASURE_WITH_UNIT( LENGTH_MEASURE( 1.00000000000000 ), #131 );
#68 = DIMENSIONAL_EXPONENTS( 1.00000000000000, 0.000000000000000, 0.000000000000000, 0.000000000000000, 0.000000000000000, 0.000000000000000, 0.000000000000000 );
#70 = DIMENSIONAL_EXPONENTS( 0.000000000000000, 0.000000000000000, 0.000000000000000, 0.000000000000000, 0.000000000000000, 0.000000000000000, 0.000000000000000 );
#76 = SURFACE_STYLE_USAGE( .BOTH., #132 );
#77 = FACE_BOUND( '', #133, .T. );
#78 = FACE_OUTER_BOUND( '', #134, .T. );
#79 = FACE_OUTER_BOUND( '', #135, .T. );
#80 = TOROIDAL_SURFACE( '', #136, 88.2500000000000, 11.7500000000000 );
#81 = SURFACE_STYLE_USAGE( .BOTH., #137 );
#82 = FACE_OUTER_BOUND( '', #138, .T. );
#83 = FACE_BOUND( '', #139, .T. );
#84 = CONICAL_SURFACE( '', #140, 85.5000000000000, 0.472698778500000 );
#85 = SURFACE_STYLE_USAGE( .BOTH., #141 );
#86 = FACE_OUTER_BOUND( '', #142, .T. );
#87 = FACE_OUTER_BOUND( '', #143, .T. );
#88 = TOROIDAL_SURFACE( '', #144, 90.0349341703000, 20.0000000000000 );
#89 = SURFACE_STYLE_USAGE( .BOTH., #145 );
#90 = FACE_OUTER_BOUND( '', #146, .T. );
#91 = FACE_OUTER_BOUND( '', #147, .T. );
#92 = CYLINDRICAL_SURFACE( '', #148, 9.00000000000000 );
#93 = SURFACE_STYLE_USAGE( .BOTH., #149 );
#94 = FACE_OUTER_BOUND( '', #150, .T. );
#95 = FACE_OUTER_BOUND( '', #151, .T. );
#96 = CYLINDRICAL_SURFACE( '', #152, 20.0000000000000 );
#97 = SURFACE_STYLE_USAGE( .BOTH., #153 );
#98 = FACE_BOUND( '', #154, .T. );
#99 = FACE_OUTER_BOUND( '', #155, .T. );
#100 = CONICAL_SURFACE( '', #156, 86.5000000000000, 0.481751705800000 );
#101 = SURFACE_STYLE_USAGE( .BOTH., #157 );
#102 = FACE_BOUND( '', #158, .T. );
#103 = FACE_OUTER_BOUND( '', #159, .T. );
#104 = CONICAL_SURFACE( '', #160, 85.0000000000000, 1.10714871780000 );
#105 = SURFACE_STYLE_USAGE( .BOTH., #161 );
#106 = FACE_OUTER_BOUND( '', #162, .T. );
#107 = FACE_OUTER_BOUND( '', #163, .T. );
#108 = CYLINDRICAL_SURFACE( '', #164, 20.0000000000000 );
#109 = SURFACE_STYLE_USAGE( .BOTH., #165 );
#110 = FACE_OUTER_BOUND( '', #166, .T. );
#111 = FACE_BOUND( '', #167, .T. );
#112 = CONICAL_SURFACE( '', #168, 20.0000000000000, 1.34813538620000 );
#113 = SURFACE_STYLE_USAGE( .BOTH., #169 );
#114 = FACE_BOUND( '', #170, .T. );
#115 = FACE_OUTER_BOUND( '', #171, .T. );
#116 = CONICAL_SURFACE( '', #172, 78.0000000000000, 1.35852583110000 );
#117 = SURFACE_STYLE_USAGE( .BOTH., #173 );
#118 = FACE_BOUND( '', #174, .T. );
#119 = FACE_OUTER_BOUND( '', #175, .T. );
#120 = PLANE( '', #176 );
#121 = SURFACE_STYLE_USAGE( .BOTH., #177 );
#122 = FACE_OUTER_BOUND( '', #178, .T. );
#123 = FACE_BOUND( '', #179, .T. );
#124 = PLANE( '', #180 );
#125 = PRODUCT_CONTEXT( '', #22, 'mechanical' );
#126 = PRODUCT_DEFINITION_FORMATION_WITH_SPECIFIED_SOURCE( ' ', 'NONE', #59, .NOT_KNOWN. );
#127 = CLOSED_SHELL( '', ( #42, #58, #44, #52, #40, #38, #36, #46, #48, #54, #50, #56 ) );
#128 = CARTESIAN_POINT( '', ( 0.000000000000000, 0.000000000000000, 0.000000000000000 ) );
#129 = DIRECTION( '', ( 0.000000000000000, 0.000000000000000, 1.00000000000000 ) );
#130 = DIRECTION( '', ( 1.00000000000000, 0.000000000000000, 0.000000000000000 ) );
#131 =  ( LENGTH_UNIT(  )NAMED_UNIT( #68 )SI_UNIT( .MILLI., .METRE. ) );
#132 = SURFACE_SIDE_STYLE( '', ( #182 ) );
#133 = VERTEX_LOOP( '', #183 );
#134 = EDGE_LOOP( '', ( #184 ) );
#135 = EDGE_LOOP( '', ( #185 ) );
#136 = AXIS2_PLACEMENT_3D( '', #186, #187, #188 );
#137 = SURFACE_SIDE_STYLE( '', ( #189 ) );
#138 = EDGE_LOOP( '', ( #190 ) );
#139 = EDGE_LOOP( '', ( #191 ) );
#140 = AXIS2_PLACEMENT_3D( '', #192, #193, #194 );
#141 = SURFACE_SIDE_STYLE( '', ( #195 ) );
#142 = EDGE_LOOP( '', ( #196 ) );
#143 = EDGE_LOOP( '', ( #197 ) );
#144 = AXIS2_PLACEMENT_3D( '', #198, #199, #200 );
#145 = SURFACE_SIDE_STYLE( '', ( #201 ) );
#146 = EDGE_LOOP( '', ( #202 ) );
#147 = EDGE_LOOP( '', ( #203 ) );
#148 = AXIS2_PLACEMENT_3D( '', #204, #205, #206 );
#149 = SURFACE_SIDE_STYLE( '', ( #207 ) );
#150 = EDGE_LOOP( '', ( #208 ) );
#151 = EDGE_LOOP( '', ( #209 ) );
#152 = AXIS2_PLACEMENT_3D( '', #210, #211, #212 );
#153 = SURFACE_SIDE_STYLE( '', ( #213 ) );
#154 = EDGE_LOOP( '', ( #214 ) );
#155 = EDGE_LOOP( '', ( #215 ) );
#156 = AXIS2_PLACEMENT_3D( '', #216, #217, #218 );
#157 = SURFACE_SIDE_STYLE( '', ( #219 ) );
#158 = EDGE_LOOP( '', ( #220 ) );
#159 = EDGE_LOOP( '', ( #221 ) );
#160 = AXIS2_PLACEMENT_3D( '', #222, #223, #224 );
#161 = SURFACE_SIDE_STYLE( '', ( #225 ) );
#162 = EDGE_LOOP( '', ( #226 ) );
#163 = EDGE_LOOP( '', ( #227 ) );
#164 = AXIS2_PLACEMENT_3D( '', #228, #229, #230 );
#165 = SURFACE_SIDE_STYLE( '', ( #231 ) );
#166 = EDGE_LOOP( '', ( #232 ) );
#167 = EDGE_LOOP( '', ( #233 ) );
#168 = AXIS2_PLACEMENT_3D( '', #234, #235, #236 );
#169 = SURFACE_SIDE_STYLE( '', ( #237 ) );
#170 = EDGE_LOOP( '', ( #238 ) );
#171 = EDGE_LOOP( '', ( #239 ) );
#172 = AXIS2_PLACEMENT_3D( '', #240, #241, #242 );
#173 = SURFACE_SIDE_STYLE( '', ( #243 ) );
#174 = EDGE_LOOP( '', ( #244 ) );
#175 = EDGE_LOOP( '', ( #245 ) );
#176 = AXIS2_PLACEMENT_3D( '', #246, #247, #248 );
#177 = SURFACE_SIDE_STYLE( '', ( #249 ) );
#178 = EDGE_LOOP( '', ( #250 ) );
#179 = EDGE_LOOP( '', ( #251 ) );
#180 = AXIS2_PLACEMENT_3D( '', #252, #253, #254 );
#182 = SURFACE_STYLE_FILL_AREA( #255 );
#183 = VERTEX_POINT( '', #256 );
#184 = ORIENTED_EDGE( '', *, *, #257, .T. );
#185 = ORIENTED_EDGE( '', *, *, #258, .F. );
#186 = CARTESIAN_POINT( '', ( 32.2500000000000, 0.000000000000000, 0.000000000000000 ) );
#187 = DIRECTION( '', ( -1.00000000000000, 0.000000000000000, 0.000000000000000 ) );
#188 = DIRECTION( '', ( 0.000000000000000, 0.000000000000000, 1.00000000000000 ) );
#189 = SURFACE_STYLE_FILL_AREA( #259 );
#190 = ORIENTED_EDGE( '', *, *, #257, .F. );
#191 = ORIENTED_EDGE( '', *, *, #260, .T. );
#192 = CARTESIAN_POINT( '', ( 41.0000000000000, 0.000000000000000, 0.000000000000000 ) );
#193 = DIRECTION( '', ( 1.00000000000000, -0.000000000000000, 0.000000000000000 ) );
#194 = DIRECTION( '', ( 0.000000000000000, 0.000000000000000, -1.00000000000000 ) );
#195 = SURFACE_STYLE_FILL_AREA( #261 );
#196 = ORIENTED_EDGE( '', *, *, #262, .T. );
#197 = ORIENTED_EDGE( '', *, *, #260, .F. );
#198 = CARTESIAN_POINT( '', ( 21.5209247634560, 0.000000000000000, 0.000000000000000 ) );
#199 = DIRECTION( '', ( -1.00000000000000, 0.000000000000000, 0.000000000000000 ) );
#200 = DIRECTION( '', ( 0.000000000000000, 0.000000000000000, 1.00000000000000 ) );
#201 = SURFACE_STYLE_FILL_AREA( #263 );
#202 = ORIENTED_EDGE( '', *, *, #264, .F. );
#203 = ORIENTED_EDGE( '', *, *, #265, .T. );
#204 = CARTESIAN_POINT( '', ( 44.0000000000000, 0.000000000000000, 0.000000000000000 ) );
#205 = DIRECTION( '', ( 1.00000000000000, -0.000000000000000, -0.000000000000000 ) );
#206 = DIRECTION( '', ( 0.000000000000000, 0.000000000000000, 1.00000000000000 ) );
#207 = SURFACE_STYLE_FILL_AREA( #266 );
#208 = ORIENTED_EDGE( '', *, *, #267, .F. );
#209 = ORIENTED_EDGE( '', *, *, #268, .T. );
#210 = CARTESIAN_POINT( '', ( 0.000000000000000, 0.000000000000000, 0.000000000000000 ) );
#211 = DIRECTION( '', ( 1.00000000000000, -0.000000000000000, -0.000000000000000 ) );
#212 = DIRECTION( '', ( 0.000000000000000, 0.000000000000000, 1.00000000000000 ) );
#213 = SURFACE_STYLE_FILL_AREA( #269 );
#214 = ORIENTED_EDGE( '', *, *, #270, .F. );
#215 = ORIENTED_EDGE( '', *, *, #258, .T. );
#216 = CARTESIAN_POINT( '', ( 20.6310499613777, 0.000000000000000, 0.000000000000000 ) );
#217 = DIRECTION( '', ( -1.00000000000000, -0.000000000000000, -0.000000000000000 ) );
#218 = DIRECTION( '', ( 0.000000000000000, 0.000000000000000, 1.00000000000000 ) );
#219 = SURFACE_STYLE_FILL_AREA( #271 );
#220 = ORIENTED_EDGE( '', *, *, #272, .F. );
#221 = ORIENTED_EDGE( '', *, *, #270, .T. );
#222 = CARTESIAN_POINT( '', ( 23.5000000000000, 0.000000000000000, 0.000000000000000 ) );
#223 = DIRECTION( '', ( -1.00000000000000, -0.000000000000000, -0.000000000000000 ) );
#224 = DIRECTION( '', ( 0.000000000000000, 0.000000000000000, 1.00000000000000 ) );
#225 = SURFACE_STYLE_FILL_AREA( #273 );
#226 = ORIENTED_EDGE( '', *, *, #274, .F. );
#227 = ORIENTED_EDGE( '', *, *, #275, .T. );
#228 = CARTESIAN_POINT( '', ( 0.000000000000000, 0.000000000000000, 0.000000000000000 ) );
#229 = DIRECTION( '', ( 1.00000000000000, -0.000000000000000, -0.000000000000000 ) );
#230 = DIRECTION( '', ( 0.000000000000000, 0.000000000000000, 1.00000000000000 ) );
#231 = SURFACE_STYLE_FILL_AREA( #276 );
#232 = ORIENTED_EDGE( '', *, *, #262, .F. );
#233 = ORIENTED_EDGE( '', *, *, #267, .T. );
#234 = CARTESIAN_POINT( '', ( 20.0000000000000, 0.000000000000000, 0.000000000000000 ) );
#235 = DIRECTION( '', ( 1.00000000000000, -0.000000000000000, 0.000000000000000 ) );
#236 = DIRECTION( '', ( 0.000000000000000, 0.000000000000000, -1.00000000000000 ) );
#237 = SURFACE_STYLE_FILL_AREA( #277 );
#238 = ORIENTED_EDGE( '', *, *, #275, .F. );
#239 = ORIENTED_EDGE( '', *, *, #272, .T. );
#240 = CARTESIAN_POINT( '', ( 27.0000000000000, 0.000000000000000, 0.000000000000000 ) );
#241 = DIRECTION( '', ( 1.00000000000000, -0.000000000000000, 0.000000000000000 ) );
#242 = DIRECTION( '', ( 0.000000000000000, 0.000000000000000, -1.00000000000000 ) );
#243 = SURFACE_STYLE_FILL_AREA( #278 );
#244 = ORIENTED_EDGE( '', *, *, #264, .T. );
#245 = ORIENTED_EDGE( '', *, *, #274, .T. );
#246 = CARTESIAN_POINT( '', ( 8.67361737988404E-16, -20.0000000000000, 0.000000000000000 ) );
#247 = DIRECTION( '', ( 1.00000000000000, 0.000000000000000, 0.000000000000000 ) );
#248 = DIRECTION( '', ( 0.000000000000000, 0.000000000000000, -1.00000000000000 ) );
#249 = SURFACE_STYLE_FILL_AREA( #279 );
#250 = ORIENTED_EDGE( '', *, *, #268, .F. );
#251 = ORIENTED_EDGE( '', *, *, #265, .F. );
#252 = CARTESIAN_POINT( '', ( 24.0000000000000, 0.000000000000000, 0.000000000000000 ) );
#253 = DIRECTION( '', ( -1.00000000000000, 0.000000000000000, 0.000000000000000 ) );
#254 = DIRECTION( '', ( 0.000000000000000, 0.000000000000000, 1.00000000000000 ) );
#255 = FILL_AREA_STYLE( '', ( #280 ) );
#256 = CARTESIAN_POINT( '', ( 32.2500000000000, 0.000000000000000, 100.000000000000 ) );
#257 = EDGE_CURVE( '', #281, #281, #282, .T. );
#258 = EDGE_CURVE( '', #283, #283, #284, .T. );
#259 = FILL_AREA_STYLE( '', ( #285 ) );
#260 = EDGE_CURVE( '', #286, #286, #287, .T. );
#261 = FILL_AREA_STYLE( '', ( #288 ) );
#262 = EDGE_CURVE( '', #289, #289, #290, .T. );
#263 = FILL_AREA_STYLE( '', ( #291 ) );
#264 = EDGE_CURVE( '', #292, #292, #293, .T. );
#265 = EDGE_CURVE( '', #294, #294, #295, .F. );
#266 = FILL_AREA_STYLE( '', ( #296 ) );
#267 = EDGE_CURVE( '', #297, #297, #298, .T. );
#268 = EDGE_CURVE( '', #299, #299, #300, .T. );
#269 = FILL_AREA_STYLE( '', ( #301 ) );
#270 = EDGE_CURVE( '', #302, #302, #303, .T. );
#271 = FILL_AREA_STYLE( '', ( #304 ) );
#272 = EDGE_CURVE( '', #305, #305, #306, .T. );
#273 = FILL_AREA_STYLE( '', ( #307 ) );
#274 = EDGE_CURVE( '', #308, #308, #309, .T. );
#275 = EDGE_CURVE( '', #310, #310, #311, .T. );
#276 = FILL_AREA_STYLE( '', ( #312 ) );
#277 = FILL_AREA_STYLE( '', ( #313 ) );
#278 = FILL_AREA_STYLE( '', ( #314 ) );
#279 = FILL_AREA_STYLE( '', ( #315 ) );
#280 = FILL_AREA_STYLE_COLOUR( '', #316 );
#281 = VERTEX_POINT( '', #317 );
#282 = CIRCLE( '', #318, 87.0000000000000 );
#283 = VERTEX_POINT( '', #319 );
#284 = CIRCLE( '', #320, 86.5000000000000 );
#285 = FILL_AREA_STYLE_COLOUR( '', #321 );
#286 = VERTEX_POINT( '', #322 );
#287 = CIRCLE( '', #323, 85.5000000000000 );
#288 = FILL_AREA_STYLE_COLOUR( '', #324 );
#289 = VERTEX_POINT( '', #325 );
#290 = CIRCLE( '', #326, 73.0000000000000 );
#291 = FILL_AREA_STYLE_COLOUR( '', #327 );
#292 = VERTEX_POINT( '', #328 );
#293 = CIRCLE( '', #329, 9.00000000000000 );
#294 = VERTEX_POINT( '', #330 );
#295 = CIRCLE( '', #331, 9.00000000000000 );
#296 = FILL_AREA_STYLE_COLOUR( '', #332 );
#297 = VERTEX_POINT( '', #333 );
#298 = CIRCLE( '', #334, 20.0000000000000 );
#299 = VERTEX_POINT( '', #335 );
#300 = CIRCLE( '', #336, 20.0000000000000 );
#301 = FILL_AREA_STYLE_COLOUR( '', #337 );
#302 = VERTEX_POINT( '', #338 );
#303 = CIRCLE( '', #339, 85.0000000000000 );
#304 = FILL_AREA_STYLE_COLOUR( '', #340 );
#305 = VERTEX_POINT( '', #341 );
#306 = CIRCLE( '', #342, 78.0000000000000 );
#307 = FILL_AREA_STYLE_COLOUR( '', #343 );
#308 = VERTEX_POINT( '', #344 );
#309 = CIRCLE( '', #345, 20.0000000000000 );
#310 = VERTEX_POINT( '', #346 );
#311 = CIRCLE( '', #347, 20.0000000000000 );
#312 = FILL_AREA_STYLE_COLOUR( '', #348 );
#313 = FILL_AREA_STYLE_COLOUR( '', #349 );
#314 = FILL_AREA_STYLE_COLOUR( '', #350 );
#315 = FILL_AREA_STYLE_COLOUR( '', #351 );
#316 = COLOUR_RGB( '', 0.689999997600000, 0.689999997600000, 0.689999997600000 );
#317 = CARTESIAN_POINT( '', ( 43.9333214455479, 0.000000000000000, 87.0000000000000 ) );
#318 = AXIS2_PLACEMENT_3D( '', #352, #353, #354 );
#319 = CARTESIAN_POINT( '', ( 20.6310499613777, 0.000000000000000, 86.5000000000000 ) );
#320 = AXIS2_PLACEMENT_3D( '', #355, #356, #357 );
#321 = COLOUR_RGB( '', 0.689999997600000, 0.689999997600000, 0.689999997600000 );
#322 = CARTESIAN_POINT( '', ( 41.0000000000000, 0.000000000000000, 85.5000000000000 ) );
#323 = AXIS2_PLACEMENT_3D( '', #358, #359, #360 );
#324 = COLOUR_RGB( '', 0.689999997600000, 0.689999997600000, 0.689999997600000 );
#325 = CARTESIAN_POINT( '', ( 32.0000000000000, 0.000000000000000, 73.0000000000000 ) );
#326 = AXIS2_PLACEMENT_3D( '', #361, #362, #363 );
#327 = COLOUR_RGB( '', 0.689999997600000, 0.689999997600000, 0.689999997600000 );
#328 = CARTESIAN_POINT( '', ( 0.000000000000000, 0.000000000000000, -9.00000000000000 ) );
#329 = AXIS2_PLACEMENT_3D( '', #364, #365, #366 );
#330 = CARTESIAN_POINT( '', ( 24.0000000000000, 0.000000000000000, 9.00000000000000 ) );
#331 = AXIS2_PLACEMENT_3D( '', #367, #368, #369 );
#332 = COLOUR_RGB( '', 0.689999997600000, 0.689999997600000, 0.689999997600000 );
#333 = CARTESIAN_POINT( '', ( 20.0000000000000, 0.000000000000000, 20.0000000000000 ) );
#334 = AXIS2_PLACEMENT_3D( '', #370, #371, #372 );
#335 = CARTESIAN_POINT( '', ( 24.0000000000000, 0.000000000000000, 20.0000000000000 ) );
#336 = AXIS2_PLACEMENT_3D( '', #373, #374, #375 );
#337 = COLOUR_RGB( '', 0.689999997600000, 0.689999997600000, 0.689999997600000 );
#338 = CARTESIAN_POINT( '', ( 23.5000000000000, 0.000000000000000, 85.0000000000000 ) );
#339 = AXIS2_PLACEMENT_3D( '', #376, #377, #378 );
#340 = COLOUR_RGB( '', 0.689999997600000, 0.689999997600000, 0.689999997600000 );
#341 = CARTESIAN_POINT( '', ( 27.0000000000000, 0.000000000000000, 78.0000000000000 ) );
#342 = AXIS2_PLACEMENT_3D( '', #379, #380, #381 );
#343 = COLOUR_RGB( '', 0.689999997600000, 0.689999997600000, 0.689999997600000 );
#344 = CARTESIAN_POINT( '', ( 1.73472347597681E-15, 0.000000000000000, 20.0000000000000 ) );
#345 = AXIS2_PLACEMENT_3D( '', #382, #383, #384 );
#346 = CARTESIAN_POINT( '', ( 14.5000000000000, 0.000000000000000, 20.0000000000000 ) );
#347 = AXIS2_PLACEMENT_3D( '', #385, #386, #387 );
#348 = COLOUR_RGB( '', 0.689999997600000, 0.689999997600000, 0.689999997600000 );
#349 = COLOUR_RGB( '', 0.689999997600000, 0.689999997600000, 0.689999997600000 );
#350 = COLOUR_RGB( '', 0.689999997600000, 0.689999997600000, 0.689999997600000 );
#351 = COLOUR_RGB( '', 0.689999997600000, 0.689999997600000, 0.689999997600000 );
#352 = CARTESIAN_POINT( '', ( 43.9333214455479, 0.000000000000000, 0.000000000000000 ) );
#353 = DIRECTION( '', ( -1.00000000000000, 0.000000000000000, 0.000000000000000 ) );
#354 = DIRECTION( '', ( 0.000000000000000, 0.000000000000000, 1.00000000000000 ) );
#355 = CARTESIAN_POINT( '', ( 20.6310499613777, 0.000000000000000, 0.000000000000000 ) );
#356 = DIRECTION( '', ( -1.00000000000000, 0.000000000000000, 0.000000000000000 ) );
#357 = DIRECTION( '', ( 0.000000000000000, 0.000000000000000, 1.00000000000000 ) );
#358 = CARTESIAN_POINT( '', ( 41.0000000000000, 0.000000000000000, 0.000000000000000 ) );
#359 = DIRECTION( '', ( -1.00000000000000, 0.000000000000000, 0.000000000000000 ) );
#360 = DIRECTION( '', ( 0.000000000000000, 0.000000000000000, 1.00000000000000 ) );
#361 = CARTESIAN_POINT( '', ( 32.0000000000000, 0.000000000000000, 0.000000000000000 ) );
#362 = DIRECTION( '', ( -1.00000000000000, 0.000000000000000, 0.000000000000000 ) );
#363 = DIRECTION( '', ( 0.000000000000000, 0.000000000000000, 1.00000000000000 ) );
#364 = CARTESIAN_POINT( '', ( 0.000000000000000, 0.000000000000000, 0.000000000000000 ) );
#365 = DIRECTION( '', ( 1.00000000000000, 0.000000000000000, 0.000000000000000 ) );
#366 = DIRECTION( '', ( 0.000000000000000, 0.000000000000000, -1.00000000000000 ) );
#367 = CARTESIAN_POINT( '', ( 24.0000000000000, 0.000000000000000, 0.000000000000000 ) );
#368 = DIRECTION( '', ( -1.00000000000000, 0.000000000000000, 0.000000000000000 ) );
#369 = DIRECTION( '', ( 0.000000000000000, 0.000000000000000, 1.00000000000000 ) );
#370 = CARTESIAN_POINT( '', ( 20.0000000000000, 0.000000000000000, 0.000000000000000 ) );
#371 = DIRECTION( '', ( -1.00000000000000, 0.000000000000000, 0.000000000000000 ) );
#372 = DIRECTION( '', ( 0.000000000000000, 0.000000000000000, 1.00000000000000 ) );
#373 = CARTESIAN_POINT( '', ( 24.0000000000000, 0.000000000000000, 0.000000000000000 ) );
#374 = DIRECTION( '', ( -1.00000000000000, 0.000000000000000, 0.000000000000000 ) );
#375 = DIRECTION( '', ( 0.000000000000000, 0.000000000000000, 1.00000000000000 ) );
#376 = CARTESIAN_POINT( '', ( 23.5000000000000, 0.000000000000000, 0.000000000000000 ) );
#377 = DIRECTION( '', ( -1.00000000000000, 0.000000000000000, 0.000000000000000 ) );
#378 = DIRECTION( '', ( 0.000000000000000, 0.000000000000000, 1.00000000000000 ) );
#379 = CARTESIAN_POINT( '', ( 27.0000000000000, 0.000000000000000, 0.000000000000000 ) );
#380 = DIRECTION( '', ( -1.00000000000000, 0.000000000000000, 0.000000000000000 ) );
#381 = DIRECTION( '', ( 0.000000000000000, 0.000000000000000, 1.00000000000000 ) );
#382 = CARTESIAN_POINT( '', ( 1.73472347597681E-15, 0.000000000000000, 0.000000000000000 ) );
#383 = DIRECTION( '', ( -1.00000000000000, 0.000000000000000, 0.000000000000000 ) );
#384 = DIRECTION( '', ( 0.000000000000000, 0.000000000000000, 1.00000000000000 ) );
#385 = CARTESIAN_POINT( '', ( 14.5000000000000, 0.000000000000000, 0.000000000000000 ) );
#386 = DIRECTION( '', ( -1.00000000000000, 0.000000000000000, 0.000000000000000 ) );
#387 = DIRECTION( '', ( 0.000000000000000, 0.000000000000000, 1.00000000000000 ) );
ENDSEC;
END-ISO-10303-21;
