ISO-10303-21;
HEADER;
FILE_DESCRIPTION( ( 'STEP AP214' ), '1' );
FILE_NAME( '//goodhand-server/Shared Folders/GoodHand Data/Kipp CAD/K0392/K0392.116.stp', '2020-12-07T10:23:47', ( '' ), ( '' ), ' ', 'PARTsolutions', ' ' );
FILE_SCHEMA( ( 'AUTOMOTIVE_DESIGN { 1 0 10303 214 1 1 1 1 }' ) );
ENDSEC;
DATA;
#1 = MECHANICAL_DESIGN_GEOMETRIC_PRESENTATION_REPRESENTATION( ' ', ( #10, #11, #12, #13, #14, #15, #16, #17, #18, #19, #20, #21, #22, #23, #24, #25 ), #6 );
#2 = PRODUCT_DEFINITION_CONTEXT( '', #26, 'design' );
#3 = APPLICATION_PROTOCOL_DEFINITION( 'international standard', 'automotive_design', 2001, #26 );
#4 = PRODUCT_CATEGORY_RELATIONSHIP( 'NONE', 'NONE', #27, #28 );
#5 = SHAPE_DEFINITION_REPRESENTATION( #29, #30 );
#6 =  ( GEOMETRIC_REPRESENTATION_CONTEXT( 3 )GLOBAL_UNCERTAINTY_ASSIGNED_CONTEXT( ( #33 ) )GLOBAL_UNIT_ASSIGNED_CONTEXT( ( #35, #36, #37 ) )REPRESENTATION_CONTEXT( 'NONE', 'WORKSPACE' ) );
#10 = STYLED_ITEM( '', ( #39 ), #40 );
#11 = STYLED_ITEM( '', ( #41 ), #42 );
#12 = STYLED_ITEM( '', ( #43 ), #44 );
#13 = STYLED_ITEM( '', ( #45 ), #46 );
#14 = STYLED_ITEM( '', ( #47 ), #48 );
#15 = STYLED_ITEM( '', ( #49 ), #50 );
#16 = STYLED_ITEM( '', ( #51 ), #52 );
#17 = STYLED_ITEM( '', ( #53 ), #54 );
#18 = STYLED_ITEM( '', ( #55 ), #56 );
#19 = STYLED_ITEM( '', ( #57 ), #58 );
#20 = STYLED_ITEM( '', ( #59 ), #60 );
#21 = STYLED_ITEM( '', ( #61 ), #62 );
#22 = STYLED_ITEM( '', ( #63 ), #64 );
#23 = STYLED_ITEM( '', ( #65 ), #66 );
#24 = STYLED_ITEM( '', ( #67 ), #68 );
#25 = STYLED_ITEM( '', ( #69 ), #70 );
#26 = APPLICATION_CONTEXT( 'core data for automotive mechanical design processes' );
#27 = PRODUCT_CATEGORY( 'part', 'NONE' );
#28 = PRODUCT_RELATED_PRODUCT_CATEGORY( 'detail', ' ', ( #71 ) );
#29 = PRODUCT_DEFINITION_SHAPE( 'NONE', 'NONE', #72 );
#30 = ADVANCED_BREP_SHAPE_REPRESENTATION( '_K0392.116', ( #73, #74 ), #6 );
#33 = UNCERTAINTY_MEASURE_WITH_UNIT( LENGTH_MEASURE( 0.00100000000000000 ), #35, '', '' );
#35 =  ( CONVERSION_BASED_UNIT( 'MILLIMETRE', #77 )LENGTH_UNIT(  )NAMED_UNIT( #80 ) );
#36 =  ( NAMED_UNIT( #82 )PLANE_ANGLE_UNIT(  )SI_UNIT( $, .RADIAN. ) );
#37 =  ( NAMED_UNIT( #82 )SI_UNIT( $, .STERADIAN. )SOLID_ANGLE_UNIT(  ) );
#39 = PRESENTATION_STYLE_ASSIGNMENT( ( #88 ) );
#40 = ADVANCED_FACE( '', ( #89, #90 ), #91, .F. );
#41 = PRESENTATION_STYLE_ASSIGNMENT( ( #92 ) );
#42 = ADVANCED_FACE( '', ( #93, #94 ), #95, .F. );
#43 = PRESENTATION_STYLE_ASSIGNMENT( ( #96 ) );
#44 = ADVANCED_FACE( '', ( #97, #98 ), #99, .F. );
#45 = PRESENTATION_STYLE_ASSIGNMENT( ( #100 ) );
#46 = ADVANCED_FACE( '', ( #101, #102 ), #103, .T. );
#47 = PRESENTATION_STYLE_ASSIGNMENT( ( #104 ) );
#48 = ADVANCED_FACE( '', ( #105, #106 ), #107, .T. );
#49 = PRESENTATION_STYLE_ASSIGNMENT( ( #108 ) );
#50 = ADVANCED_FACE( '', ( #109, #110 ), #111, .F. );
#51 = PRESENTATION_STYLE_ASSIGNMENT( ( #112 ) );
#52 = ADVANCED_FACE( '', ( #113, #114 ), #115, .T. );
#53 = PRESENTATION_STYLE_ASSIGNMENT( ( #116 ) );
#54 = ADVANCED_FACE( '', ( #117, #118 ), #119, .F. );
#55 = PRESENTATION_STYLE_ASSIGNMENT( ( #120 ) );
#56 = ADVANCED_FACE( '', ( #121, #122 ), #123, .F. );
#57 = PRESENTATION_STYLE_ASSIGNMENT( ( #124 ) );
#58 = ADVANCED_FACE( '', ( #125, #126 ), #127, .F. );
#59 = PRESENTATION_STYLE_ASSIGNMENT( ( #128 ) );
#60 = ADVANCED_FACE( '', ( #129, #130 ), #131, .F. );
#61 = PRESENTATION_STYLE_ASSIGNMENT( ( #132 ) );
#62 = ADVANCED_FACE( '', ( #133, #134 ), #135, .T. );
#63 = PRESENTATION_STYLE_ASSIGNMENT( ( #136 ) );
#64 = ADVANCED_FACE( '', ( #137, #138 ), #139, .F. );
#65 = PRESENTATION_STYLE_ASSIGNMENT( ( #140 ) );
#66 = ADVANCED_FACE( '', ( #141, #142 ), #143, .F. );
#67 = PRESENTATION_STYLE_ASSIGNMENT( ( #144 ) );
#68 = ADVANCED_FACE( '', ( #145, #146 ), #147, .T. );
#69 = PRESENTATION_STYLE_ASSIGNMENT( ( #148 ) );
#70 = ADVANCED_FACE( '', ( #149, #150 ), #151, .F. );
#71 = PRODUCT( '_K0392.116', '_K0392.116', 'PART-_K0392.116-DESC', ( #152 ) );
#72 = PRODUCT_DEFINITION( 'NONE', 'NONE', #153, #2 );
#73 = MANIFOLD_SOLID_BREP( '_K0392.116', #154 );
#74 = AXIS2_PLACEMENT_3D( '', #155, #156, #157 );
#77 = LENGTH_MEASURE_WITH_UNIT( LENGTH_MEASURE( 1.00000000000000 ), #158 );
#80 = DIMENSIONAL_EXPONENTS( 1.00000000000000, 0.000000000000000, 0.000000000000000, 0.000000000000000, 0.000000000000000, 0.000000000000000, 0.000000000000000 );
#82 = DIMENSIONAL_EXPONENTS( 0.000000000000000, 0.000000000000000, 0.000000000000000, 0.000000000000000, 0.000000000000000, 0.000000000000000, 0.000000000000000 );
#88 = SURFACE_STYLE_USAGE( .BOTH., #159 );
#89 = FACE_OUTER_BOUND( '', #160, .T. );
#90 = FACE_BOUND( '', #161, .T. );
#91 = CONICAL_SURFACE( '', #162, 857.167300702100, 1.02974425870000 );
#92 = SURFACE_STYLE_USAGE( .BOTH., #163 );
#93 = FACE_OUTER_BOUND( '', #164, .T. );
#94 = FACE_OUTER_BOUND( '', #165, .T. );
#95 = CYLINDRICAL_SURFACE( '', #166, 6.05000000000000 );
#96 = SURFACE_STYLE_USAGE( .BOTH., #167 );
#97 = FACE_OUTER_BOUND( '', #168, .T. );
#98 = FACE_OUTER_BOUND( '', #169, .T. );
#99 = TOROIDAL_SURFACE( '', #170, 6.05000000000000, 0.600000000000000 );
#100 = SURFACE_STYLE_USAGE( .BOTH., #171 );
#101 = FACE_OUTER_BOUND( '', #172, .T. );
#102 = FACE_OUTER_BOUND( '', #173, .T. );
#103 = CYLINDRICAL_SURFACE( '', #174, 20.0000000000000 );
#104 = SURFACE_STYLE_USAGE( .BOTH., #175 );
#105 = FACE_OUTER_BOUND( '', #176, .T. );
#106 = FACE_OUTER_BOUND( '', #177, .T. );
#107 = CYLINDRICAL_SURFACE( '', #178, 11.0000000000000 );
#108 = SURFACE_STYLE_USAGE( .BOTH., #179 );
#109 = FACE_BOUND( '', #180, .T. );
#110 = FACE_OUTER_BOUND( '', #181, .T. );
#111 = PLANE( '', #182 );
#112 = SURFACE_STYLE_USAGE( .BOTH., #183 );
#113 = FACE_OUTER_BOUND( '', #184, .T. );
#114 = FACE_BOUND( '', #185, .T. );
#115 = CONICAL_SURFACE( '', #186, 19.5000000000000, 0.785398163400000 );
#116 = SURFACE_STYLE_USAGE( .BOTH., #187 );
#117 = FACE_BOUND( '', #188, .T. );
#118 = FACE_OUTER_BOUND( '', #189, .T. );
#119 = PLANE( '', #190 );
#120 = SURFACE_STYLE_USAGE( .BOTH., #191 );
#121 = FACE_OUTER_BOUND( '', #192, .T. );
#122 = FACE_BOUND( '', #193, .T. );
#123 = PLANE( '', #194 );
#124 = SURFACE_STYLE_USAGE( .BOTH., #195 );
#125 = FACE_OUTER_BOUND( '', #196, .T. );
#126 = FACE_BOUND( '', #197, .T. );
#127 = CONICAL_SURFACE( '', #198, 866.025403784400, 1.04719755120000 );
#128 = SURFACE_STYLE_USAGE( .BOTH., #199 );
#129 = FACE_OUTER_BOUND( '', #200, .T. );
#130 = FACE_BOUND( '', #201, .T. );
#131 = PLANE( '', #202 );
#132 = SURFACE_STYLE_USAGE( .BOTH., #203 );
#133 = FACE_OUTER_BOUND( '', #204, .T. );
#134 = FACE_BOUND( '', #205, .T. );
#135 = CONICAL_SURFACE( '', #206, 10.5000000000000, 0.785398163400000 );
#136 = SURFACE_STYLE_USAGE( .BOTH., #207 );
#137 = FACE_OUTER_BOUND( '', #208, .T. );
#138 = FACE_OUTER_BOUND( '', #209, .T. );
#139 = CYLINDRICAL_SURFACE( '', #210, 6.05000000000000 );
#140 = SURFACE_STYLE_USAGE( .BOTH., #211 );
#141 = FACE_OUTER_BOUND( '', #212, .T. );
#142 = FACE_BOUND( '', #213, .T. );
#143 = CONICAL_SURFACE( '', #214, 6.05000000000000, 0.785398163400000 );
#144 = SURFACE_STYLE_USAGE( .BOTH., #215 );
#145 = FACE_BOUND( '', #216, .T. );
#146 = FACE_OUTER_BOUND( '', #217, .T. );
#147 = CONICAL_SURFACE( '', #218, 20.0000000000000, 0.785398163400000 );
#148 = SURFACE_STYLE_USAGE( .BOTH., #219 );
#149 = FACE_OUTER_BOUND( '', #220, .T. );
#150 = FACE_OUTER_BOUND( '', #221, .T. );
#151 = TOROIDAL_SURFACE( '', #222, 13.8800000000000, 2.88000000000000 );
#152 = PRODUCT_CONTEXT( '', #26, 'mechanical' );
#153 = PRODUCT_DEFINITION_FORMATION_WITH_SPECIFIED_SOURCE( ' ', 'NONE', #71, .NOT_KNOWN. );
#154 = CLOSED_SHELL( '', ( #40, #58, #60, #52, #48, #62, #56, #64, #54, #66, #50, #68, #46, #44, #70, #42 ) );
#155 = CARTESIAN_POINT( '', ( 0.000000000000000, 0.000000000000000, 0.000000000000000 ) );
#156 = DIRECTION( '', ( 0.000000000000000, 0.000000000000000, 1.00000000000000 ) );
#157 = DIRECTION( '', ( 1.00000000000000, 0.000000000000000, 0.000000000000000 ) );
#158 =  ( LENGTH_UNIT(  )NAMED_UNIT( #80 )SI_UNIT( .MILLI., .METRE. ) );
#159 = SURFACE_SIDE_STYLE( '', ( #224 ) );
#160 = EDGE_LOOP( '', ( #225 ) );
#161 = VERTEX_LOOP( '', #226 );
#162 = AXIS2_PLACEMENT_3D( '', #227, #228, #229 );
#163 = SURFACE_SIDE_STYLE( '', ( #230 ) );
#164 = EDGE_LOOP( '', ( #231 ) );
#165 = EDGE_LOOP( '', ( #232 ) );
#166 = AXIS2_PLACEMENT_3D( '', #233, #234, #235 );
#167 = SURFACE_SIDE_STYLE( '', ( #236 ) );
#168 = EDGE_LOOP( '', ( #237 ) );
#169 = EDGE_LOOP( '', ( #238 ) );
#170 = AXIS2_PLACEMENT_3D( '', #239, #240, #241 );
#171 = SURFACE_SIDE_STYLE( '', ( #242 ) );
#172 = EDGE_LOOP( '', ( #243 ) );
#173 = EDGE_LOOP( '', ( #244 ) );
#174 = AXIS2_PLACEMENT_3D( '', #245, #246, #247 );
#175 = SURFACE_SIDE_STYLE( '', ( #248 ) );
#176 = EDGE_LOOP( '', ( #249 ) );
#177 = EDGE_LOOP( '', ( #250 ) );
#178 = AXIS2_PLACEMENT_3D( '', #251, #252, #253 );
#179 = SURFACE_SIDE_STYLE( '', ( #254 ) );
#180 = EDGE_LOOP( '', ( #255 ) );
#181 = EDGE_LOOP( '', ( #256 ) );
#182 = AXIS2_PLACEMENT_3D( '', #257, #258, #259 );
#183 = SURFACE_SIDE_STYLE( '', ( #260 ) );
#184 = EDGE_LOOP( '', ( #261 ) );
#185 = EDGE_LOOP( '', ( #262 ) );
#186 = AXIS2_PLACEMENT_3D( '', #263, #264, #265 );
#187 = SURFACE_SIDE_STYLE( '', ( #266 ) );
#188 = EDGE_LOOP( '', ( #267 ) );
#189 = EDGE_LOOP( '', ( #268 ) );
#190 = AXIS2_PLACEMENT_3D( '', #269, #270, #271 );
#191 = SURFACE_SIDE_STYLE( '', ( #272 ) );
#192 = EDGE_LOOP( '', ( #273 ) );
#193 = EDGE_LOOP( '', ( #274 ) );
#194 = AXIS2_PLACEMENT_3D( '', #275, #276, #277 );
#195 = SURFACE_SIDE_STYLE( '', ( #278 ) );
#196 = EDGE_LOOP( '', ( #279 ) );
#197 = VERTEX_LOOP( '', #280 );
#198 = AXIS2_PLACEMENT_3D( '', #281, #282, #283 );
#199 = SURFACE_SIDE_STYLE( '', ( #284 ) );
#200 = EDGE_LOOP( '', ( #285 ) );
#201 = EDGE_LOOP( '', ( #286 ) );
#202 = AXIS2_PLACEMENT_3D( '', #287, #288, #289 );
#203 = SURFACE_SIDE_STYLE( '', ( #290 ) );
#204 = EDGE_LOOP( '', ( #291 ) );
#205 = EDGE_LOOP( '', ( #292 ) );
#206 = AXIS2_PLACEMENT_3D( '', #293, #294, #295 );
#207 = SURFACE_SIDE_STYLE( '', ( #296 ) );
#208 = EDGE_LOOP( '', ( #297 ) );
#209 = EDGE_LOOP( '', ( #298 ) );
#210 = AXIS2_PLACEMENT_3D( '', #299, #300, #301 );
#211 = SURFACE_SIDE_STYLE( '', ( #302 ) );
#212 = EDGE_LOOP( '', ( #303 ) );
#213 = EDGE_LOOP( '', ( #304 ) );
#214 = AXIS2_PLACEMENT_3D( '', #305, #306, #307 );
#215 = SURFACE_SIDE_STYLE( '', ( #308 ) );
#216 = EDGE_LOOP( '', ( #309 ) );
#217 = EDGE_LOOP( '', ( #310 ) );
#218 = AXIS2_PLACEMENT_3D( '', #311, #312, #313 );
#219 = SURFACE_SIDE_STYLE( '', ( #314 ) );
#220 = EDGE_LOOP( '', ( #315 ) );
#221 = EDGE_LOOP( '', ( #316 ) );
#222 = AXIS2_PLACEMENT_3D( '', #317, #318, #319 );
#224 = SURFACE_STYLE_FILL_AREA( #320 );
#225 = ORIENTED_EDGE( '', *, *, #321, .T. );
#226 = VERTEX_POINT( '', #322 );
#227 = CARTESIAN_POINT( '', ( 0.000000000000000, -514.438074910054, 0.000000000000000 ) );
#228 = DIRECTION( '', ( -0.000000000000000, -1.00000000000000, -0.000000000000000 ) );
#229 = DIRECTION( '', ( 0.000000000000000, 0.000000000000000, -1.00000000000000 ) );
#230 = SURFACE_STYLE_FILL_AREA( #323 );
#231 = ORIENTED_EDGE( '', *, *, #324, .F. );
#232 = ORIENTED_EDGE( '', *, *, #325, .T. );
#233 = CARTESIAN_POINT( '', ( 0.000000000000000, 0.000000000000000, 0.000000000000000 ) );
#234 = DIRECTION( '', ( -0.000000000000000, 1.00000000000000, 0.000000000000000 ) );
#235 = DIRECTION( '', ( 0.000000000000000, 0.000000000000000, -1.00000000000000 ) );
#236 = SURFACE_STYLE_FILL_AREA( #326 );
#237 = ORIENTED_EDGE( '', *, *, #327, .T. );
#238 = ORIENTED_EDGE( '', *, *, #324, .T. );
#239 = CARTESIAN_POINT( '', ( 0.000000000000000, 10.0000000000000, 0.000000000000000 ) );
#240 = DIRECTION( '', ( 0.000000000000000, -1.00000000000000, -0.000000000000000 ) );
#241 = DIRECTION( '', ( 0.000000000000000, 0.000000000000000, -1.00000000000000 ) );
#242 = SURFACE_STYLE_FILL_AREA( #328 );
#243 = ORIENTED_EDGE( '', *, *, #329, .F. );
#244 = ORIENTED_EDGE( '', *, *, #330, .T. );
#245 = CARTESIAN_POINT( '', ( 0.000000000000000, 0.000000000000000, 0.000000000000000 ) );
#246 = DIRECTION( '', ( -0.000000000000000, 1.00000000000000, 0.000000000000000 ) );
#247 = DIRECTION( '', ( 0.000000000000000, 0.000000000000000, -1.00000000000000 ) );
#248 = SURFACE_STYLE_FILL_AREA( #331 );
#249 = ORIENTED_EDGE( '', *, *, #332, .F. );
#250 = ORIENTED_EDGE( '', *, *, #333, .T. );
#251 = CARTESIAN_POINT( '', ( 0.000000000000000, 0.000000000000000, 0.000000000000000 ) );
#252 = DIRECTION( '', ( -0.000000000000000, 1.00000000000000, 0.000000000000000 ) );
#253 = DIRECTION( '', ( 0.000000000000000, 0.000000000000000, -1.00000000000000 ) );
#254 = SURFACE_STYLE_FILL_AREA( #334 );
#255 = ORIENTED_EDGE( '', *, *, #321, .F. );
#256 = ORIENTED_EDGE( '', *, *, #335, .T. );
#257 = CARTESIAN_POINT( '', ( 19.5000000000000, 0.000000000000000, 0.000000000000000 ) );
#258 = DIRECTION( '', ( 0.000000000000000, 1.00000000000000, 0.000000000000000 ) );
#259 = DIRECTION( '', ( 0.000000000000000, -0.000000000000000, 1.00000000000000 ) );
#260 = SURFACE_STYLE_FILL_AREA( #336 );
#261 = ORIENTED_EDGE( '', *, *, #330, .F. );
#262 = ORIENTED_EDGE( '', *, *, #337, .T. );
#263 = CARTESIAN_POINT( '', ( 0.000000000000000, 7.00000000000000, 0.000000000000000 ) );
#264 = DIRECTION( '', ( -0.000000000000000, -1.00000000000000, -0.000000000000000 ) );
#265 = DIRECTION( '', ( 0.000000000000000, 0.000000000000000, -1.00000000000000 ) );
#266 = SURFACE_STYLE_FILL_AREA( #338 );
#267 = ORIENTED_EDGE( '', *, *, #339, .F. );
#268 = ORIENTED_EDGE( '', *, *, #327, .F. );
#269 = CARTESIAN_POINT( '', ( 6.50000000000000, 9.60000000000000, 0.000000000000000 ) );
#270 = DIRECTION( '', ( 0.000000000000000, 1.00000000000000, 0.000000000000000 ) );
#271 = DIRECTION( '', ( 0.000000000000000, -0.000000000000000, 1.00000000000000 ) );
#272 = SURFACE_STYLE_FILL_AREA( #340 );
#273 = ORIENTED_EDGE( '', *, *, #341, .F. );
#274 = ORIENTED_EDGE( '', *, *, #342, .T. );
#275 = CARTESIAN_POINT( '', ( 7.05000000000000, 12.0000000000000, 0.000000000000000 ) );
#276 = DIRECTION( '', ( 0.000000000000000, -1.00000000000000, -0.000000000000000 ) );
#277 = DIRECTION( '', ( 0.000000000000000, 0.000000000000000, -1.00000000000000 ) );
#278 = SURFACE_STYLE_FILL_AREA( #343 );
#279 = ORIENTED_EDGE( '', *, *, #325, .F. );
#280 = VERTEX_POINT( '', #344 );
#281 = CARTESIAN_POINT( '', ( 0.000000000000000, 501.507030871403, 0.000000000000000 ) );
#282 = DIRECTION( '', ( -0.000000000000000, 1.00000000000000, 0.000000000000000 ) );
#283 = DIRECTION( '', ( 0.000000000000000, -0.000000000000000, 1.00000000000000 ) );
#284 = SURFACE_STYLE_FILL_AREA( #345 );
#285 = ORIENTED_EDGE( '', *, *, #337, .F. );
#286 = ORIENTED_EDGE( '', *, *, #346, .T. );
#287 = CARTESIAN_POINT( '', ( 13.0000000000000, 7.00000000000000, 0.000000000000000 ) );
#288 = DIRECTION( '', ( 0.000000000000000, -1.00000000000000, -0.000000000000000 ) );
#289 = DIRECTION( '', ( 0.000000000000000, 0.000000000000000, -1.00000000000000 ) );
#290 = SURFACE_STYLE_FILL_AREA( #347 );
#291 = ORIENTED_EDGE( '', *, *, #333, .F. );
#292 = ORIENTED_EDGE( '', *, *, #341, .T. );
#293 = CARTESIAN_POINT( '', ( 0.000000000000000, 12.0000000000000, 0.000000000000000 ) );
#294 = DIRECTION( '', ( -0.000000000000000, -1.00000000000000, -0.000000000000000 ) );
#295 = DIRECTION( '', ( 0.000000000000000, 0.000000000000000, -1.00000000000000 ) );
#296 = SURFACE_STYLE_FILL_AREA( #348 );
#297 = ORIENTED_EDGE( '', *, *, #349, .F. );
#298 = ORIENTED_EDGE( '', *, *, #339, .T. );
#299 = CARTESIAN_POINT( '', ( 0.000000000000000, 0.000000000000000, 0.000000000000000 ) );
#300 = DIRECTION( '', ( -0.000000000000000, 1.00000000000000, 0.000000000000000 ) );
#301 = DIRECTION( '', ( 0.000000000000000, 0.000000000000000, -1.00000000000000 ) );
#302 = SURFACE_STYLE_FILL_AREA( #350 );
#303 = ORIENTED_EDGE( '', *, *, #342, .F. );
#304 = ORIENTED_EDGE( '', *, *, #349, .T. );
#305 = CARTESIAN_POINT( '', ( 0.000000000000000, 11.2008000000000, 0.000000000000000 ) );
#306 = DIRECTION( '', ( -0.000000000000000, 1.00000000000000, 0.000000000000000 ) );
#307 = DIRECTION( '', ( 0.000000000000000, -0.000000000000000, 1.00000000000000 ) );
#308 = SURFACE_STYLE_FILL_AREA( #351 );
#309 = ORIENTED_EDGE( '', *, *, #335, .F. );
#310 = ORIENTED_EDGE( '', *, *, #329, .T. );
#311 = CARTESIAN_POINT( '', ( 0.000000000000000, 0.500000000000000, 0.000000000000000 ) );
#312 = DIRECTION( '', ( -0.000000000000000, 1.00000000000000, 0.000000000000000 ) );
#313 = DIRECTION( '', ( 0.000000000000000, -0.000000000000000, 1.00000000000000 ) );
#314 = SURFACE_STYLE_FILL_AREA( #352 );
#315 = ORIENTED_EDGE( '', *, *, #346, .F. );
#316 = ORIENTED_EDGE( '', *, *, #332, .T. );
#317 = CARTESIAN_POINT( '', ( 0.000000000000000, 9.88000000000000, 0.000000000000000 ) );
#318 = DIRECTION( '', ( 0.000000000000000, -1.00000000000000, -0.000000000000000 ) );
#319 = DIRECTION( '', ( 0.000000000000000, 0.000000000000000, -1.00000000000000 ) );
#320 = FILL_AREA_STYLE( '', ( #353 ) );
#321 = EDGE_CURVE( '', #354, #354, #355, .T. );
#322 = CARTESIAN_POINT( '', ( 0.000000000000000, 0.600000000000000, 0.000000000000000 ) );
#323 = FILL_AREA_STYLE( '', ( #356 ) );
#324 = EDGE_CURVE( '', #357, #357, #358, .T. );
#325 = EDGE_CURVE( '', #359, #359, #360, .T. );
#326 = FILL_AREA_STYLE( '', ( #361 ) );
#327 = EDGE_CURVE( '', #362, #362, #363, .T. );
#328 = FILL_AREA_STYLE( '', ( #364 ) );
#329 = EDGE_CURVE( '', #365, #365, #366, .T. );
#330 = EDGE_CURVE( '', #367, #367, #368, .T. );
#331 = FILL_AREA_STYLE( '', ( #369 ) );
#332 = EDGE_CURVE( '', #370, #370, #371, .T. );
#333 = EDGE_CURVE( '', #372, #372, #373, .T. );
#334 = FILL_AREA_STYLE( '', ( #374 ) );
#335 = EDGE_CURVE( '', #375, #375, #376, .T. );
#336 = FILL_AREA_STYLE( '', ( #377 ) );
#337 = EDGE_CURVE( '', #378, #378, #379, .T. );
#338 = FILL_AREA_STYLE( '', ( #380 ) );
#339 = EDGE_CURVE( '', #381, #381, #382, .T. );
#340 = FILL_AREA_STYLE( '', ( #383 ) );
#341 = EDGE_CURVE( '', #384, #384, #385, .T. );
#342 = EDGE_CURVE( '', #386, #386, #387, .T. );
#343 = FILL_AREA_STYLE( '', ( #388 ) );
#344 = CARTESIAN_POINT( '', ( 0.000000000000000, 1.50703087140276, 0.000000000000000 ) );
#345 = FILL_AREA_STYLE( '', ( #389 ) );
#346 = EDGE_CURVE( '', #390, #390, #391, .T. );
#347 = FILL_AREA_STYLE( '', ( #392 ) );
#348 = FILL_AREA_STYLE( '', ( #393 ) );
#349 = EDGE_CURVE( '', #394, #394, #395, .T. );
#350 = FILL_AREA_STYLE( '', ( #396 ) );
#351 = FILL_AREA_STYLE( '', ( #397 ) );
#352 = FILL_AREA_STYLE( '', ( #398 ) );
#353 = FILL_AREA_STYLE_COLOUR( '', #399 );
#354 = VERTEX_POINT( '', #400 );
#355 = CIRCLE( '', #401, 0.998567689400000 );
#356 = FILL_AREA_STYLE_COLOUR( '', #402 );
#357 = VERTEX_POINT( '', #403 );
#358 = CIRCLE( '', #404, 6.05000000000000 );
#359 = VERTEX_POINT( '', #405 );
#360 = CIRCLE( '', #406, 6.05000000000000 );
#361 = FILL_AREA_STYLE_COLOUR( '', #407 );
#362 = VERTEX_POINT( '', #408 );
#363 = CIRCLE( '', #409, 6.49721359550000 );
#364 = FILL_AREA_STYLE_COLOUR( '', #410 );
#365 = VERTEX_POINT( '', #411 );
#366 = CIRCLE( '', #412, 20.0000000000000 );
#367 = VERTEX_POINT( '', #413 );
#368 = CIRCLE( '', #414, 20.0000000000000 );
#369 = FILL_AREA_STYLE_COLOUR( '', #415 );
#370 = VERTEX_POINT( '', #416 );
#371 = CIRCLE( '', #417, 11.0000000000000 );
#372 = VERTEX_POINT( '', #418 );
#373 = CIRCLE( '', #419, 11.0000000000000 );
#374 = FILL_AREA_STYLE_COLOUR( '', #420 );
#375 = VERTEX_POINT( '', #421 );
#376 = CIRCLE( '', #422, 19.5000000000000 );
#377 = FILL_AREA_STYLE_COLOUR( '', #423 );
#378 = VERTEX_POINT( '', #424 );
#379 = CIRCLE( '', #425, 19.5000000000000 );
#380 = FILL_AREA_STYLE_COLOUR( '', #426 );
#381 = VERTEX_POINT( '', #427 );
#382 = CIRCLE( '', #428, 6.05000000000000 );
#383 = FILL_AREA_STYLE_COLOUR( '', #429 );
#384 = VERTEX_POINT( '', #430 );
#385 = CIRCLE( '', #431, 10.5000000000000 );
#386 = VERTEX_POINT( '', #432 );
#387 = CIRCLE( '', #433, 6.84920000000000 );
#388 = FILL_AREA_STYLE_COLOUR( '', #434 );
#389 = FILL_AREA_STYLE_COLOUR( '', #435 );
#390 = VERTEX_POINT( '', #436 );
#391 = CIRCLE( '', #437, 13.8800000000000 );
#392 = FILL_AREA_STYLE_COLOUR( '', #438 );
#393 = FILL_AREA_STYLE_COLOUR( '', #439 );
#394 = VERTEX_POINT( '', #440 );
#395 = CIRCLE( '', #441, 6.05000000000000 );
#396 = FILL_AREA_STYLE_COLOUR( '', #442 );
#397 = FILL_AREA_STYLE_COLOUR( '', #443 );
#398 = FILL_AREA_STYLE_COLOUR( '', #444 );
#399 = COLOUR_RGB( '', 0.689999997600000, 0.689999997600000, 0.689999997600000 );
#400 = CARTESIAN_POINT( '', ( 0.000000000000000, 0.000000000000000, -0.998567689410311 ) );
#401 = AXIS2_PLACEMENT_3D( '', #445, #446, #447 );
#402 = COLOUR_RGB( '', 0.689999997600000, 0.689999997600000, 0.689999997600000 );
#403 = CARTESIAN_POINT( '', ( 0.000000000000000, 9.40000000000000, -6.05000000000000 ) );
#404 = AXIS2_PLACEMENT_3D( '', #448, #449, #450 );
#405 = CARTESIAN_POINT( '', ( 0.000000000000000, 5.00000000000000, -6.05000000000000 ) );
#406 = AXIS2_PLACEMENT_3D( '', #451, #452, #453 );
#407 = COLOUR_RGB( '', 0.689999997600000, 0.689999997600000, 0.689999997600000 );
#408 = CARTESIAN_POINT( '', ( 0.000000000000000, 9.60000000000000, 6.49721359549996 ) );
#409 = AXIS2_PLACEMENT_3D( '', #454, #455, #456 );
#410 = COLOUR_RGB( '', 0.689999997600000, 0.689999997600000, 0.689999997600000 );
#411 = CARTESIAN_POINT( '', ( 0.000000000000000, 0.500000000000000, -20.0000000000000 ) );
#412 = AXIS2_PLACEMENT_3D( '', #457, #458, #459 );
#413 = CARTESIAN_POINT( '', ( 0.000000000000000, 6.50000000000000, -20.0000000000000 ) );
#414 = AXIS2_PLACEMENT_3D( '', #460, #461, #462 );
#415 = COLOUR_RGB( '', 0.689999997600000, 0.689999997600000, 0.689999997600000 );
#416 = CARTESIAN_POINT( '', ( 0.000000000000000, 9.88000000000000, -11.0000000000000 ) );
#417 = AXIS2_PLACEMENT_3D( '', #463, #464, #465 );
#418 = CARTESIAN_POINT( '', ( 0.000000000000000, 11.5000000000000, -11.0000000000000 ) );
#419 = AXIS2_PLACEMENT_3D( '', #466, #467, #468 );
#420 = COLOUR_RGB( '', 0.689999997600000, 0.689999997600000, 0.689999997600000 );
#421 = CARTESIAN_POINT( '', ( 0.000000000000000, 0.000000000000000, -19.5000000000000 ) );
#422 = AXIS2_PLACEMENT_3D( '', #469, #470, #471 );
#423 = COLOUR_RGB( '', 0.689999997600000, 0.689999997600000, 0.689999997600000 );
#424 = CARTESIAN_POINT( '', ( 0.000000000000000, 7.00000000000000, -19.5000000000000 ) );
#425 = AXIS2_PLACEMENT_3D( '', #472, #473, #474 );
#426 = COLOUR_RGB( '', 0.689999997600000, 0.689999997600000, 0.689999997600000 );
#427 = CARTESIAN_POINT( '', ( 0.000000000000000, 9.60000000000000, -6.05000000000000 ) );
#428 = AXIS2_PLACEMENT_3D( '', #475, #476, #477 );
#429 = COLOUR_RGB( '', 0.689999997600000, 0.689999997600000, 0.689999997600000 );
#430 = CARTESIAN_POINT( '', ( 0.000000000000000, 12.0000000000000, -10.5000000000000 ) );
#431 = AXIS2_PLACEMENT_3D( '', #478, #479, #480 );
#432 = CARTESIAN_POINT( '', ( 0.000000000000000, 12.0000000000000, -6.84920000000000 ) );
#433 = AXIS2_PLACEMENT_3D( '', #481, #482, #483 );
#434 = COLOUR_RGB( '', 0.689999997600000, 0.689999997600000, 0.689999997600000 );
#435 = COLOUR_RGB( '', 0.689999997600000, 0.689999997600000, 0.689999997600000 );
#436 = CARTESIAN_POINT( '', ( 0.000000000000000, 7.00000000000000, -13.8800000000000 ) );
#437 = AXIS2_PLACEMENT_3D( '', #484, #485, #486 );
#438 = COLOUR_RGB( '', 0.689999997600000, 0.689999997600000, 0.689999997600000 );
#439 = COLOUR_RGB( '', 0.689999997600000, 0.689999997600000, 0.689999997600000 );
#440 = CARTESIAN_POINT( '', ( 0.000000000000000, 11.2008000000000, -6.05000000000000 ) );
#441 = AXIS2_PLACEMENT_3D( '', #487, #488, #489 );
#442 = COLOUR_RGB( '', 0.689999997600000, 0.689999997600000, 0.689999997600000 );
#443 = COLOUR_RGB( '', 0.689999997600000, 0.689999997600000, 0.689999997600000 );
#444 = COLOUR_RGB( '', 0.689999997600000, 0.689999997600000, 0.689999997600000 );
#445 = CARTESIAN_POINT( '', ( 0.000000000000000, 0.000000000000000, 0.000000000000000 ) );
#446 = DIRECTION( '', ( 0.000000000000000, -1.00000000000000, -0.000000000000000 ) );
#447 = DIRECTION( '', ( 0.000000000000000, 0.000000000000000, -1.00000000000000 ) );
#448 = CARTESIAN_POINT( '', ( 0.000000000000000, 9.40000000000000, 0.000000000000000 ) );
#449 = DIRECTION( '', ( 0.000000000000000, -1.00000000000000, -0.000000000000000 ) );
#450 = DIRECTION( '', ( 0.000000000000000, 0.000000000000000, -1.00000000000000 ) );
#451 = CARTESIAN_POINT( '', ( 0.000000000000000, 5.00000000000000, 0.000000000000000 ) );
#452 = DIRECTION( '', ( 0.000000000000000, -1.00000000000000, -0.000000000000000 ) );
#453 = DIRECTION( '', ( 0.000000000000000, 0.000000000000000, -1.00000000000000 ) );
#454 = CARTESIAN_POINT( '', ( 0.000000000000000, 9.60000000000000, 0.000000000000000 ) );
#455 = DIRECTION( '', ( 0.000000000000000, 1.00000000000000, 0.000000000000000 ) );
#456 = DIRECTION( '', ( 0.000000000000000, -0.000000000000000, 1.00000000000000 ) );
#457 = CARTESIAN_POINT( '', ( 0.000000000000000, 0.500000000000000, 0.000000000000000 ) );
#458 = DIRECTION( '', ( 0.000000000000000, -1.00000000000000, -0.000000000000000 ) );
#459 = DIRECTION( '', ( 0.000000000000000, 0.000000000000000, -1.00000000000000 ) );
#460 = CARTESIAN_POINT( '', ( 0.000000000000000, 6.50000000000000, 0.000000000000000 ) );
#461 = DIRECTION( '', ( 0.000000000000000, -1.00000000000000, -0.000000000000000 ) );
#462 = DIRECTION( '', ( 0.000000000000000, 0.000000000000000, -1.00000000000000 ) );
#463 = CARTESIAN_POINT( '', ( 0.000000000000000, 9.88000000000000, 0.000000000000000 ) );
#464 = DIRECTION( '', ( 0.000000000000000, -1.00000000000000, -0.000000000000000 ) );
#465 = DIRECTION( '', ( 0.000000000000000, 0.000000000000000, -1.00000000000000 ) );
#466 = CARTESIAN_POINT( '', ( 0.000000000000000, 11.5000000000000, 0.000000000000000 ) );
#467 = DIRECTION( '', ( 0.000000000000000, -1.00000000000000, -0.000000000000000 ) );
#468 = DIRECTION( '', ( 0.000000000000000, 0.000000000000000, -1.00000000000000 ) );
#469 = CARTESIAN_POINT( '', ( 0.000000000000000, 0.000000000000000, 0.000000000000000 ) );
#470 = DIRECTION( '', ( 0.000000000000000, -1.00000000000000, -0.000000000000000 ) );
#471 = DIRECTION( '', ( 0.000000000000000, 0.000000000000000, -1.00000000000000 ) );
#472 = CARTESIAN_POINT( '', ( 0.000000000000000, 7.00000000000000, 0.000000000000000 ) );
#473 = DIRECTION( '', ( 0.000000000000000, -1.00000000000000, -0.000000000000000 ) );
#474 = DIRECTION( '', ( 0.000000000000000, 0.000000000000000, -1.00000000000000 ) );
#475 = CARTESIAN_POINT( '', ( 0.000000000000000, 9.60000000000000, 0.000000000000000 ) );
#476 = DIRECTION( '', ( 0.000000000000000, -1.00000000000000, -0.000000000000000 ) );
#477 = DIRECTION( '', ( 0.000000000000000, 0.000000000000000, -1.00000000000000 ) );
#478 = CARTESIAN_POINT( '', ( 0.000000000000000, 12.0000000000000, 0.000000000000000 ) );
#479 = DIRECTION( '', ( 0.000000000000000, -1.00000000000000, -0.000000000000000 ) );
#480 = DIRECTION( '', ( 0.000000000000000, 0.000000000000000, -1.00000000000000 ) );
#481 = CARTESIAN_POINT( '', ( 0.000000000000000, 12.0000000000000, 0.000000000000000 ) );
#482 = DIRECTION( '', ( 0.000000000000000, -1.00000000000000, -0.000000000000000 ) );
#483 = DIRECTION( '', ( 0.000000000000000, 0.000000000000000, -1.00000000000000 ) );
#484 = CARTESIAN_POINT( '', ( 0.000000000000000, 7.00000000000000, 0.000000000000000 ) );
#485 = DIRECTION( '', ( 0.000000000000000, -1.00000000000000, -0.000000000000000 ) );
#486 = DIRECTION( '', ( 0.000000000000000, 0.000000000000000, -1.00000000000000 ) );
#487 = CARTESIAN_POINT( '', ( 0.000000000000000, 11.2008000000000, 0.000000000000000 ) );
#488 = DIRECTION( '', ( 0.000000000000000, -1.00000000000000, -0.000000000000000 ) );
#489 = DIRECTION( '', ( 0.000000000000000, 0.000000000000000, -1.00000000000000 ) );
ENDSEC;
END-ISO-10303-21;
