ISO-10303-21;
HEADER;
FILE_DESCRIPTION( ( 'STEP AP214' ), '1' );
FILE_NAME( '//goodhand-server/Shared Folders/GoodHand Data/Kipp CAD/K0344/K0344.92.stp', '2020-12-03T13:53:21', ( '' ), ( '' ), ' ', 'PARTsolutions', ' ' );
FILE_SCHEMA( ( 'AUTOMOTIVE_DESIGN { 1 0 10303 214 1 1 1 1 }' ) );
ENDSEC;
DATA;
#1 = MECHANICAL_DESIGN_GEOMETRIC_PRESENTATION_REPRESENTATION( ' ', ( #10, #11, #12, #13, #14, #15, #16, #17, #18, #19, #20, #21, #22, #23 ), #6 );
#2 = PRODUCT_DEFINITION_CONTEXT( '', #24, 'design' );
#3 = APPLICATION_PROTOCOL_DEFINITION( 'international standard', 'automotive_design', 2001, #24 );
#4 = PRODUCT_CATEGORY_RELATIONSHIP( 'NONE', 'NONE', #25, #26 );
#5 = SHAPE_DEFINITION_REPRESENTATION( #27, #28 );
#6 =  ( GEOMETRIC_REPRESENTATION_CONTEXT( 3 )GLOBAL_UNCERTAINTY_ASSIGNED_CONTEXT( ( #31 ) )GLOBAL_UNIT_ASSIGNED_CONTEXT( ( #33, #34, #35 ) )REPRESENTATION_CONTEXT( 'NONE', 'WORKSPACE' ) );
#10 = STYLED_ITEM( '', ( #37 ), #38 );
#11 = STYLED_ITEM( '', ( #39 ), #40 );
#12 = STYLED_ITEM( '', ( #41 ), #42 );
#13 = STYLED_ITEM( '', ( #43 ), #44 );
#14 = STYLED_ITEM( '', ( #45 ), #46 );
#15 = STYLED_ITEM( '', ( #47 ), #48 );
#16 = STYLED_ITEM( '', ( #49 ), #50 );
#17 = STYLED_ITEM( '', ( #51 ), #52 );
#18 = STYLED_ITEM( '', ( #53 ), #54 );
#19 = STYLED_ITEM( '', ( #55 ), #56 );
#20 = STYLED_ITEM( '', ( #57 ), #58 );
#21 = STYLED_ITEM( '', ( #59 ), #60 );
#22 = STYLED_ITEM( '', ( #61 ), #62 );
#23 = STYLED_ITEM( '', ( #63 ), #64 );
#24 = APPLICATION_CONTEXT( 'core data for automotive mechanical design processes' );
#25 = PRODUCT_CATEGORY( 'part', 'NONE' );
#26 = PRODUCT_RELATED_PRODUCT_CATEGORY( 'detail', ' ', ( #65 ) );
#27 = PRODUCT_DEFINITION_SHAPE( 'NONE', 'NONE', #66 );
#28 = ADVANCED_BREP_SHAPE_REPRESENTATION( '_K0344.92', ( #67, #68 ), #6 );
#31 = UNCERTAINTY_MEASURE_WITH_UNIT( LENGTH_MEASURE( 0.00100000000000000 ), #33, '', '' );
#33 =  ( CONVERSION_BASED_UNIT( 'MILLIMETRE', #71 )LENGTH_UNIT(  )NAMED_UNIT( #74 ) );
#34 =  ( NAMED_UNIT( #76 )PLANE_ANGLE_UNIT(  )SI_UNIT( $, .RADIAN. ) );
#35 =  ( NAMED_UNIT( #76 )SI_UNIT( $, .STERADIAN. )SOLID_ANGLE_UNIT(  ) );
#37 = PRESENTATION_STYLE_ASSIGNMENT( ( #82 ) );
#38 = ADVANCED_FACE( '', ( #83 ), #84, .T. );
#39 = PRESENTATION_STYLE_ASSIGNMENT( ( #85 ) );
#40 = ADVANCED_FACE( '', ( #86, #87 ), #88, .T. );
#41 = PRESENTATION_STYLE_ASSIGNMENT( ( #89 ) );
#42 = ADVANCED_FACE( '', ( #90 ), #91, .T. );
#43 = PRESENTATION_STYLE_ASSIGNMENT( ( #92 ) );
#44 = ADVANCED_FACE( '', ( #93, #94 ), #95, .T. );
#45 = PRESENTATION_STYLE_ASSIGNMENT( ( #96 ) );
#46 = ADVANCED_FACE( '', ( #97, #98 ), #99, .T. );
#47 = PRESENTATION_STYLE_ASSIGNMENT( ( #100 ) );
#48 = ADVANCED_FACE( '', ( #101 ), #102, .F. );
#49 = PRESENTATION_STYLE_ASSIGNMENT( ( #103 ) );
#50 = ADVANCED_FACE( '', ( #104 ), #105, .T. );
#51 = PRESENTATION_STYLE_ASSIGNMENT( ( #106 ) );
#52 = ADVANCED_FACE( '', ( #107 ), #108, .F. );
#53 = PRESENTATION_STYLE_ASSIGNMENT( ( #109 ) );
#54 = ADVANCED_FACE( '', ( #110 ), #111, .T. );
#55 = PRESENTATION_STYLE_ASSIGNMENT( ( #112 ) );
#56 = ADVANCED_FACE( '', ( #113 ), #114, .T. );
#57 = PRESENTATION_STYLE_ASSIGNMENT( ( #115 ) );
#58 = ADVANCED_FACE( '', ( #116 ), #117, .F. );
#59 = PRESENTATION_STYLE_ASSIGNMENT( ( #118 ) );
#60 = ADVANCED_FACE( '', ( #119, #120, #121 ), #122, .F. );
#61 = PRESENTATION_STYLE_ASSIGNMENT( ( #123 ) );
#62 = ADVANCED_FACE( '', ( #124, #125 ), #126, .T. );
#63 = PRESENTATION_STYLE_ASSIGNMENT( ( #127 ) );
#64 = ADVANCED_FACE( '', ( #128 ), #129, .F. );
#65 = PRODUCT( '_K0344.92', '_K0344.92', 'PART-_K0344.92-DESC', ( #130 ) );
#66 = PRODUCT_DEFINITION( 'NONE', 'NONE', #131, #2 );
#67 = MANIFOLD_SOLID_BREP( '_K0344.92', #132 );
#68 = AXIS2_PLACEMENT_3D( '', #133, #134, #135 );
#71 = LENGTH_MEASURE_WITH_UNIT( LENGTH_MEASURE( 1.00000000000000 ), #136 );
#74 = DIMENSIONAL_EXPONENTS( 1.00000000000000, 0.000000000000000, 0.000000000000000, 0.000000000000000, 0.000000000000000, 0.000000000000000, 0.000000000000000 );
#76 = DIMENSIONAL_EXPONENTS( 0.000000000000000, 0.000000000000000, 0.000000000000000, 0.000000000000000, 0.000000000000000, 0.000000000000000, 0.000000000000000 );
#82 = SURFACE_STYLE_USAGE( .BOTH., #137 );
#83 = FACE_OUTER_BOUND( '', #138, .T. );
#84 = CONICAL_SURFACE( '', #139, 10.5000000000000, 0.785398163400000 );
#85 = SURFACE_STYLE_USAGE( .BOTH., #140 );
#86 = FACE_OUTER_BOUND( '', #141, .T. );
#87 = FACE_OUTER_BOUND( '', #142, .T. );
#88 = CYLINDRICAL_SURFACE( '', #143, 0.600000000000000 );
#89 = SURFACE_STYLE_USAGE( .BOTH., #144 );
#90 = FACE_OUTER_BOUND( '', #145, .T. );
#91 = CYLINDRICAL_SURFACE( '', #146, 11.0000000000000 );
#92 = SURFACE_STYLE_USAGE( .BOTH., #147 );
#93 = FACE_OUTER_BOUND( '', #148, .T. );
#94 = FACE_OUTER_BOUND( '', #149, .T. );
#95 = CYLINDRICAL_SURFACE( '', #150, 0.600000000000000 );
#96 = SURFACE_STYLE_USAGE( .BOTH., #151 );
#97 = FACE_BOUND( '', #152, .T. );
#98 = FACE_OUTER_BOUND( '', #153, .T. );
#99 = CONICAL_SURFACE( '', #154, 0.600000000000000, 0.261799387800000 );
#100 = SURFACE_STYLE_USAGE( .BOTH., #155 );
#101 = FACE_OUTER_BOUND( '', #156, .T. );
#102 = CYLINDRICAL_SURFACE( '', #157, 3.00000000000000 );
#103 = SURFACE_STYLE_USAGE( .BOTH., #158 );
#104 = FACE_OUTER_BOUND( '', #159, .T. );
#105 = CONICAL_SURFACE( '', #160, 11.0000000000000, 0.785398163400000 );
#106 = SURFACE_STYLE_USAGE( .BOTH., #161 );
#107 = FACE_OUTER_BOUND( '', #162, .T. );
#108 = PLANE( '', #163 );
#109 = SURFACE_STYLE_USAGE( .BOTH., #164 );
#110 = FACE_OUTER_BOUND( '', #165, .T. );
#111 = PLANE( '', #166 );
#112 = SURFACE_STYLE_USAGE( .BOTH., #167 );
#113 = FACE_OUTER_BOUND( '', #168, .T. );
#114 = PLANE( '', #169 );
#115 = SURFACE_STYLE_USAGE( .BOTH., #170 );
#116 = FACE_OUTER_BOUND( '', #171, .T. );
#117 = PLANE( '', #172 );
#118 = SURFACE_STYLE_USAGE( .BOTH., #173 );
#119 = FACE_OUTER_BOUND( '', #174, .T. );
#120 = FACE_BOUND( '', #175, .T. );
#121 = FACE_BOUND( '', #176, .T. );
#122 = PLANE( '', #177 );
#123 = SURFACE_STYLE_USAGE( .BOTH., #178 );
#124 = FACE_BOUND( '', #179, .T. );
#125 = FACE_OUTER_BOUND( '', #180, .T. );
#126 = CONICAL_SURFACE( '', #181, 0.600000000000000, 0.261799387800000 );
#127 = SURFACE_STYLE_USAGE( .BOTH., #182 );
#128 = FACE_OUTER_BOUND( '', #183, .T. );
#129 = PLANE( '', #184 );
#130 = PRODUCT_CONTEXT( '', #24, 'mechanical' );
#131 = PRODUCT_DEFINITION_FORMATION_WITH_SPECIFIED_SOURCE( ' ', 'NONE', #65, .NOT_KNOWN. );
#132 = CLOSED_SHELL( '', ( #56, #38, #60, #40, #58, #62, #64, #44, #46, #52, #48, #54, #42, #50 ) );
#133 = CARTESIAN_POINT( '', ( 0.000000000000000, 0.000000000000000, 0.000000000000000 ) );
#134 = DIRECTION( '', ( 0.000000000000000, 0.000000000000000, 1.00000000000000 ) );
#135 = DIRECTION( '', ( 1.00000000000000, 0.000000000000000, 0.000000000000000 ) );
#136 =  ( LENGTH_UNIT(  )NAMED_UNIT( #74 )SI_UNIT( .MILLI., .METRE. ) );
#137 = SURFACE_SIDE_STYLE( '', ( #186 ) );
#138 = EDGE_LOOP( '', ( #187, #188, #189, #190 ) );
#139 = AXIS2_PLACEMENT_3D( '', #191, #192, #193 );
#140 = SURFACE_SIDE_STYLE( '', ( #194 ) );
#141 = EDGE_LOOP( '', ( #195 ) );
#142 = EDGE_LOOP( '', ( #196 ) );
#143 = AXIS2_PLACEMENT_3D( '', #197, #198, #199 );
#144 = SURFACE_SIDE_STYLE( '', ( #200 ) );
#145 = EDGE_LOOP( '', ( #201, #202, #203, #204 ) );
#146 = AXIS2_PLACEMENT_3D( '', #205, #206, #207 );
#147 = SURFACE_SIDE_STYLE( '', ( #208 ) );
#148 = EDGE_LOOP( '', ( #209 ) );
#149 = EDGE_LOOP( '', ( #210 ) );
#150 = AXIS2_PLACEMENT_3D( '', #211, #212, #213 );
#151 = SURFACE_SIDE_STYLE( '', ( #214 ) );
#152 = EDGE_LOOP( '', ( #215 ) );
#153 = EDGE_LOOP( '', ( #216 ) );
#154 = AXIS2_PLACEMENT_3D( '', #217, #218, #219 );
#155 = SURFACE_SIDE_STYLE( '', ( #220 ) );
#156 = EDGE_LOOP( '', ( #221, #222, #223, #224 ) );
#157 = AXIS2_PLACEMENT_3D( '', #225, #226, #227 );
#158 = SURFACE_SIDE_STYLE( '', ( #228 ) );
#159 = EDGE_LOOP( '', ( #229, #230, #231, #232 ) );
#160 = AXIS2_PLACEMENT_3D( '', #233, #234, #235 );
#161 = SURFACE_SIDE_STYLE( '', ( #236 ) );
#162 = EDGE_LOOP( '', ( #237 ) );
#163 = AXIS2_PLACEMENT_3D( '', #238, #239, #240 );
#164 = SURFACE_SIDE_STYLE( '', ( #241 ) );
#165 = EDGE_LOOP( '', ( #242, #243, #244, #245, #246, #247 ) );
#166 = AXIS2_PLACEMENT_3D( '', #248, #249, #250 );
#167 = SURFACE_SIDE_STYLE( '', ( #251 ) );
#168 = EDGE_LOOP( '', ( #252, #253, #254, #255, #256, #257 ) );
#169 = AXIS2_PLACEMENT_3D( '', #258, #259, #260 );
#170 = SURFACE_SIDE_STYLE( '', ( #261 ) );
#171 = EDGE_LOOP( '', ( #262, #263, #264, #265 ) );
#172 = AXIS2_PLACEMENT_3D( '', #266, #267, #268 );
#173 = SURFACE_SIDE_STYLE( '', ( #269 ) );
#174 = EDGE_LOOP( '', ( #270, #271, #272, #273 ) );
#175 = EDGE_LOOP( '', ( #274 ) );
#176 = EDGE_LOOP( '', ( #275 ) );
#177 = AXIS2_PLACEMENT_3D( '', #276, #277, #278 );
#178 = SURFACE_SIDE_STYLE( '', ( #279 ) );
#179 = EDGE_LOOP( '', ( #280 ) );
#180 = EDGE_LOOP( '', ( #281 ) );
#181 = AXIS2_PLACEMENT_3D( '', #282, #283, #284 );
#182 = SURFACE_SIDE_STYLE( '', ( #285 ) );
#183 = EDGE_LOOP( '', ( #286 ) );
#184 = AXIS2_PLACEMENT_3D( '', #287, #288, #289 );
#186 = SURFACE_STYLE_FILL_AREA( #290 );
#187 = ORIENTED_EDGE( '', *, *, #291, .F. );
#188 = ORIENTED_EDGE( '', *, *, #292, .F. );
#189 = ORIENTED_EDGE( '', *, *, #293, .F. );
#190 = ORIENTED_EDGE( '', *, *, #294, .T. );
#191 = CARTESIAN_POINT( '', ( 0.000000000000000, 3.00000000000000, 0.000000000000000 ) );
#192 = DIRECTION( '', ( -0.000000000000000, -1.00000000000000, -0.000000000000000 ) );
#193 = DIRECTION( '', ( 0.000000000000000, 0.000000000000000, -1.00000000000000 ) );
#194 = SURFACE_STYLE_FILL_AREA( #295 );
#195 = ORIENTED_EDGE( '', *, *, #296, .F. );
#196 = ORIENTED_EDGE( '', *, *, #297, .T. );
#197 = CARTESIAN_POINT( '', ( 4.30000000000000, -3.00000000000000, 0.000000000000000 ) );
#198 = DIRECTION( '', ( -0.000000000000000, 1.00000000000000, 0.000000000000000 ) );
#199 = DIRECTION( '', ( 0.000000000000000, 0.000000000000000, -1.00000000000000 ) );
#200 = SURFACE_STYLE_FILL_AREA( #298 );
#201 = ORIENTED_EDGE( '', *, *, #299, .F. );
#202 = ORIENTED_EDGE( '', *, *, #300, .F. );
#203 = ORIENTED_EDGE( '', *, *, #301, .F. );
#204 = ORIENTED_EDGE( '', *, *, #292, .T. );
#205 = CARTESIAN_POINT( '', ( 0.000000000000000, 0.000000000000000, 0.000000000000000 ) );
#206 = DIRECTION( '', ( -0.000000000000000, 1.00000000000000, 0.000000000000000 ) );
#207 = DIRECTION( '', ( 0.000000000000000, 0.000000000000000, -1.00000000000000 ) );
#208 = SURFACE_STYLE_FILL_AREA( #302 );
#209 = ORIENTED_EDGE( '', *, *, #303, .F. );
#210 = ORIENTED_EDGE( '', *, *, #304, .T. );
#211 = CARTESIAN_POINT( '', ( -4.30000000000000, -3.00000000000000, 0.000000000000000 ) );
#212 = DIRECTION( '', ( -0.000000000000000, 1.00000000000000, 0.000000000000000 ) );
#213 = DIRECTION( '', ( 0.000000000000000, 0.000000000000000, -1.00000000000000 ) );
#214 = SURFACE_STYLE_FILL_AREA( #305 );
#215 = ORIENTED_EDGE( '', *, *, #306, .F. );
#216 = ORIENTED_EDGE( '', *, *, #303, .T. );
#217 = CARTESIAN_POINT( '', ( -4.30000000000000, -2.60000000000000, 0.000000000000000 ) );
#218 = DIRECTION( '', ( -0.000000000000000, 1.00000000000000, 0.000000000000000 ) );
#219 = DIRECTION( '', ( 0.000000000000000, -0.000000000000000, 1.00000000000000 ) );
#220 = SURFACE_STYLE_FILL_AREA( #307 );
#221 = ORIENTED_EDGE( '', *, *, #308, .F. );
#222 = ORIENTED_EDGE( '', *, *, #309, .F. );
#223 = ORIENTED_EDGE( '', *, *, #310, .T. );
#224 = ORIENTED_EDGE( '', *, *, #311, .T. );
#225 = CARTESIAN_POINT( '', ( 6.50521303491303E-16, 3.00000000000000, 4.33680868994202E-16 ) );
#226 = DIRECTION( '', ( -0.000000000000000, 1.00000000000000, 0.000000000000000 ) );
#227 = DIRECTION( '', ( 0.000000000000000, 0.000000000000000, -1.00000000000000 ) );
#228 = SURFACE_STYLE_FILL_AREA( #312 );
#229 = ORIENTED_EDGE( '', *, *, #313, .F. );
#230 = ORIENTED_EDGE( '', *, *, #314, .F. );
#231 = ORIENTED_EDGE( '', *, *, #315, .F. );
#232 = ORIENTED_EDGE( '', *, *, #300, .T. );
#233 = CARTESIAN_POINT( '', ( 0.000000000000000, 0.500000000000000, 0.000000000000000 ) );
#234 = DIRECTION( '', ( -0.000000000000000, 1.00000000000000, 0.000000000000000 ) );
#235 = DIRECTION( '', ( 0.000000000000000, -0.000000000000000, 1.00000000000000 ) );
#236 = SURFACE_STYLE_FILL_AREA( #316 );
#237 = ORIENTED_EDGE( '', *, *, #306, .T. );
#238 = CARTESIAN_POINT( '', ( -3.80717967697245, -3.00000000000000, 0.000000000000000 ) );
#239 = DIRECTION( '', ( 0.000000000000000, 1.00000000000000, 0.000000000000000 ) );
#240 = DIRECTION( '', ( 0.000000000000000, -0.000000000000000, 1.00000000000000 ) );
#241 = SURFACE_STYLE_FILL_AREA( #317 );
#242 = ORIENTED_EDGE( '', *, *, #293, .T. );
#243 = ORIENTED_EDGE( '', *, *, #301, .T. );
#244 = ORIENTED_EDGE( '', *, *, #315, .T. );
#245 = ORIENTED_EDGE( '', *, *, #318, .F. );
#246 = ORIENTED_EDGE( '', *, *, #311, .F. );
#247 = ORIENTED_EDGE( '', *, *, #319, .T. );
#248 = CARTESIAN_POINT( '', ( -3.00000000000000, 3.00000000000000, 0.000000000000000 ) );
#249 = DIRECTION( '', ( 1.00000000000000, 0.000000000000000, 0.000000000000000 ) );
#250 = DIRECTION( '', ( 0.000000000000000, 0.000000000000000, -1.00000000000000 ) );
#251 = SURFACE_STYLE_FILL_AREA( #320 );
#252 = ORIENTED_EDGE( '', *, *, #291, .T. );
#253 = ORIENTED_EDGE( '', *, *, #321, .T. );
#254 = ORIENTED_EDGE( '', *, *, #309, .T. );
#255 = ORIENTED_EDGE( '', *, *, #322, .T. );
#256 = ORIENTED_EDGE( '', *, *, #313, .T. );
#257 = ORIENTED_EDGE( '', *, *, #299, .T. );
#258 = CARTESIAN_POINT( '', ( 3.00000000000000, 3.00000000000000, 12.0000000000000 ) );
#259 = DIRECTION( '', ( -1.00000000000000, 0.000000000000000, 0.000000000000000 ) );
#260 = DIRECTION( '', ( 0.000000000000000, 0.000000000000000, 1.00000000000000 ) );
#261 = SURFACE_STYLE_FILL_AREA( #323 );
#262 = ORIENTED_EDGE( '', *, *, #321, .F. );
#263 = ORIENTED_EDGE( '', *, *, #294, .F. );
#264 = ORIENTED_EDGE( '', *, *, #319, .F. );
#265 = ORIENTED_EDGE( '', *, *, #310, .F. );
#266 = CARTESIAN_POINT( '', ( 0.000000000000000, 3.00000000000000, 0.000000000000000 ) );
#267 = DIRECTION( '', ( 0.000000000000000, -1.00000000000000, -0.000000000000000 ) );
#268 = DIRECTION( '', ( 0.000000000000000, 0.000000000000000, -1.00000000000000 ) );
#269 = SURFACE_STYLE_FILL_AREA( #324 );
#270 = ORIENTED_EDGE( '', *, *, #322, .F. );
#271 = ORIENTED_EDGE( '', *, *, #308, .T. );
#272 = ORIENTED_EDGE( '', *, *, #318, .T. );
#273 = ORIENTED_EDGE( '', *, *, #314, .T. );
#274 = ORIENTED_EDGE( '', *, *, #297, .F. );
#275 = ORIENTED_EDGE( '', *, *, #304, .F. );
#276 = CARTESIAN_POINT( '', ( 10.5000000000000, 0.000000000000000, 0.000000000000000 ) );
#277 = DIRECTION( '', ( 0.000000000000000, 1.00000000000000, 0.000000000000000 ) );
#278 = DIRECTION( '', ( 0.000000000000000, -0.000000000000000, 1.00000000000000 ) );
#279 = SURFACE_STYLE_FILL_AREA( #325 );
#280 = ORIENTED_EDGE( '', *, *, #326, .F. );
#281 = ORIENTED_EDGE( '', *, *, #296, .T. );
#282 = CARTESIAN_POINT( '', ( 4.30000000000000, -2.60000000000000, 0.000000000000000 ) );
#283 = DIRECTION( '', ( -0.000000000000000, 1.00000000000000, 0.000000000000000 ) );
#284 = DIRECTION( '', ( 0.000000000000000, -0.000000000000000, 1.00000000000000 ) );
#285 = SURFACE_STYLE_FILL_AREA( #327 );
#286 = ORIENTED_EDGE( '', *, *, #326, .T. );
#287 = CARTESIAN_POINT( '', ( 4.79282032302755, -3.00000000000000, 0.000000000000000 ) );
#288 = DIRECTION( '', ( 0.000000000000000, 1.00000000000000, 0.000000000000000 ) );
#289 = DIRECTION( '', ( 0.000000000000000, -0.000000000000000, 1.00000000000000 ) );
#290 = FILL_AREA_STYLE( '', ( #328 ) );
#291 = EDGE_CURVE( '', #329, #330, #331, .T. );
#292 = EDGE_CURVE( '', #332, #329, #333, .T. );
#293 = EDGE_CURVE( '', #334, #332, #335, .T. );
#294 = EDGE_CURVE( '', #334, #330, #336, .T. );
#295 = FILL_AREA_STYLE( '', ( #337 ) );
#296 = EDGE_CURVE( '', #338, #338, #339, .T. );
#297 = EDGE_CURVE( '', #340, #340, #341, .F. );
#298 = FILL_AREA_STYLE( '', ( #342 ) );
#299 = EDGE_CURVE( '', #343, #329, #344, .F. );
#300 = EDGE_CURVE( '', #345, #343, #346, .T. );
#301 = EDGE_CURVE( '', #332, #345, #347, .T. );
#302 = FILL_AREA_STYLE( '', ( #348 ) );
#303 = EDGE_CURVE( '', #349, #349, #350, .T. );
#304 = EDGE_CURVE( '', #351, #351, #352, .F. );
#305 = FILL_AREA_STYLE( '', ( #353 ) );
#306 = EDGE_CURVE( '', #354, #354, #355, .T. );
#307 = FILL_AREA_STYLE( '', ( #356 ) );
#308 = EDGE_CURVE( '', #357, #358, #359, .T. );
#309 = EDGE_CURVE( '', #360, #357, #361, .T. );
#310 = EDGE_CURVE( '', #360, #362, #363, .T. );
#311 = EDGE_CURVE( '', #362, #358, #364, .T. );
#312 = FILL_AREA_STYLE( '', ( #365 ) );
#313 = EDGE_CURVE( '', #366, #343, #367, .T. );
#314 = EDGE_CURVE( '', #368, #366, #369, .T. );
#315 = EDGE_CURVE( '', #345, #368, #370, .T. );
#316 = FILL_AREA_STYLE( '', ( #371 ) );
#317 = FILL_AREA_STYLE( '', ( #372 ) );
#318 = EDGE_CURVE( '', #358, #368, #373, .T. );
#319 = EDGE_CURVE( '', #362, #334, #374, .T. );
#320 = FILL_AREA_STYLE( '', ( #375 ) );
#321 = EDGE_CURVE( '', #330, #360, #376, .T. );
#322 = EDGE_CURVE( '', #357, #366, #377, .T. );
#323 = FILL_AREA_STYLE( '', ( #378 ) );
#324 = FILL_AREA_STYLE( '', ( #379 ) );
#325 = FILL_AREA_STYLE( '', ( #380 ) );
#326 = EDGE_CURVE( '', #381, #381, #382, .T. );
#327 = FILL_AREA_STYLE( '', ( #383 ) );
#328 = FILL_AREA_STYLE_COLOUR( '', #384 );
#329 = VERTEX_POINT( '', #385 );
#330 = VERTEX_POINT( '', #386 );
#331 = B_SPLINE_CURVE_WITH_KNOTS( '', 3, ( #387, #388, #389, #390 ), .UNSPECIFIED., .F., .F., ( 4, 4 ), ( 0.0113201622662976, 0.0120420279058402 ), .UNSPECIFIED. );
#332 = VERTEX_POINT( '', #391 );
#333 = CIRCLE( '', #392, 11.0000000000000 );
#334 = VERTEX_POINT( '', #393 );
#335 = B_SPLINE_CURVE_WITH_KNOTS( '', 3, ( #394, #395, #396, #397 ), .UNSPECIFIED., .F., .F., ( 4, 4 ), ( 0.00635247935710278, 0.00707428330031708 ), .UNSPECIFIED. );
#336 = CIRCLE( '', #398, 10.5000000000000 );
#337 = FILL_AREA_STYLE_COLOUR( '', #399 );
#338 = VERTEX_POINT( '', #400 );
#339 = CIRCLE( '', #401, 0.600000000000000 );
#340 = VERTEX_POINT( '', #402 );
#341 = CIRCLE( '', #403, 0.600000000000000 );
#342 = FILL_AREA_STYLE_COLOUR( '', #404 );
#343 = VERTEX_POINT( '', #405 );
#344 = LINE( '', #406, #407 );
#345 = VERTEX_POINT( '', #408 );
#346 = CIRCLE( '', #409, 11.0000000000000 );
#347 = LINE( '', #410, #411 );
#348 = FILL_AREA_STYLE_COLOUR( '', #412 );
#349 = VERTEX_POINT( '', #413 );
#350 = CIRCLE( '', #414, 0.600000000000000 );
#351 = VERTEX_POINT( '', #415 );
#352 = CIRCLE( '', #416, 0.600000000000000 );
#353 = FILL_AREA_STYLE_COLOUR( '', #417 );
#354 = VERTEX_POINT( '', #418 );
#355 = CIRCLE( '', #419, 0.492820323000000 );
#356 = FILL_AREA_STYLE_COLOUR( '', #420 );
#357 = VERTEX_POINT( '', #421 );
#358 = VERTEX_POINT( '', #422 );
#359 = CIRCLE( '', #423, 3.00000000000000 );
#360 = VERTEX_POINT( '', #424 );
#361 = LINE( '', #425, #426 );
#362 = VERTEX_POINT( '', #427 );
#363 = CIRCLE( '', #428, 3.00000000000000 );
#364 = LINE( '', #429, #430 );
#365 = FILL_AREA_STYLE_COLOUR( '', #431 );
#366 = VERTEX_POINT( '', #432 );
#367 = B_SPLINE_CURVE_WITH_KNOTS( '', 3, ( #433, #434, #435, #436 ), .UNSPECIFIED., .F., .F., ( 4, 4 ), ( 0.00635247935710280, 0.00707428330031709 ), .UNSPECIFIED. );
#368 = VERTEX_POINT( '', #437 );
#369 = CIRCLE( '', #438, 10.5000000000000 );
#370 = B_SPLINE_CURVE_WITH_KNOTS( '', 3, ( #439, #440, #441, #442 ), .UNSPECIFIED., .F., .F., ( 4, 4 ), ( 0.0113201622662976, 0.0120420279058402 ), .UNSPECIFIED. );
#371 = FILL_AREA_STYLE_COLOUR( '', #443 );
#372 = FILL_AREA_STYLE_COLOUR( '', #444 );
#373 = LINE( '', #445, #446 );
#374 = LINE( '', #447, #448 );
#375 = FILL_AREA_STYLE_COLOUR( '', #449 );
#376 = LINE( '', #450, #451 );
#377 = LINE( '', #452, #453 );
#378 = FILL_AREA_STYLE_COLOUR( '', #454 );
#379 = FILL_AREA_STYLE_COLOUR( '', #455 );
#380 = FILL_AREA_STYLE_COLOUR( '', #456 );
#381 = VERTEX_POINT( '', #457 );
#382 = CIRCLE( '', #458, 0.492820323000000 );
#383 = FILL_AREA_STYLE_COLOUR( '', #459 );
#384 = COLOUR_RGB( '', 0.689999997600000, 0.689999997600000, 0.689999997600000 );
#385 = CARTESIAN_POINT( '', ( 3.00000000000000, 2.50000000000000, 10.5830052442584 ) );
#386 = CARTESIAN_POINT( '', ( 3.00000000000000, 3.00000000000000, 10.0623058987491 ) );
#387 = CARTESIAN_POINT( '', ( 3.00000000000000, 2.50000000000000, 10.5830052442584 ) );
#388 = CARTESIAN_POINT( '', ( 3.00000000000000, 2.66683169936582, 10.4095999920953 ) );
#389 = CARTESIAN_POINT( '', ( 3.00000000000000, 2.83350655414385, 10.2360415413622 ) );
#390 = CARTESIAN_POINT( '', ( 3.00000000000000, 3.00000000000000, 10.0623058987491 ) );
#391 = CARTESIAN_POINT( '', ( -3.00000000000000, 2.50000000000000, 10.5830052442584 ) );
#392 = AXIS2_PLACEMENT_3D( '', #460, #461, #462 );
#393 = CARTESIAN_POINT( '', ( -3.00000000000000, 3.00000000000000, 10.0623058987491 ) );
#394 = CARTESIAN_POINT( '', ( -3.00000000000000, 3.00000000000000, 10.0623058987491 ) );
#395 = CARTESIAN_POINT( '', ( -3.00000000000000, 2.83350655414385, 10.2360415413622 ) );
#396 = CARTESIAN_POINT( '', ( -3.00000000000000, 2.66683169936582, 10.4095999920953 ) );
#397 = CARTESIAN_POINT( '', ( -3.00000000000000, 2.50000000000000, 10.5830052442584 ) );
#398 = AXIS2_PLACEMENT_3D( '', #463, #464, #465 );
#399 = COLOUR_RGB( '', 0.689999997600000, 0.689999997600000, 0.689999997600000 );
#400 = CARTESIAN_POINT( '', ( 4.30000000000000, -2.60000000000000, -0.600000000000000 ) );
#401 = AXIS2_PLACEMENT_3D( '', #466, #467, #468 );
#402 = CARTESIAN_POINT( '', ( 4.30000000000000, 0.000000000000000, 0.600000000000000 ) );
#403 = AXIS2_PLACEMENT_3D( '', #469, #470, #471 );
#404 = COLOUR_RGB( '', 0.689999997600000, 0.689999997600000, 0.689999997600000 );
#405 = CARTESIAN_POINT( '', ( 3.00000000000000, 0.499999999999999, 10.5830052442584 ) );
#406 = CARTESIAN_POINT( '', ( 3.00000000000000, 0.000000000000000, 10.5830052442584 ) );
#407 = VECTOR( '', #472, 1000.00000000000 );
#408 = CARTESIAN_POINT( '', ( -3.00000000000000, 0.499999999999999, 10.5830052442584 ) );
#409 = AXIS2_PLACEMENT_3D( '', #473, #474, #475 );
#410 = CARTESIAN_POINT( '', ( -3.00000000000000, 0.000000000000000, 10.5830052442584 ) );
#411 = VECTOR( '', #476, 1000.00000000000 );
#412 = COLOUR_RGB( '', 0.689999997600000, 0.689999997600000, 0.689999997600000 );
#413 = CARTESIAN_POINT( '', ( -4.30000000000000, -2.60000000000000, -0.600000000000000 ) );
#414 = AXIS2_PLACEMENT_3D( '', #477, #478, #479 );
#415 = CARTESIAN_POINT( '', ( -4.30000000000000, 0.000000000000000, 0.600000000000000 ) );
#416 = AXIS2_PLACEMENT_3D( '', #480, #481, #482 );
#417 = COLOUR_RGB( '', 0.689999997600000, 0.689999997600000, 0.689999997600000 );
#418 = CARTESIAN_POINT( '', ( -4.30000000000000, -3.00000000000000, -0.492820323027551 ) );
#419 = AXIS2_PLACEMENT_3D( '', #483, #484, #485 );
#420 = COLOUR_RGB( '', 0.689999997600000, 0.689999997600000, 0.689999997600000 );
#421 = CARTESIAN_POINT( '', ( 3.00000000000000, 0.000000000000000, 0.000000000000000 ) );
#422 = CARTESIAN_POINT( '', ( -3.00000000000000, 0.000000000000000, 0.000000000000000 ) );
#423 = AXIS2_PLACEMENT_3D( '', #486, #487, #488 );
#424 = CARTESIAN_POINT( '', ( 3.00000000000000, 3.00000000000000, 0.000000000000000 ) );
#425 = CARTESIAN_POINT( '', ( 3.00000000000000, 3.00000000000000, 0.000000000000000 ) );
#426 = VECTOR( '', #489, 1000.00000000000 );
#427 = CARTESIAN_POINT( '', ( -3.00000000000000, 3.00000000000000, 0.000000000000000 ) );
#428 = AXIS2_PLACEMENT_3D( '', #490, #491, #492 );
#429 = CARTESIAN_POINT( '', ( -3.00000000000000, 3.00000000000000, 0.000000000000000 ) );
#430 = VECTOR( '', #493, 1000.00000000000 );
#431 = COLOUR_RGB( '', 0.689999997600000, 0.689999997600000, 0.689999997600000 );
#432 = CARTESIAN_POINT( '', ( 3.00000000000000, 0.000000000000000, 10.0623058987491 ) );
#433 = CARTESIAN_POINT( '', ( 3.00000000000000, 8.92203711828202E-16, 10.0623058987491 ) );
#434 = CARTESIAN_POINT( '', ( 3.00000000000000, 0.166493445856153, 10.2360415413622 ) );
#435 = CARTESIAN_POINT( '', ( 3.00000000000000, 0.333168300634180, 10.4095999920953 ) );
#436 = CARTESIAN_POINT( '', ( 3.00000000000000, 0.499999999999999, 10.5830052442584 ) );
#437 = CARTESIAN_POINT( '', ( -3.00000000000000, 0.000000000000000, 10.0623058987491 ) );
#438 = AXIS2_PLACEMENT_3D( '', #494, #495, #496 );
#439 = CARTESIAN_POINT( '', ( -3.00000000000000, 0.500000000000000, 10.5830052442584 ) );
#440 = CARTESIAN_POINT( '', ( -3.00000000000000, 0.333168300634181, 10.4095999920953 ) );
#441 = CARTESIAN_POINT( '', ( -3.00000000000000, 0.166493445856152, 10.2360415413622 ) );
#442 = CARTESIAN_POINT( '', ( -3.00000000000000, -5.81219745453793E-16, 10.0623058987491 ) );
#443 = COLOUR_RGB( '', 0.689999997600000, 0.689999997600000, 0.689999997600000 );
#444 = COLOUR_RGB( '', 0.689999997600000, 0.689999997600000, 0.689999997600000 );
#445 = CARTESIAN_POINT( '', ( -3.00000000000000, 0.000000000000000, 0.000000000000000 ) );
#446 = VECTOR( '', #497, 1000.00000000000 );
#447 = CARTESIAN_POINT( '', ( -3.00000000000000, 3.00000000000000, 0.000000000000000 ) );
#448 = VECTOR( '', #498, 1000.00000000000 );
#449 = COLOUR_RGB( '', 0.689999997600000, 0.689999997600000, 0.689999997600000 );
#450 = CARTESIAN_POINT( '', ( 3.00000000000000, 3.00000000000000, 12.0000000000000 ) );
#451 = VECTOR( '', #499, 1000.00000000000 );
#452 = CARTESIAN_POINT( '', ( 3.00000000000000, 0.000000000000000, 0.000000000000000 ) );
#453 = VECTOR( '', #500, 1000.00000000000 );
#454 = COLOUR_RGB( '', 0.689999997600000, 0.689999997600000, 0.689999997600000 );
#455 = COLOUR_RGB( '', 0.689999997600000, 0.689999997600000, 0.689999997600000 );
#456 = COLOUR_RGB( '', 0.689999997600000, 0.689999997600000, 0.689999997600000 );
#457 = CARTESIAN_POINT( '', ( 4.30000000000000, -3.00000000000000, -0.492820323027551 ) );
#458 = AXIS2_PLACEMENT_3D( '', #501, #502, #503 );
#459 = COLOUR_RGB( '', 0.689999997600000, 0.689999997600000, 0.689999997600000 );
#460 = CARTESIAN_POINT( '', ( 0.000000000000000, 2.50000000000000, 0.000000000000000 ) );
#461 = DIRECTION( '', ( 0.000000000000000, -1.00000000000000, -0.000000000000000 ) );
#462 = DIRECTION( '', ( 0.000000000000000, 0.000000000000000, -1.00000000000000 ) );
#463 = CARTESIAN_POINT( '', ( 0.000000000000000, 3.00000000000000, 0.000000000000000 ) );
#464 = DIRECTION( '', ( 0.000000000000000, -1.00000000000000, -0.000000000000000 ) );
#465 = DIRECTION( '', ( 0.000000000000000, 0.000000000000000, -1.00000000000000 ) );
#466 = CARTESIAN_POINT( '', ( 4.30000000000000, -2.60000000000000, 0.000000000000000 ) );
#467 = DIRECTION( '', ( 0.000000000000000, -1.00000000000000, -0.000000000000000 ) );
#468 = DIRECTION( '', ( 0.000000000000000, 0.000000000000000, -1.00000000000000 ) );
#469 = CARTESIAN_POINT( '', ( 4.30000000000000, 0.000000000000000, 0.000000000000000 ) );
#470 = DIRECTION( '', ( 0.000000000000000, 1.00000000000000, 0.000000000000000 ) );
#471 = DIRECTION( '', ( 0.000000000000000, -0.000000000000000, 1.00000000000000 ) );
#472 = DIRECTION( '', ( -0.000000000000000, -1.00000000000000, -0.000000000000000 ) );
#473 = CARTESIAN_POINT( '', ( 0.000000000000000, 0.500000000000000, 0.000000000000000 ) );
#474 = DIRECTION( '', ( 0.000000000000000, -1.00000000000000, -0.000000000000000 ) );
#475 = DIRECTION( '', ( 0.000000000000000, 0.000000000000000, -1.00000000000000 ) );
#476 = DIRECTION( '', ( -0.000000000000000, -1.00000000000000, -0.000000000000000 ) );
#477 = CARTESIAN_POINT( '', ( -4.30000000000000, -2.60000000000000, 0.000000000000000 ) );
#478 = DIRECTION( '', ( 0.000000000000000, -1.00000000000000, -0.000000000000000 ) );
#479 = DIRECTION( '', ( 0.000000000000000, 0.000000000000000, -1.00000000000000 ) );
#480 = CARTESIAN_POINT( '', ( -4.30000000000000, 0.000000000000000, 0.000000000000000 ) );
#481 = DIRECTION( '', ( 0.000000000000000, 1.00000000000000, 0.000000000000000 ) );
#482 = DIRECTION( '', ( 0.000000000000000, -0.000000000000000, 1.00000000000000 ) );
#483 = CARTESIAN_POINT( '', ( -4.30000000000000, -3.00000000000000, 0.000000000000000 ) );
#484 = DIRECTION( '', ( 0.000000000000000, -1.00000000000000, -0.000000000000000 ) );
#485 = DIRECTION( '', ( 0.000000000000000, 0.000000000000000, -1.00000000000000 ) );
#486 = CARTESIAN_POINT( '', ( 6.50521303491303E-16, 0.000000000000000, 4.33680868994202E-16 ) );
#487 = DIRECTION( '', ( -0.000000000000000, 1.00000000000000, 0.000000000000000 ) );
#488 = DIRECTION( '', ( 1.00000000000000, 0.000000000000000, 0.000000000000000 ) );
#489 = DIRECTION( '', ( -0.000000000000000, -1.00000000000000, -0.000000000000000 ) );
#490 = CARTESIAN_POINT( '', ( -4.33680868994202E-16, 3.00000000000000, 6.50521303491303E-16 ) );
#491 = DIRECTION( '', ( -0.000000000000000, 1.00000000000000, 0.000000000000000 ) );
#492 = DIRECTION( '', ( 1.00000000000000, 0.000000000000000, 0.000000000000000 ) );
#493 = DIRECTION( '', ( -0.000000000000000, -1.00000000000000, -0.000000000000000 ) );
#494 = CARTESIAN_POINT( '', ( 0.000000000000000, 0.000000000000000, 0.000000000000000 ) );
#495 = DIRECTION( '', ( 0.000000000000000, -1.00000000000000, -0.000000000000000 ) );
#496 = DIRECTION( '', ( 0.000000000000000, 0.000000000000000, -1.00000000000000 ) );
#497 = DIRECTION( '', ( 0.000000000000000, 0.000000000000000, 1.00000000000000 ) );
#498 = DIRECTION( '', ( 0.000000000000000, 0.000000000000000, 1.00000000000000 ) );
#499 = DIRECTION( '', ( 0.000000000000000, 0.000000000000000, -1.00000000000000 ) );
#500 = DIRECTION( '', ( 0.000000000000000, -0.000000000000000, 1.00000000000000 ) );
#501 = CARTESIAN_POINT( '', ( 4.30000000000000, -3.00000000000000, 0.000000000000000 ) );
#502 = DIRECTION( '', ( 0.000000000000000, -1.00000000000000, -0.000000000000000 ) );
#503 = DIRECTION( '', ( 0.000000000000000, 0.000000000000000, -1.00000000000000 ) );
ENDSEC;
END-ISO-10303-21;
