ISO-10303-21;
HEADER;
FILE_DESCRIPTION( ( 'STEP AP214' ), '1' );
FILE_NAME( '//goodhand-server/Shared Folders/GoodHand Data/Kipp CAD/K0163/K0163.1160X16.stp', '2020-11-26T10:29:50', ( '' ), ( '' ), ' ', 'PARTsolutions', ' ' );
FILE_SCHEMA( ( 'AUTOMOTIVE_DESIGN { 1 0 10303 214 1 1 1 1 }' ) );
ENDSEC;
DATA;
#1 = MECHANICAL_DESIGN_GEOMETRIC_PRESENTATION_REPRESENTATION( ' ', ( #10, #11, #12, #13, #14, #15, #16, #17, #18, #19, #20, #21, #22, #23, #24 ), #6 );
#2 = PRODUCT_DEFINITION_CONTEXT( '', #25, 'design' );
#3 = APPLICATION_PROTOCOL_DEFINITION( 'international standard', 'automotive_design', 2001, #25 );
#4 = PRODUCT_CATEGORY_RELATIONSHIP( 'NONE', 'NONE', #26, #27 );
#5 = SHAPE_DEFINITION_REPRESENTATION( #28, #29 );
#6 =  ( GEOMETRIC_REPRESENTATION_CONTEXT( 3 )GLOBAL_UNCERTAINTY_ASSIGNED_CONTEXT( ( #32 ) )GLOBAL_UNIT_ASSIGNED_CONTEXT( ( #34, #35, #36 ) )REPRESENTATION_CONTEXT( 'NONE', 'WORKSPACE' ) );
#10 = STYLED_ITEM( '', ( #38 ), #39 );
#11 = STYLED_ITEM( '', ( #40 ), #41 );
#12 = STYLED_ITEM( '', ( #42 ), #43 );
#13 = STYLED_ITEM( '', ( #44 ), #45 );
#14 = STYLED_ITEM( '', ( #46 ), #47 );
#15 = STYLED_ITEM( '', ( #48 ), #49 );
#16 = STYLED_ITEM( '', ( #50 ), #51 );
#17 = STYLED_ITEM( '', ( #52 ), #53 );
#18 = STYLED_ITEM( '', ( #54 ), #55 );
#19 = STYLED_ITEM( '', ( #56 ), #57 );
#20 = STYLED_ITEM( '', ( #58 ), #59 );
#21 = STYLED_ITEM( '', ( #60 ), #61 );
#22 = STYLED_ITEM( '', ( #62 ), #63 );
#23 = STYLED_ITEM( '', ( #64 ), #65 );
#24 = STYLED_ITEM( '', ( #66 ), #67 );
#25 = APPLICATION_CONTEXT( 'core data for automotive mechanical design processes' );
#26 = PRODUCT_CATEGORY( 'part', 'NONE' );
#27 = PRODUCT_RELATED_PRODUCT_CATEGORY( 'detail', ' ', ( #68 ) );
#28 = PRODUCT_DEFINITION_SHAPE( 'NONE', 'NONE', #69 );
#29 = ADVANCED_BREP_SHAPE_REPRESENTATION( '_K0163.1160X16', ( #70, #71 ), #6 );
#32 = UNCERTAINTY_MEASURE_WITH_UNIT( LENGTH_MEASURE( 0.00100000000000000 ), #34, '', '' );
#34 =  ( CONVERSION_BASED_UNIT( 'MILLIMETRE', #74 )LENGTH_UNIT(  )NAMED_UNIT( #77 ) );
#35 =  ( NAMED_UNIT( #79 )PLANE_ANGLE_UNIT(  )SI_UNIT( $, .RADIAN. ) );
#36 =  ( NAMED_UNIT( #79 )SI_UNIT( $, .STERADIAN. )SOLID_ANGLE_UNIT(  ) );
#38 = PRESENTATION_STYLE_ASSIGNMENT( ( #85 ) );
#39 = ADVANCED_FACE( '', ( #86, #87 ), #88, .T. );
#40 = PRESENTATION_STYLE_ASSIGNMENT( ( #89 ) );
#41 = ADVANCED_FACE( '', ( #90, #91 ), #92, .T. );
#42 = PRESENTATION_STYLE_ASSIGNMENT( ( #93 ) );
#43 = ADVANCED_FACE( '', ( #94, #95 ), #96, .F. );
#44 = PRESENTATION_STYLE_ASSIGNMENT( ( #97 ) );
#45 = ADVANCED_FACE( '', ( #98, #99 ), #100, .F. );
#46 = PRESENTATION_STYLE_ASSIGNMENT( ( #101 ) );
#47 = ADVANCED_FACE( '', ( #102 ), #103, .F. );
#48 = PRESENTATION_STYLE_ASSIGNMENT( ( #104 ) );
#49 = ADVANCED_FACE( '', ( #105, #106 ), #107, .F. );
#50 = PRESENTATION_STYLE_ASSIGNMENT( ( #108 ) );
#51 = ADVANCED_FACE( '', ( #109, #110 ), #111, .F. );
#52 = PRESENTATION_STYLE_ASSIGNMENT( ( #112 ) );
#53 = ADVANCED_FACE( '', ( #113, #114 ), #115, .F. );
#54 = PRESENTATION_STYLE_ASSIGNMENT( ( #116 ) );
#55 = ADVANCED_FACE( '', ( #117, #118 ), #119, .T. );
#56 = PRESENTATION_STYLE_ASSIGNMENT( ( #120 ) );
#57 = ADVANCED_FACE( '', ( #121, #122, #123 ), #124, .T. );
#58 = PRESENTATION_STYLE_ASSIGNMENT( ( #125 ) );
#59 = ADVANCED_FACE( '', ( #126, #127 ), #128, .T. );
#60 = PRESENTATION_STYLE_ASSIGNMENT( ( #129 ) );
#61 = ADVANCED_FACE( '', ( #130, #131 ), #132, .F. );
#62 = PRESENTATION_STYLE_ASSIGNMENT( ( #133 ) );
#63 = ADVANCED_FACE( '', ( #134 ), #135, .T. );
#64 = PRESENTATION_STYLE_ASSIGNMENT( ( #136 ) );
#65 = ADVANCED_FACE( '', ( #137 ), #138, .T. );
#66 = PRESENTATION_STYLE_ASSIGNMENT( ( #139 ) );
#67 = ADVANCED_FACE( '', ( #140 ), #141, .T. );
#68 = PRODUCT( '_K0163.1160X16', '_K0163.1160X16', 'PART-_K0163.1160X16-DESC', ( #142 ) );
#69 = PRODUCT_DEFINITION( 'NONE', 'NONE', #143, #2 );
#70 = MANIFOLD_SOLID_BREP( '_K0163.1160X16', #144 );
#71 = AXIS2_PLACEMENT_3D( '', #145, #146, #147 );
#74 = LENGTH_MEASURE_WITH_UNIT( LENGTH_MEASURE( 1.00000000000000 ), #148 );
#77 = DIMENSIONAL_EXPONENTS( 1.00000000000000, 0.000000000000000, 0.000000000000000, 0.000000000000000, 0.000000000000000, 0.000000000000000, 0.000000000000000 );
#79 = DIMENSIONAL_EXPONENTS( 0.000000000000000, 0.000000000000000, 0.000000000000000, 0.000000000000000, 0.000000000000000, 0.000000000000000, 0.000000000000000 );
#85 = SURFACE_STYLE_USAGE( .BOTH., #149 );
#86 = FACE_OUTER_BOUND( '', #150, .T. );
#87 = FACE_OUTER_BOUND( '', #151, .T. );
#88 = TOROIDAL_SURFACE( '', #152, 71.1197203534000, 12.0000000000000 );
#89 = SURFACE_STYLE_USAGE( .BOTH., #153 );
#90 = FACE_OUTER_BOUND( '', #154, .T. );
#91 = FACE_OUTER_BOUND( '', #155, .T. );
#92 = CYLINDRICAL_SURFACE( '', #156, 17.0000000000000 );
#93 = SURFACE_STYLE_USAGE( .BOTH., #157 );
#94 = FACE_BOUND( '', #158, .T. );
#95 = FACE_OUTER_BOUND( '', #159, .T. );
#96 = CONICAL_SURFACE( '', #160, 69.5000000000000, 0.789051152000000 );
#97 = SURFACE_STYLE_USAGE( .BOTH., #161 );
#98 = FACE_OUTER_BOUND( '', #162, .T. );
#99 = FACE_BOUND( '', #163, .T. );
#100 = CONICAL_SURFACE( '', #164, 69.0000000000000, 0.380576053200000 );
#101 = SURFACE_STYLE_USAGE( .BOTH., #165 );
#102 = FACE_OUTER_BOUND( '', #166, .T. );
#103 = CYLINDRICAL_SURFACE( '', #167, 8.00000000000000 );
#104 = SURFACE_STYLE_USAGE( .BOTH., #168 );
#105 = FACE_BOUND( '', #169, .T. );
#106 = FACE_OUTER_BOUND( '', #170, .T. );
#107 = CONICAL_SURFACE( '', #171, 67.0000000000000, 1.32581766370000 );
#108 = SURFACE_STYLE_USAGE( .BOTH., #172 );
#109 = FACE_OUTER_BOUND( '', #173, .T. );
#110 = FACE_BOUND( '', #174, .T. );
#111 = PLANE( '', #175 );
#112 = SURFACE_STYLE_USAGE( .BOTH., #176 );
#113 = FACE_OUTER_BOUND( '', #177, .T. );
#114 = FACE_BOUND( '', #178, .T. );
#115 = CONICAL_SURFACE( '', #179, 17.0000000000000, 1.26235963180000 );
#116 = SURFACE_STYLE_USAGE( .BOTH., #180 );
#117 = FACE_OUTER_BOUND( '', #181, .T. );
#118 = FACE_OUTER_BOUND( '', #182, .T. );
#119 = CYLINDRICAL_SURFACE( '', #183, 17.0000000000000 );
#120 = SURFACE_STYLE_USAGE( .BOTH., #184 );
#121 = FACE_BOUND( '', #185, .T. );
#122 = FACE_OUTER_BOUND( '', #186, .T. );
#123 = FACE_OUTER_BOUND( '', #187, .T. );
#124 = TOROIDAL_SURFACE( '', #188, 70.1000000000000, 9.90000000000000 );
#125 = SURFACE_STYLE_USAGE( .BOTH., #189 );
#126 = FACE_BOUND( '', #190, .T. );
#127 = FACE_OUTER_BOUND( '', #191, .T. );
#128 = CONICAL_SURFACE( '', #192, 61.0000000000000, 1.20804656790000 );
#129 = SURFACE_STYLE_USAGE( .BOTH., #193 );
#130 = FACE_BOUND( '', #194, .T. );
#131 = FACE_OUTER_BOUND( '', #195, .T. );
#132 = PLANE( '', #196 );
#133 = SURFACE_STYLE_USAGE( .BOTH., #197 );
#134 = FACE_OUTER_BOUND( '', #198, .T. );
#135 = PLANE( '', #199 );
#136 = SURFACE_STYLE_USAGE( .BOTH., #200 );
#137 = FACE_OUTER_BOUND( '', #201, .T. );
#138 = PLANE( '', #202 );
#139 = SURFACE_STYLE_USAGE( .BOTH., #203 );
#140 = FACE_OUTER_BOUND( '', #204, .T. );
#141 = PLANE( '', #205 );
#142 = PRODUCT_CONTEXT( '', #25, 'mechanical' );
#143 = PRODUCT_DEFINITION_FORMATION_WITH_SPECIFIED_SOURCE( ' ', 'NONE', #68, .NOT_KNOWN. );
#144 = CLOSED_SHELL( '', ( #51, #67, #63, #47, #65, #61, #55, #59, #49, #43, #57, #45, #39, #53, #41 ) );
#145 = CARTESIAN_POINT( '', ( 0.000000000000000, 0.000000000000000, 0.000000000000000 ) );
#146 = DIRECTION( '', ( 0.000000000000000, 0.000000000000000, 1.00000000000000 ) );
#147 = DIRECTION( '', ( 1.00000000000000, 0.000000000000000, 0.000000000000000 ) );
#148 =  ( LENGTH_UNIT(  )NAMED_UNIT( #77 )SI_UNIT( .MILLI., .METRE. ) );
#149 = SURFACE_SIDE_STYLE( '', ( #207 ) );
#150 = EDGE_LOOP( '', ( #208 ) );
#151 = EDGE_LOOP( '', ( #209 ) );
#152 = AXIS2_PLACEMENT_3D( '', #210, #211, #212 );
#153 = SURFACE_SIDE_STYLE( '', ( #213 ) );
#154 = EDGE_LOOP( '', ( #214 ) );
#155 = EDGE_LOOP( '', ( #215 ) );
#156 = AXIS2_PLACEMENT_3D( '', #216, #217, #218 );
#157 = SURFACE_SIDE_STYLE( '', ( #219 ) );
#158 = EDGE_LOOP( '', ( #220 ) );
#159 = EDGE_LOOP( '', ( #221 ) );
#160 = AXIS2_PLACEMENT_3D( '', #222, #223, #224 );
#161 = SURFACE_SIDE_STYLE( '', ( #225 ) );
#162 = EDGE_LOOP( '', ( #226 ) );
#163 = EDGE_LOOP( '', ( #227 ) );
#164 = AXIS2_PLACEMENT_3D( '', #228, #229, #230 );
#165 = SURFACE_SIDE_STYLE( '', ( #231 ) );
#166 = EDGE_LOOP( '', ( #232, #233, #234, #235 ) );
#167 = AXIS2_PLACEMENT_3D( '', #236, #237, #238 );
#168 = SURFACE_SIDE_STYLE( '', ( #239 ) );
#169 = EDGE_LOOP( '', ( #240 ) );
#170 = EDGE_LOOP( '', ( #241 ) );
#171 = AXIS2_PLACEMENT_3D( '', #242, #243, #244 );
#172 = SURFACE_SIDE_STYLE( '', ( #245 ) );
#173 = EDGE_LOOP( '', ( #246 ) );
#174 = EDGE_LOOP( '', ( #247, #248, #249, #250 ) );
#175 = AXIS2_PLACEMENT_3D( '', #251, #252, #253 );
#176 = SURFACE_SIDE_STYLE( '', ( #254 ) );
#177 = EDGE_LOOP( '', ( #255 ) );
#178 = EDGE_LOOP( '', ( #256 ) );
#179 = AXIS2_PLACEMENT_3D( '', #257, #258, #259 );
#180 = SURFACE_SIDE_STYLE( '', ( #260 ) );
#181 = EDGE_LOOP( '', ( #261 ) );
#182 = EDGE_LOOP( '', ( #262 ) );
#183 = AXIS2_PLACEMENT_3D( '', #263, #264, #265 );
#184 = SURFACE_SIDE_STYLE( '', ( #266 ) );
#185 = VERTEX_LOOP( '', #267 );
#186 = EDGE_LOOP( '', ( #268 ) );
#187 = EDGE_LOOP( '', ( #269 ) );
#188 = AXIS2_PLACEMENT_3D( '', #270, #271, #272 );
#189 = SURFACE_SIDE_STYLE( '', ( #273 ) );
#190 = EDGE_LOOP( '', ( #274 ) );
#191 = EDGE_LOOP( '', ( #275 ) );
#192 = AXIS2_PLACEMENT_3D( '', #276, #277, #278 );
#193 = SURFACE_SIDE_STYLE( '', ( #279 ) );
#194 = EDGE_LOOP( '', ( #280, #281, #282, #283 ) );
#195 = EDGE_LOOP( '', ( #284 ) );
#196 = AXIS2_PLACEMENT_3D( '', #285, #286, #287 );
#197 = SURFACE_SIDE_STYLE( '', ( #288 ) );
#198 = EDGE_LOOP( '', ( #289, #290, #291, #292 ) );
#199 = AXIS2_PLACEMENT_3D( '', #293, #294, #295 );
#200 = SURFACE_SIDE_STYLE( '', ( #296 ) );
#201 = EDGE_LOOP( '', ( #297, #298, #299, #300 ) );
#202 = AXIS2_PLACEMENT_3D( '', #301, #302, #303 );
#203 = SURFACE_SIDE_STYLE( '', ( #304 ) );
#204 = EDGE_LOOP( '', ( #305, #306, #307, #308 ) );
#205 = AXIS2_PLACEMENT_3D( '', #309, #310, #311 );
#207 = SURFACE_STYLE_FILL_AREA( #312 );
#208 = ORIENTED_EDGE( '', *, *, #313, .T. );
#209 = ORIENTED_EDGE( '', *, *, #314, .F. );
#210 = CARTESIAN_POINT( '', ( 25.6887009341358, 0.000000000000000, 0.000000000000000 ) );
#211 = DIRECTION( '', ( -1.00000000000000, 0.000000000000000, 0.000000000000000 ) );
#212 = DIRECTION( '', ( 0.000000000000000, 0.000000000000000, 1.00000000000000 ) );
#213 = SURFACE_STYLE_FILL_AREA( #315 );
#214 = ORIENTED_EDGE( '', *, *, #316, .F. );
#215 = ORIENTED_EDGE( '', *, *, #317, .T. );
#216 = CARTESIAN_POINT( '', ( 0.000000000000000, 0.000000000000000, 0.000000000000000 ) );
#217 = DIRECTION( '', ( 1.00000000000000, -0.000000000000000, -0.000000000000000 ) );
#218 = DIRECTION( '', ( 0.000000000000000, 0.000000000000000, 1.00000000000000 ) );
#219 = SURFACE_STYLE_FILL_AREA( #318 );
#220 = ORIENTED_EDGE( '', *, *, #319, .F. );
#221 = ORIENTED_EDGE( '', *, *, #320, .T. );
#222 = CARTESIAN_POINT( '', ( 20.2181985447996, 0.000000000000000, 0.000000000000000 ) );
#223 = DIRECTION( '', ( -1.00000000000000, -0.000000000000000, -0.000000000000000 ) );
#224 = DIRECTION( '', ( 0.000000000000000, 0.000000000000000, 1.00000000000000 ) );
#225 = SURFACE_STYLE_FILL_AREA( #321 );
#226 = ORIENTED_EDGE( '', *, *, #322, .F. );
#227 = ORIENTED_EDGE( '', *, *, #314, .T. );
#228 = CARTESIAN_POINT( '', ( 37.5000000000000, 0.000000000000000, 0.000000000000000 ) );
#229 = DIRECTION( '', ( 1.00000000000000, -0.000000000000000, 0.000000000000000 ) );
#230 = DIRECTION( '', ( 0.000000000000000, 0.000000000000000, -1.00000000000000 ) );
#231 = SURFACE_STYLE_FILL_AREA( #323 );
#232 = ORIENTED_EDGE( '', *, *, #324, .T. );
#233 = ORIENTED_EDGE( '', *, *, #325, .T. );
#234 = ORIENTED_EDGE( '', *, *, #326, .T. );
#235 = ORIENTED_EDGE( '', *, *, #327, .F. );
#236 = CARTESIAN_POINT( '', ( 30.0000000000000, -4.87890977618477E-16, -2.81892564846231E-15 ) );
#237 = DIRECTION( '', ( 1.00000000000000, -0.000000000000000, -0.000000000000000 ) );
#238 = DIRECTION( '', ( 0.000000000000000, 0.000000000000000, 1.00000000000000 ) );
#239 = SURFACE_STYLE_FILL_AREA( #328 );
#240 = ORIENTED_EDGE( '', *, *, #329, .F. );
#241 = ORIENTED_EDGE( '', *, *, #319, .T. );
#242 = CARTESIAN_POINT( '', ( 22.7000000000000, 0.000000000000000, 0.000000000000000 ) );
#243 = DIRECTION( '', ( -1.00000000000000, -0.000000000000000, -0.000000000000000 ) );
#244 = DIRECTION( '', ( 0.000000000000000, 0.000000000000000, 1.00000000000000 ) );
#245 = SURFACE_STYLE_FILL_AREA( #330 );
#246 = ORIENTED_EDGE( '', *, *, #317, .F. );
#247 = ORIENTED_EDGE( '', *, *, #331, .F. );
#248 = ORIENTED_EDGE( '', *, *, #332, .F. );
#249 = ORIENTED_EDGE( '', *, *, #333, .F. );
#250 = ORIENTED_EDGE( '', *, *, #324, .F. );
#251 = CARTESIAN_POINT( '', ( 20.0000000000000, 0.000000000000000, 0.000000000000000 ) );
#252 = DIRECTION( '', ( -1.00000000000000, 0.000000000000000, 0.000000000000000 ) );
#253 = DIRECTION( '', ( 0.000000000000000, 0.000000000000000, 1.00000000000000 ) );
#254 = SURFACE_STYLE_FILL_AREA( #334 );
#255 = ORIENTED_EDGE( '', *, *, #313, .F. );
#256 = ORIENTED_EDGE( '', *, *, #316, .T. );
#257 = CARTESIAN_POINT( '', ( 16.5000000000000, 0.000000000000000, 0.000000000000000 ) );
#258 = DIRECTION( '', ( 1.00000000000000, -0.000000000000000, 0.000000000000000 ) );
#259 = DIRECTION( '', ( 0.000000000000000, 0.000000000000000, -1.00000000000000 ) );
#260 = SURFACE_STYLE_FILL_AREA( #335 );
#261 = ORIENTED_EDGE( '', *, *, #336, .F. );
#262 = ORIENTED_EDGE( '', *, *, #337, .T. );
#263 = CARTESIAN_POINT( '', ( 0.000000000000000, 0.000000000000000, 0.000000000000000 ) );
#264 = DIRECTION( '', ( 1.00000000000000, -0.000000000000000, -0.000000000000000 ) );
#265 = DIRECTION( '', ( 0.000000000000000, 0.000000000000000, 1.00000000000000 ) );
#266 = SURFACE_STYLE_FILL_AREA( #338 );
#267 = VERTEX_POINT( '', #339 );
#268 = ORIENTED_EDGE( '', *, *, #322, .T. );
#269 = ORIENTED_EDGE( '', *, *, #320, .F. );
#270 = CARTESIAN_POINT( '', ( 30.1000000000000, 0.000000000000000, 0.000000000000000 ) );
#271 = DIRECTION( '', ( -1.00000000000000, 0.000000000000000, 0.000000000000000 ) );
#272 = DIRECTION( '', ( 0.000000000000000, 0.000000000000000, 1.00000000000000 ) );
#273 = SURFACE_STYLE_FILL_AREA( #340 );
#274 = ORIENTED_EDGE( '', *, *, #337, .F. );
#275 = ORIENTED_EDGE( '', *, *, #329, .T. );
#276 = CARTESIAN_POINT( '', ( 24.2000000000000, 0.000000000000000, 0.000000000000000 ) );
#277 = DIRECTION( '', ( 1.00000000000000, -0.000000000000000, 0.000000000000000 ) );
#278 = DIRECTION( '', ( 0.000000000000000, 0.000000000000000, -1.00000000000000 ) );
#279 = SURFACE_STYLE_FILL_AREA( #341 );
#280 = ORIENTED_EDGE( '', *, *, #342, .T. );
#281 = ORIENTED_EDGE( '', *, *, #326, .F. );
#282 = ORIENTED_EDGE( '', *, *, #343, .T. );
#283 = ORIENTED_EDGE( '', *, *, #344, .T. );
#284 = ORIENTED_EDGE( '', *, *, #336, .T. );
#285 = CARTESIAN_POINT( '', ( 0.000000000000000, -17.0000000000000, 0.000000000000000 ) );
#286 = DIRECTION( '', ( 1.00000000000000, 0.000000000000000, 0.000000000000000 ) );
#287 = DIRECTION( '', ( 0.000000000000000, 0.000000000000000, -1.00000000000000 ) );
#288 = SURFACE_STYLE_FILL_AREA( #345 );
#289 = ORIENTED_EDGE( '', *, *, #333, .T. );
#290 = ORIENTED_EDGE( '', *, *, #346, .T. );
#291 = ORIENTED_EDGE( '', *, *, #343, .F. );
#292 = ORIENTED_EDGE( '', *, *, #325, .F. );
#293 = CARTESIAN_POINT( '', ( 30.0000000000000, 7.59934207678533, -2.50000000000000 ) );
#294 = DIRECTION( '', ( 0.000000000000000, -2.56933462185676E-15, 1.00000000000000 ) );
#295 = DIRECTION( '', ( 0.000000000000000, -1.00000000000000, -2.56933462185676E-15 ) );
#296 = SURFACE_STYLE_FILL_AREA( #347 );
#297 = ORIENTED_EDGE( '', *, *, #331, .T. );
#298 = ORIENTED_EDGE( '', *, *, #327, .T. );
#299 = ORIENTED_EDGE( '', *, *, #342, .F. );
#300 = ORIENTED_EDGE( '', *, *, #348, .F. );
#301 = CARTESIAN_POINT( '', ( 30.0000000000000, 10.3000000000000, 2.50000000000000 ) );
#302 = DIRECTION( '', ( 0.000000000000000, 0.000000000000000, -1.00000000000000 ) );
#303 = DIRECTION( '', ( -1.00000000000000, 0.000000000000000, 0.000000000000000 ) );
#304 = SURFACE_STYLE_FILL_AREA( #349 );
#305 = ORIENTED_EDGE( '', *, *, #332, .T. );
#306 = ORIENTED_EDGE( '', *, *, #348, .T. );
#307 = ORIENTED_EDGE( '', *, *, #344, .F. );
#308 = ORIENTED_EDGE( '', *, *, #346, .F. );
#309 = CARTESIAN_POINT( '', ( 30.0000000000000, 10.3000000000000, -2.49999999999999 ) );
#310 = DIRECTION( '', ( 0.000000000000000, -1.00000000000000, 0.000000000000000 ) );
#311 = DIRECTION( '', ( 0.000000000000000, 0.000000000000000, -1.00000000000000 ) );
#312 = FILL_AREA_STYLE( '', ( #350 ) );
#313 = EDGE_CURVE( '', #351, #351, #352, .T. );
#314 = EDGE_CURVE( '', #353, #353, #354, .T. );
#315 = FILL_AREA_STYLE( '', ( #355 ) );
#316 = EDGE_CURVE( '', #356, #356, #357, .T. );
#317 = EDGE_CURVE( '', #358, #358, #359, .T. );
#318 = FILL_AREA_STYLE( '', ( #360 ) );
#319 = EDGE_CURVE( '', #361, #361, #362, .T. );
#320 = EDGE_CURVE( '', #363, #363, #364, .T. );
#321 = FILL_AREA_STYLE( '', ( #365 ) );
#322 = EDGE_CURVE( '', #366, #366, #367, .T. );
#323 = FILL_AREA_STYLE( '', ( #368 ) );
#324 = EDGE_CURVE( '', #369, #370, #371, .F. );
#325 = EDGE_CURVE( '', #370, #372, #373, .T. );
#326 = EDGE_CURVE( '', #372, #374, #375, .F. );
#327 = EDGE_CURVE( '', #369, #374, #376, .T. );
#328 = FILL_AREA_STYLE( '', ( #377 ) );
#329 = EDGE_CURVE( '', #378, #378, #379, .T. );
#330 = FILL_AREA_STYLE( '', ( #380 ) );
#331 = EDGE_CURVE( '', #381, #369, #382, .T. );
#332 = EDGE_CURVE( '', #383, #381, #384, .T. );
#333 = EDGE_CURVE( '', #370, #383, #385, .T. );
#334 = FILL_AREA_STYLE( '', ( #386 ) );
#335 = FILL_AREA_STYLE( '', ( #387 ) );
#336 = EDGE_CURVE( '', #388, #388, #389, .T. );
#337 = EDGE_CURVE( '', #390, #390, #391, .T. );
#338 = FILL_AREA_STYLE( '', ( #392 ) );
#339 = CARTESIAN_POINT( '', ( 30.1000000000000, 0.000000000000000, 80.0000000000000 ) );
#340 = FILL_AREA_STYLE( '', ( #393 ) );
#341 = FILL_AREA_STYLE( '', ( #394 ) );
#342 = EDGE_CURVE( '', #395, #374, #396, .T. );
#343 = EDGE_CURVE( '', #372, #397, #398, .T. );
#344 = EDGE_CURVE( '', #397, #395, #399, .T. );
#345 = FILL_AREA_STYLE( '', ( #400 ) );
#346 = EDGE_CURVE( '', #383, #397, #401, .T. );
#347 = FILL_AREA_STYLE( '', ( #402 ) );
#348 = EDGE_CURVE( '', #381, #395, #403, .T. );
#349 = FILL_AREA_STYLE( '', ( #404 ) );
#350 = FILL_AREA_STYLE_COLOUR( '', #405 );
#351 = VERTEX_POINT( '', #406 );
#352 = CIRCLE( '', #407, 60.0000000000000 );
#353 = VERTEX_POINT( '', #408 );
#354 = CIRCLE( '', #409, 69.0000000000000 );
#355 = FILL_AREA_STYLE_COLOUR( '', #410 );
#356 = VERTEX_POINT( '', #411 );
#357 = CIRCLE( '', #412, 17.0000000000000 );
#358 = VERTEX_POINT( '', #413 );
#359 = CIRCLE( '', #414, 17.0000000000000 );
#360 = FILL_AREA_STYLE_COLOUR( '', #415 );
#361 = VERTEX_POINT( '', #416 );
#362 = CIRCLE( '', #417, 67.0000000000000 );
#363 = VERTEX_POINT( '', #418 );
#364 = CIRCLE( '', #419, 69.5000000000000 );
#365 = FILL_AREA_STYLE_COLOUR( '', #420 );
#366 = VERTEX_POINT( '', #421 );
#367 = CIRCLE( '', #422, 70.0000000000000 );
#368 = FILL_AREA_STYLE_COLOUR( '', #423 );
#369 = VERTEX_POINT( '', #424 );
#370 = VERTEX_POINT( '', #425 );
#371 = CIRCLE( '', #426, 8.00000000000000 );
#372 = VERTEX_POINT( '', #427 );
#373 = LINE( '', #428, #429 );
#374 = VERTEX_POINT( '', #430 );
#375 = CIRCLE( '', #431, 8.00000000000000 );
#376 = LINE( '', #432, #433 );
#377 = FILL_AREA_STYLE_COLOUR( '', #434 );
#378 = VERTEX_POINT( '', #435 );
#379 = CIRCLE( '', #436, 61.0000000000000 );
#380 = FILL_AREA_STYLE_COLOUR( '', #437 );
#381 = VERTEX_POINT( '', #438 );
#382 = LINE( '', #439, #440 );
#383 = VERTEX_POINT( '', #441 );
#384 = LINE( '', #442, #443 );
#385 = LINE( '', #444, #445 );
#386 = FILL_AREA_STYLE_COLOUR( '', #446 );
#387 = FILL_AREA_STYLE_COLOUR( '', #447 );
#388 = VERTEX_POINT( '', #448 );
#389 = CIRCLE( '', #449, 17.0000000000000 );
#390 = VERTEX_POINT( '', #450 );
#391 = CIRCLE( '', #451, 17.0000000000000 );
#392 = FILL_AREA_STYLE_COLOUR( '', #452 );
#393 = FILL_AREA_STYLE_COLOUR( '', #453 );
#394 = FILL_AREA_STYLE_COLOUR( '', #454 );
#395 = VERTEX_POINT( '', #455 );
#396 = LINE( '', #456, #457 );
#397 = VERTEX_POINT( '', #458 );
#398 = LINE( '', #459, #460 );
#399 = LINE( '', #461, #462 );
#400 = FILL_AREA_STYLE_COLOUR( '', #463 );
#401 = LINE( '', #464, #465 );
#402 = FILL_AREA_STYLE_COLOUR( '', #466 );
#403 = LINE( '', #467, #468 );
#404 = FILL_AREA_STYLE_COLOUR( '', #469 );
#405 = COLOUR_RGB( '', 0.689999997600000, 0.689999997600000, 0.689999997600000 );
#406 = CARTESIAN_POINT( '', ( 30.2000000000000, 0.000000000000000, 60.0000000000000 ) );
#407 = AXIS2_PLACEMENT_3D( '', #470, #471, #472 );
#408 = CARTESIAN_POINT( '', ( 37.5000000000000, 0.000000000000000, 69.0000000000000 ) );
#409 = AXIS2_PLACEMENT_3D( '', #473, #474, #475 );
#410 = COLOUR_RGB( '', 0.689999997600000, 0.689999997600000, 0.689999997600000 );
#411 = CARTESIAN_POINT( '', ( 16.5000000000000, 0.000000000000000, 17.0000000000000 ) );
#412 = AXIS2_PLACEMENT_3D( '', #476, #477, #478 );
#413 = CARTESIAN_POINT( '', ( 20.0000000000000, 0.000000000000000, 17.0000000000000 ) );
#414 = AXIS2_PLACEMENT_3D( '', #479, #480, #481 );
#415 = COLOUR_RGB( '', 0.689999997600000, 0.689999997600000, 0.689999997600000 );
#416 = CARTESIAN_POINT( '', ( 22.7000000000000, 0.000000000000000, 67.0000000000000 ) );
#417 = AXIS2_PLACEMENT_3D( '', #482, #483, #484 );
#418 = CARTESIAN_POINT( '', ( 20.2181985447996, 0.000000000000000, 69.5000000000000 ) );
#419 = AXIS2_PLACEMENT_3D( '', #485, #486, #487 );
#420 = COLOUR_RGB( '', 0.689999997600000, 0.689999997600000, 0.689999997600000 );
#421 = CARTESIAN_POINT( '', ( 39.9994949366117, 0.000000000000000, 70.0000000000000 ) );
#422 = AXIS2_PLACEMENT_3D( '', #488, #489, #490 );
#423 = COLOUR_RGB( '', 0.689999997600000, 0.689999997600000, 0.689999997600000 );
#424 = CARTESIAN_POINT( '', ( 20.0000000000000, 7.59934207678533, 2.50000000000000 ) );
#425 = CARTESIAN_POINT( '', ( 20.0000000000000, 7.59934207678533, -2.50000000000000 ) );
#426 = AXIS2_PLACEMENT_3D( '', #491, #492, #493 );
#427 = CARTESIAN_POINT( '', ( 0.000000000000000, 7.59934207678533, -2.50000000000000 ) );
#428 = CARTESIAN_POINT( '', ( 30.0000000000000, 7.59934207678533, -2.50000000000000 ) );
#429 = VECTOR( '', #494, 1000.00000000000 );
#430 = CARTESIAN_POINT( '', ( 0.000000000000000, 7.59934207678533, 2.50000000000000 ) );
#431 = AXIS2_PLACEMENT_3D( '', #495, #496, #497 );
#432 = CARTESIAN_POINT( '', ( 30.0000000000000, 7.59934207678533, 2.50000000000000 ) );
#433 = VECTOR( '', #498, 1000.00000000000 );
#434 = COLOUR_RGB( '', 0.689999997600000, 0.689999997600000, 0.689999997600000 );
#435 = CARTESIAN_POINT( '', ( 24.2000000000000, 0.000000000000000, 61.0000000000000 ) );
#436 = AXIS2_PLACEMENT_3D( '', #499, #500, #501 );
#437 = COLOUR_RGB( '', 0.689999997600000, 0.689999997600000, 0.689999997600000 );
#438 = CARTESIAN_POINT( '', ( 20.0000000000000, 10.3000000000000, 2.50000000000000 ) );
#439 = CARTESIAN_POINT( '', ( 20.0000000000000, 0.000000000000000, 2.50000000000000 ) );
#440 = VECTOR( '', #502, 1000.00000000000 );
#441 = CARTESIAN_POINT( '', ( 20.0000000000000, 10.3000000000000, -2.49999999999999 ) );
#442 = CARTESIAN_POINT( '', ( 20.0000000000000, 10.3000000000000, 0.000000000000000 ) );
#443 = VECTOR( '', #503, 1000.00000000000 );
#444 = CARTESIAN_POINT( '', ( 20.0000000000000, 6.42333655464196E-15, -2.50000000000002 ) );
#445 = VECTOR( '', #504, 1000.00000000000 );
#446 = COLOUR_RGB( '', 0.689999997600000, 0.689999997600000, 0.689999997600000 );
#447 = COLOUR_RGB( '', 0.689999997600000, 0.689999997600000, 0.689999997600000 );
#448 = CARTESIAN_POINT( '', ( 0.000000000000000, 0.000000000000000, 17.0000000000000 ) );
#449 = AXIS2_PLACEMENT_3D( '', #505, #506, #507 );
#450 = CARTESIAN_POINT( '', ( 7.50000000000000, 0.000000000000000, 17.0000000000000 ) );
#451 = AXIS2_PLACEMENT_3D( '', #508, #509, #510 );
#452 = COLOUR_RGB( '', 0.689999997600000, 0.689999997600000, 0.689999997600000 );
#453 = COLOUR_RGB( '', 0.689999997600000, 0.689999997600000, 0.689999997600000 );
#454 = COLOUR_RGB( '', 0.689999997600000, 0.689999997600000, 0.689999997600000 );
#455 = CARTESIAN_POINT( '', ( 0.000000000000000, 10.3000000000000, 2.50000000000000 ) );
#456 = CARTESIAN_POINT( '', ( 0.000000000000000, 10.3000000000000, 2.50000000000000 ) );
#457 = VECTOR( '', #511, 1000.00000000000 );
#458 = CARTESIAN_POINT( '', ( 0.000000000000000, 10.3000000000000, -2.49999999999999 ) );
#459 = CARTESIAN_POINT( '', ( 0.000000000000000, 7.59934207678533, -2.50000000000000 ) );
#460 = VECTOR( '', #512, 1000.00000000000 );
#461 = CARTESIAN_POINT( '', ( 0.000000000000000, 10.3000000000000, -2.49999999999999 ) );
#462 = VECTOR( '', #513, 1000.00000000000 );
#463 = COLOUR_RGB( '', 0.689999997600000, 0.689999997600000, 0.689999997600000 );
#464 = CARTESIAN_POINT( '', ( 30.0000000000000, 10.3000000000000, -2.49999999999999 ) );
#465 = VECTOR( '', #514, 1000.00000000000 );
#466 = COLOUR_RGB( '', 0.689999997600000, 0.689999997600000, 0.689999997600000 );
#467 = CARTESIAN_POINT( '', ( 30.0000000000000, 10.3000000000000, 2.50000000000000 ) );
#468 = VECTOR( '', #515, 1000.00000000000 );
#469 = COLOUR_RGB( '', 0.689999997600000, 0.689999997600000, 0.689999997600000 );
#470 = CARTESIAN_POINT( '', ( 30.2000000000000, 0.000000000000000, 0.000000000000000 ) );
#471 = DIRECTION( '', ( -1.00000000000000, 0.000000000000000, 0.000000000000000 ) );
#472 = DIRECTION( '', ( 0.000000000000000, 0.000000000000000, 1.00000000000000 ) );
#473 = CARTESIAN_POINT( '', ( 37.5000000000000, 0.000000000000000, 0.000000000000000 ) );
#474 = DIRECTION( '', ( -1.00000000000000, 0.000000000000000, 0.000000000000000 ) );
#475 = DIRECTION( '', ( 0.000000000000000, 0.000000000000000, 1.00000000000000 ) );
#476 = CARTESIAN_POINT( '', ( 16.5000000000000, 0.000000000000000, 0.000000000000000 ) );
#477 = DIRECTION( '', ( -1.00000000000000, 0.000000000000000, 0.000000000000000 ) );
#478 = DIRECTION( '', ( 0.000000000000000, 0.000000000000000, 1.00000000000000 ) );
#479 = CARTESIAN_POINT( '', ( 20.0000000000000, 0.000000000000000, 0.000000000000000 ) );
#480 = DIRECTION( '', ( -1.00000000000000, 0.000000000000000, 0.000000000000000 ) );
#481 = DIRECTION( '', ( 0.000000000000000, 0.000000000000000, 1.00000000000000 ) );
#482 = CARTESIAN_POINT( '', ( 22.7000000000000, 0.000000000000000, 0.000000000000000 ) );
#483 = DIRECTION( '', ( -1.00000000000000, 0.000000000000000, 0.000000000000000 ) );
#484 = DIRECTION( '', ( 0.000000000000000, 0.000000000000000, 1.00000000000000 ) );
#485 = CARTESIAN_POINT( '', ( 20.2181985447996, 0.000000000000000, 0.000000000000000 ) );
#486 = DIRECTION( '', ( -1.00000000000000, 0.000000000000000, 0.000000000000000 ) );
#487 = DIRECTION( '', ( 0.000000000000000, 0.000000000000000, 1.00000000000000 ) );
#488 = CARTESIAN_POINT( '', ( 39.9994949366117, 0.000000000000000, 0.000000000000000 ) );
#489 = DIRECTION( '', ( -1.00000000000000, 0.000000000000000, 0.000000000000000 ) );
#490 = DIRECTION( '', ( 0.000000000000000, 0.000000000000000, 1.00000000000000 ) );
#491 = CARTESIAN_POINT( '', ( 20.0000000000000, -4.87890977618477E-16, -2.81892564846231E-15 ) );
#492 = DIRECTION( '', ( -1.00000000000000, 0.000000000000000, 0.000000000000000 ) );
#493 = DIRECTION( '', ( 0.000000000000000, 0.000000000000000, 1.00000000000000 ) );
#494 = DIRECTION( '', ( -1.00000000000000, -0.000000000000000, -0.000000000000000 ) );
#495 = CARTESIAN_POINT( '', ( 0.000000000000000, -4.87890977618477E-16, -2.81892564846231E-15 ) );
#496 = DIRECTION( '', ( 1.00000000000000, 0.000000000000000, 0.000000000000000 ) );
#497 = DIRECTION( '', ( 0.000000000000000, 0.000000000000000, -1.00000000000000 ) );
#498 = DIRECTION( '', ( -1.00000000000000, -0.000000000000000, -0.000000000000000 ) );
#499 = CARTESIAN_POINT( '', ( 24.2000000000000, 0.000000000000000, 0.000000000000000 ) );
#500 = DIRECTION( '', ( -1.00000000000000, 0.000000000000000, 0.000000000000000 ) );
#501 = DIRECTION( '', ( 0.000000000000000, 0.000000000000000, 1.00000000000000 ) );
#502 = DIRECTION( '', ( 0.000000000000000, -1.00000000000000, 0.000000000000000 ) );
#503 = DIRECTION( '', ( 0.000000000000000, 0.000000000000000, 1.00000000000000 ) );
#504 = DIRECTION( '', ( 0.000000000000000, 1.00000000000000, 2.56933462185676E-15 ) );
#505 = CARTESIAN_POINT( '', ( 0.000000000000000, 0.000000000000000, 0.000000000000000 ) );
#506 = DIRECTION( '', ( -1.00000000000000, 0.000000000000000, 0.000000000000000 ) );
#507 = DIRECTION( '', ( 0.000000000000000, 0.000000000000000, 1.00000000000000 ) );
#508 = CARTESIAN_POINT( '', ( 7.50000000000000, 0.000000000000000, 0.000000000000000 ) );
#509 = DIRECTION( '', ( -1.00000000000000, 0.000000000000000, 0.000000000000000 ) );
#510 = DIRECTION( '', ( 0.000000000000000, 0.000000000000000, 1.00000000000000 ) );
#511 = DIRECTION( '', ( 0.000000000000000, -1.00000000000000, 0.000000000000000 ) );
#512 = DIRECTION( '', ( 0.000000000000000, 1.00000000000000, 2.56933462185676E-15 ) );
#513 = DIRECTION( '', ( 0.000000000000000, 0.000000000000000, 1.00000000000000 ) );
#514 = DIRECTION( '', ( -1.00000000000000, -0.000000000000000, -0.000000000000000 ) );
#515 = DIRECTION( '', ( -1.00000000000000, -0.000000000000000, -0.000000000000000 ) );
ENDSEC;
END-ISO-10303-21;
