ISO-10303-21;
HEADER;
FILE_DESCRIPTION( ( 'STEP AP214' ), '1' );
FILE_NAME( '//goodhand-server/Shared Folders/GoodHand Data/Kipp CAD/K1129/K1129.2001815.stp', '2020-12-10T10:17:25', ( '' ), ( '' ), ' ', 'PARTsolutions', ' ' );
FILE_SCHEMA( ( 'AUTOMOTIVE_DESIGN { 1 0 10303 214 1 1 1 1 }' ) );
ENDSEC;
DATA;
#1 = MECHANICAL_DESIGN_GEOMETRIC_PRESENTATION_REPRESENTATION( ' ', ( #10, #11, #12, #13, #14, #15, #16, #17, #18, #19, #20, #21 ), #6 );
#2 = PRODUCT_DEFINITION_CONTEXT( '', #22, 'design' );
#3 = APPLICATION_PROTOCOL_DEFINITION( 'international standard', 'automotive_design', 2001, #22 );
#4 = PRODUCT_CATEGORY_RELATIONSHIP( 'NONE', 'NONE', #23, #24 );
#5 = SHAPE_DEFINITION_REPRESENTATION( #25, #26 );
#6 =  ( GEOMETRIC_REPRESENTATION_CONTEXT( 3 )GLOBAL_UNCERTAINTY_ASSIGNED_CONTEXT( ( #29 ) )GLOBAL_UNIT_ASSIGNED_CONTEXT( ( #31, #32, #33 ) )REPRESENTATION_CONTEXT( 'NONE', 'WORKSPACE' ) );
#10 = STYLED_ITEM( '', ( #35 ), #36 );
#11 = STYLED_ITEM( '', ( #37 ), #38 );
#12 = STYLED_ITEM( '', ( #39 ), #40 );
#13 = STYLED_ITEM( '', ( #41 ), #42 );
#14 = STYLED_ITEM( '', ( #43 ), #44 );
#15 = STYLED_ITEM( '', ( #45 ), #46 );
#16 = STYLED_ITEM( '', ( #47 ), #48 );
#17 = STYLED_ITEM( '', ( #49 ), #50 );
#18 = STYLED_ITEM( '', ( #51 ), #52 );
#19 = STYLED_ITEM( '', ( #53 ), #54 );
#20 = STYLED_ITEM( '', ( #55 ), #56 );
#21 = STYLED_ITEM( '', ( #57 ), #58 );
#22 = APPLICATION_CONTEXT( 'core data for automotive mechanical design processes' );
#23 = PRODUCT_CATEGORY( 'part', 'NONE' );
#24 = PRODUCT_RELATED_PRODUCT_CATEGORY( 'detail', ' ', ( #59 ) );
#25 = PRODUCT_DEFINITION_SHAPE( 'NONE', 'NONE', #60 );
#26 = ADVANCED_BREP_SHAPE_REPRESENTATION( '_K1129.2001815', ( #61, #62 ), #6 );
#29 = UNCERTAINTY_MEASURE_WITH_UNIT( LENGTH_MEASURE( 0.00100000000000000 ), #31, '', '' );
#31 =  ( CONVERSION_BASED_UNIT( 'MILLIMETRE', #65 )LENGTH_UNIT(  )NAMED_UNIT( #68 ) );
#32 =  ( NAMED_UNIT( #70 )PLANE_ANGLE_UNIT(  )SI_UNIT( $, .RADIAN. ) );
#33 =  ( NAMED_UNIT( #70 )SI_UNIT( $, .STERADIAN. )SOLID_ANGLE_UNIT(  ) );
#35 = PRESENTATION_STYLE_ASSIGNMENT( ( #76 ) );
#36 = ADVANCED_FACE( '', ( #77, #78 ), #79, .F. );
#37 = PRESENTATION_STYLE_ASSIGNMENT( ( #80 ) );
#38 = ADVANCED_FACE( '', ( #81 ), #82, .F. );
#39 = PRESENTATION_STYLE_ASSIGNMENT( ( #83 ) );
#40 = ADVANCED_FACE( '', ( #84, #85 ), #86, .T. );
#41 = PRESENTATION_STYLE_ASSIGNMENT( ( #87 ) );
#42 = ADVANCED_FACE( '', ( #88 ), #89, .T. );
#43 = PRESENTATION_STYLE_ASSIGNMENT( ( #90 ) );
#44 = ADVANCED_FACE( '', ( #91, #92 ), #93, .T. );
#45 = PRESENTATION_STYLE_ASSIGNMENT( ( #94 ) );
#46 = ADVANCED_FACE( '', ( #95 ), #96, .F. );
#47 = PRESENTATION_STYLE_ASSIGNMENT( ( #97 ) );
#48 = ADVANCED_FACE( '', ( #98 ), #99, .T. );
#49 = PRESENTATION_STYLE_ASSIGNMENT( ( #100 ) );
#50 = ADVANCED_FACE( '', ( #101 ), #102, .T. );
#51 = PRESENTATION_STYLE_ASSIGNMENT( ( #103 ) );
#52 = ADVANCED_FACE( '', ( #104 ), #105, .T. );
#53 = PRESENTATION_STYLE_ASSIGNMENT( ( #106 ) );
#54 = ADVANCED_FACE( '', ( #107 ), #108, .T. );
#55 = PRESENTATION_STYLE_ASSIGNMENT( ( #109 ) );
#56 = ADVANCED_FACE( '', ( #110, #111 ), #112, .T. );
#57 = PRESENTATION_STYLE_ASSIGNMENT( ( #113 ) );
#58 = ADVANCED_FACE( '', ( #114 ), #115, .T. );
#59 = PRODUCT( '_K1129.2001815', '_K1129.2001815', 'PART-_K1129.2001815-DESC', ( #116 ) );
#60 = PRODUCT_DEFINITION( 'NONE', 'NONE', #117, #2 );
#61 = MANIFOLD_SOLID_BREP( '_K1129.2001815', #118 );
#62 = AXIS2_PLACEMENT_3D( '', #119, #120, #121 );
#65 = LENGTH_MEASURE_WITH_UNIT( LENGTH_MEASURE( 1.00000000000000 ), #122 );
#68 = DIMENSIONAL_EXPONENTS( 1.00000000000000, 0.000000000000000, 0.000000000000000, 0.000000000000000, 0.000000000000000, 0.000000000000000, 0.000000000000000 );
#70 = DIMENSIONAL_EXPONENTS( 0.000000000000000, 0.000000000000000, 0.000000000000000, 0.000000000000000, 0.000000000000000, 0.000000000000000, 0.000000000000000 );
#76 = SURFACE_STYLE_USAGE( .BOTH., #123 );
#77 = FACE_OUTER_BOUND( '', #124, .T. );
#78 = FACE_BOUND( '', #125, .T. );
#79 = PLANE( '', #126 );
#80 = SURFACE_STYLE_USAGE( .BOTH., #127 );
#81 = FACE_OUTER_BOUND( '', #128, .T. );
#82 = PLANE( '', #129 );
#83 = SURFACE_STYLE_USAGE( .BOTH., #130 );
#84 = FACE_BOUND( '', #131, .T. );
#85 = FACE_OUTER_BOUND( '', #132, .T. );
#86 = CONICAL_SURFACE( '', #133, 4.97399968460000, 0.0314159265000000 );
#87 = SURFACE_STYLE_USAGE( .BOTH., #134 );
#88 = FACE_OUTER_BOUND( '', #135, .T. );
#89 = PLANE( '', #136 );
#90 = SURFACE_STYLE_USAGE( .BOTH., #137 );
#91 = FACE_OUTER_BOUND( '', #138, .T. );
#92 = FACE_BOUND( '', #139, .T. );
#93 = CONICAL_SURFACE( '', #140, 4.48970506420000, 0.769690200100000 );
#94 = SURFACE_STYLE_USAGE( .BOTH., #141 );
#95 = FACE_OUTER_BOUND( '', #142, .T. );
#96 = PLANE( '', #143 );
#97 = SURFACE_STYLE_USAGE( .BOTH., #144 );
#98 = FACE_OUTER_BOUND( '', #145, .T. );
#99 = PLANE( '', #146 );
#100 = SURFACE_STYLE_USAGE( .BOTH., #147 );
#101 = FACE_OUTER_BOUND( '', #148, .T. );
#102 = PLANE( '', #149 );
#103 = SURFACE_STYLE_USAGE( .BOTH., #150 );
#104 = FACE_OUTER_BOUND( '', #151, .T. );
#105 = PLANE( '', #152 );
#106 = SURFACE_STYLE_USAGE( .BOTH., #153 );
#107 = FACE_OUTER_BOUND( '', #154, .T. );
#108 = PLANE( '', #155 );
#109 = SURFACE_STYLE_USAGE( .BOTH., #156 );
#110 = FACE_BOUND( '', #157, .T. );
#111 = FACE_OUTER_BOUND( '', #158, .T. );
#112 = CONICAL_SURFACE( '', #159, 4.75400031540000, 0.801106126700000 );
#113 = SURFACE_STYLE_USAGE( .BOTH., #160 );
#114 = FACE_OUTER_BOUND( '', #161, .T. );
#115 = PLANE( '', #162 );
#116 = PRODUCT_CONTEXT( '', #22, 'mechanical' );
#117 = PRODUCT_DEFINITION_FORMATION_WITH_SPECIFIED_SOURCE( ' ', 'NONE', #59, .NOT_KNOWN. );
#118 = CLOSED_SHELL( '', ( #44, #36, #58, #52, #54, #38, #56, #40, #42, #50, #48, #46 ) );
#119 = CARTESIAN_POINT( '', ( 0.000000000000000, 0.000000000000000, 0.000000000000000 ) );
#120 = DIRECTION( '', ( 0.000000000000000, 0.000000000000000, 1.00000000000000 ) );
#121 = DIRECTION( '', ( 1.00000000000000, 0.000000000000000, 0.000000000000000 ) );
#122 =  ( LENGTH_UNIT(  )NAMED_UNIT( #68 )SI_UNIT( .MILLI., .METRE. ) );
#123 = SURFACE_SIDE_STYLE( '', ( #164 ) );
#124 = EDGE_LOOP( '', ( #165 ) );
#125 = EDGE_LOOP( '', ( #166, #167, #168, #169, #170, #171 ) );
#126 = AXIS2_PLACEMENT_3D( '', #172, #173, #174 );
#127 = SURFACE_SIDE_STYLE( '', ( #175 ) );
#128 = EDGE_LOOP( '', ( #176 ) );
#129 = AXIS2_PLACEMENT_3D( '', #177, #178, #179 );
#130 = SURFACE_SIDE_STYLE( '', ( #180 ) );
#131 = EDGE_LOOP( '', ( #181 ) );
#132 = EDGE_LOOP( '', ( #182 ) );
#133 = AXIS2_PLACEMENT_3D( '', #183, #184, #185 );
#134 = SURFACE_SIDE_STYLE( '', ( #186 ) );
#135 = EDGE_LOOP( '', ( #187, #188, #189, #190 ) );
#136 = AXIS2_PLACEMENT_3D( '', #191, #192, #193 );
#137 = SURFACE_SIDE_STYLE( '', ( #194 ) );
#138 = EDGE_LOOP( '', ( #195 ) );
#139 = EDGE_LOOP( '', ( #196 ) );
#140 = AXIS2_PLACEMENT_3D( '', #197, #198, #199 );
#141 = SURFACE_SIDE_STYLE( '', ( #200 ) );
#142 = EDGE_LOOP( '', ( #201, #202, #203, #204, #205, #206 ) );
#143 = AXIS2_PLACEMENT_3D( '', #207, #208, #209 );
#144 = SURFACE_SIDE_STYLE( '', ( #210 ) );
#145 = EDGE_LOOP( '', ( #211, #212, #213, #214 ) );
#146 = AXIS2_PLACEMENT_3D( '', #215, #216, #217 );
#147 = SURFACE_SIDE_STYLE( '', ( #218 ) );
#148 = EDGE_LOOP( '', ( #219, #220, #221, #222 ) );
#149 = AXIS2_PLACEMENT_3D( '', #223, #224, #225 );
#150 = SURFACE_SIDE_STYLE( '', ( #226 ) );
#151 = EDGE_LOOP( '', ( #227, #228, #229, #230 ) );
#152 = AXIS2_PLACEMENT_3D( '', #231, #232, #233 );
#153 = SURFACE_SIDE_STYLE( '', ( #234 ) );
#154 = EDGE_LOOP( '', ( #235, #236, #237, #238 ) );
#155 = AXIS2_PLACEMENT_3D( '', #239, #240, #241 );
#156 = SURFACE_SIDE_STYLE( '', ( #242 ) );
#157 = EDGE_LOOP( '', ( #243 ) );
#158 = EDGE_LOOP( '', ( #244 ) );
#159 = AXIS2_PLACEMENT_3D( '', #245, #246, #247 );
#160 = SURFACE_SIDE_STYLE( '', ( #248 ) );
#161 = EDGE_LOOP( '', ( #249, #250, #251, #252 ) );
#162 = AXIS2_PLACEMENT_3D( '', #253, #254, #255 );
#164 = SURFACE_STYLE_FILL_AREA( #256 );
#165 = ORIENTED_EDGE( '', *, *, #257, .F. );
#166 = ORIENTED_EDGE( '', *, *, #258, .T. );
#167 = ORIENTED_EDGE( '', *, *, #259, .T. );
#168 = ORIENTED_EDGE( '', *, *, #260, .T. );
#169 = ORIENTED_EDGE( '', *, *, #261, .T. );
#170 = ORIENTED_EDGE( '', *, *, #262, .T. );
#171 = ORIENTED_EDGE( '', *, *, #263, .T. );
#172 = CARTESIAN_POINT( '', ( 0.000000000000000, 0.000000000000000, 0.000000000000000 ) );
#173 = DIRECTION( '', ( 1.00000000000000, 0.000000000000000, -0.000000000000000 ) );
#174 = DIRECTION( '', ( -0.000000000000000, 0.000000000000000, -1.00000000000000 ) );
#175 = SURFACE_STYLE_FILL_AREA( #264 );
#176 = ORIENTED_EDGE( '', *, *, #265, .T. );
#177 = CARTESIAN_POINT( '', ( 8.00000000000000, 4.23829493582660, 0.000000000000000 ) );
#178 = DIRECTION( '', ( -1.00000000000000, 0.000000000000000, 0.000000000000000 ) );
#179 = DIRECTION( '', ( 0.000000000000000, 0.000000000000000, 1.00000000000000 ) );
#180 = SURFACE_STYLE_FILL_AREA( #266 );
#181 = ORIENTED_EDGE( '', *, *, #267, .F. );
#182 = ORIENTED_EDGE( '', *, *, #268, .T. );
#183 = CARTESIAN_POINT( '', ( 0.499753280182866, 0.000000000000000, 0.000000000000000 ) );
#184 = DIRECTION( '', ( -1.00000000000000, 0.000000000000000, -0.000000000000000 ) );
#185 = DIRECTION( '', ( 0.000000000000000, 0.000000000000000, 1.00000000000000 ) );
#186 = SURFACE_STYLE_FILL_AREA( #269 );
#187 = ORIENTED_EDGE( '', *, *, #261, .F. );
#188 = ORIENTED_EDGE( '', *, *, #270, .F. );
#189 = ORIENTED_EDGE( '', *, *, #271, .T. );
#190 = ORIENTED_EDGE( '', *, *, #272, .T. );
#191 = CARTESIAN_POINT( '', ( 4.00000000000000, -1.44337567297406, -2.50000000000000 ) );
#192 = DIRECTION( '', ( 0.000000000000000, 0.000000000000000, 1.00000000000000 ) );
#193 = DIRECTION( '', ( 1.00000000000000, 0.000000000000000, -0.000000000000000 ) );
#194 = SURFACE_STYLE_FILL_AREA( #273 );
#195 = ORIENTED_EDGE( '', *, *, #268, .F. );
#196 = ORIENTED_EDGE( '', *, *, #257, .T. );
#197 = CARTESIAN_POINT( '', ( 0.000000000000000, 0.000000000000000, 0.000000000000000 ) );
#198 = DIRECTION( '', ( 1.00000000000000, -0.000000000000000, -0.000000000000000 ) );
#199 = DIRECTION( '', ( -0.000000000000000, 0.000000000000000, -1.00000000000000 ) );
#200 = SURFACE_STYLE_FILL_AREA( #274 );
#201 = ORIENTED_EDGE( '', *, *, #275, .F. );
#202 = ORIENTED_EDGE( '', *, *, #276, .F. );
#203 = ORIENTED_EDGE( '', *, *, #277, .F. );
#204 = ORIENTED_EDGE( '', *, *, #271, .F. );
#205 = ORIENTED_EDGE( '', *, *, #278, .F. );
#206 = ORIENTED_EDGE( '', *, *, #279, .F. );
#207 = CARTESIAN_POINT( '', ( 4.00000000000000, 0.000000000000000, 0.000000000000000 ) );
#208 = DIRECTION( '', ( 1.00000000000000, 0.000000000000000, 0.000000000000000 ) );
#209 = DIRECTION( '', ( 0.000000000000000, 0.000000000000000, -1.00000000000000 ) );
#210 = SURFACE_STYLE_FILL_AREA( #280 );
#211 = ORIENTED_EDGE( '', *, *, #263, .F. );
#212 = ORIENTED_EDGE( '', *, *, #281, .F. );
#213 = ORIENTED_EDGE( '', *, *, #276, .T. );
#214 = ORIENTED_EDGE( '', *, *, #282, .T. );
#215 = CARTESIAN_POINT( '', ( 4.00000000000000, 2.88675134594813, 0.000000000000000 ) );
#216 = DIRECTION( '', ( 0.000000000000000, -0.866025403784439, -0.500000000000000 ) );
#217 = DIRECTION( '', ( 0.000000000000000, 0.500000000000000, -0.866025403784439 ) );
#218 = SURFACE_STYLE_FILL_AREA( #283 );
#219 = ORIENTED_EDGE( '', *, *, #262, .F. );
#220 = ORIENTED_EDGE( '', *, *, #272, .F. );
#221 = ORIENTED_EDGE( '', *, *, #277, .T. );
#222 = ORIENTED_EDGE( '', *, *, #281, .T. );
#223 = CARTESIAN_POINT( '', ( 4.00000000000000, 1.44337567297406, -2.50000000000000 ) );
#224 = DIRECTION( '', ( 0.000000000000000, -0.866025403784439, 0.500000000000000 ) );
#225 = DIRECTION( '', ( 0.000000000000000, -0.500000000000000, -0.866025403784439 ) );
#226 = SURFACE_STYLE_FILL_AREA( #284 );
#227 = ORIENTED_EDGE( '', *, *, #260, .F. );
#228 = ORIENTED_EDGE( '', *, *, #285, .F. );
#229 = ORIENTED_EDGE( '', *, *, #278, .T. );
#230 = ORIENTED_EDGE( '', *, *, #270, .T. );
#231 = CARTESIAN_POINT( '', ( 4.00000000000000, -2.88675134594813, 0.000000000000000 ) );
#232 = DIRECTION( '', ( -0.000000000000000, 0.866025403784439, 0.500000000000000 ) );
#233 = DIRECTION( '', ( 0.000000000000000, -0.500000000000000, 0.866025403784439 ) );
#234 = SURFACE_STYLE_FILL_AREA( #286 );
#235 = ORIENTED_EDGE( '', *, *, #258, .F. );
#236 = ORIENTED_EDGE( '', *, *, #282, .F. );
#237 = ORIENTED_EDGE( '', *, *, #275, .T. );
#238 = ORIENTED_EDGE( '', *, *, #287, .T. );
#239 = CARTESIAN_POINT( '', ( 4.00000000000000, 1.44337567297406, 2.50000000000000 ) );
#240 = DIRECTION( '', ( 0.000000000000000, 0.000000000000000, -1.00000000000000 ) );
#241 = DIRECTION( '', ( -1.00000000000000, 0.000000000000000, 0.000000000000000 ) );
#242 = SURFACE_STYLE_FILL_AREA( #288 );
#243 = ORIENTED_EDGE( '', *, *, #265, .F. );
#244 = ORIENTED_EDGE( '', *, *, #267, .T. );
#245 = CARTESIAN_POINT( '', ( 7.50024671981714, 0.000000000000000, 0.000000000000000 ) );
#246 = DIRECTION( '', ( -1.00000000000000, 0.000000000000000, -0.000000000000000 ) );
#247 = DIRECTION( '', ( 0.000000000000000, 0.000000000000000, 1.00000000000000 ) );
#248 = SURFACE_STYLE_FILL_AREA( #289 );
#249 = ORIENTED_EDGE( '', *, *, #259, .F. );
#250 = ORIENTED_EDGE( '', *, *, #287, .F. );
#251 = ORIENTED_EDGE( '', *, *, #279, .T. );
#252 = ORIENTED_EDGE( '', *, *, #285, .T. );
#253 = CARTESIAN_POINT( '', ( 4.00000000000000, -1.44337567297406, 2.50000000000000 ) );
#254 = DIRECTION( '', ( 0.000000000000000, 0.866025403784439, -0.500000000000000 ) );
#255 = DIRECTION( '', ( 0.000000000000000, 0.500000000000000, 0.866025403784439 ) );
#256 = FILL_AREA_STYLE( '', ( #290 ) );
#257 = EDGE_CURVE( '', #291, #291, #292, .T. );
#258 = EDGE_CURVE( '', #293, #294, #295, .T. );
#259 = EDGE_CURVE( '', #294, #296, #297, .T. );
#260 = EDGE_CURVE( '', #296, #298, #299, .T. );
#261 = EDGE_CURVE( '', #298, #300, #301, .T. );
#262 = EDGE_CURVE( '', #300, #302, #303, .T. );
#263 = EDGE_CURVE( '', #302, #293, #304, .T. );
#264 = FILL_AREA_STYLE( '', ( #305 ) );
#265 = EDGE_CURVE( '', #306, #306, #307, .T. );
#266 = FILL_AREA_STYLE( '', ( #308 ) );
#267 = EDGE_CURVE( '', #309, #309, #310, .T. );
#268 = EDGE_CURVE( '', #311, #311, #312, .T. );
#269 = FILL_AREA_STYLE( '', ( #313 ) );
#270 = EDGE_CURVE( '', #314, #298, #315, .T. );
#271 = EDGE_CURVE( '', #314, #316, #317, .T. );
#272 = EDGE_CURVE( '', #316, #300, #318, .T. );
#273 = FILL_AREA_STYLE( '', ( #319 ) );
#274 = FILL_AREA_STYLE( '', ( #320 ) );
#275 = EDGE_CURVE( '', #321, #322, #323, .T. );
#276 = EDGE_CURVE( '', #324, #321, #325, .T. );
#277 = EDGE_CURVE( '', #316, #324, #326, .T. );
#278 = EDGE_CURVE( '', #327, #314, #328, .T. );
#279 = EDGE_CURVE( '', #322, #327, #329, .T. );
#280 = FILL_AREA_STYLE( '', ( #330 ) );
#281 = EDGE_CURVE( '', #324, #302, #331, .T. );
#282 = EDGE_CURVE( '', #321, #293, #332, .T. );
#283 = FILL_AREA_STYLE( '', ( #333 ) );
#284 = FILL_AREA_STYLE( '', ( #334 ) );
#285 = EDGE_CURVE( '', #327, #296, #335, .T. );
#286 = FILL_AREA_STYLE( '', ( #336 ) );
#287 = EDGE_CURVE( '', #322, #294, #337, .T. );
#288 = FILL_AREA_STYLE( '', ( #338 ) );
#289 = FILL_AREA_STYLE( '', ( #339 ) );
#290 = FILL_AREA_STYLE_COLOUR( '', #340 );
#291 = VERTEX_POINT( '', #341 );
#292 = CIRCLE( '', #342, 4.48970506420000 );
#293 = VERTEX_POINT( '', #343 );
#294 = VERTEX_POINT( '', #344 );
#295 = LINE( '', #345, #346 );
#296 = VERTEX_POINT( '', #347 );
#297 = LINE( '', #348, #349 );
#298 = VERTEX_POINT( '', #350 );
#299 = LINE( '', #351, #352 );
#300 = VERTEX_POINT( '', #353 );
#301 = LINE( '', #354, #355 );
#302 = VERTEX_POINT( '', #356 );
#303 = LINE( '', #357, #358 );
#304 = LINE( '', #359, #360 );
#305 = FILL_AREA_STYLE_COLOUR( '', #361 );
#306 = VERTEX_POINT( '', #362 );
#307 = CIRCLE( '', #363, 4.23829493580000 );
#308 = FILL_AREA_STYLE_COLOUR( '', #364 );
#309 = VERTEX_POINT( '', #365 );
#310 = CIRCLE( '', #366, 4.75400031540000 );
#311 = VERTEX_POINT( '', #367 );
#312 = CIRCLE( '', #368, 4.97399968460000 );
#313 = FILL_AREA_STYLE_COLOUR( '', #369 );
#314 = VERTEX_POINT( '', #370 );
#315 = LINE( '', #371, #372 );
#316 = VERTEX_POINT( '', #373 );
#317 = LINE( '', #374, #375 );
#318 = LINE( '', #376, #377 );
#319 = FILL_AREA_STYLE_COLOUR( '', #378 );
#320 = FILL_AREA_STYLE_COLOUR( '', #379 );
#321 = VERTEX_POINT( '', #380 );
#322 = VERTEX_POINT( '', #381 );
#323 = LINE( '', #382, #383 );
#324 = VERTEX_POINT( '', #384 );
#325 = LINE( '', #385, #386 );
#326 = LINE( '', #387, #388 );
#327 = VERTEX_POINT( '', #389 );
#328 = LINE( '', #390, #391 );
#329 = LINE( '', #392, #393 );
#330 = FILL_AREA_STYLE_COLOUR( '', #394 );
#331 = LINE( '', #395, #396 );
#332 = LINE( '', #397, #398 );
#333 = FILL_AREA_STYLE_COLOUR( '', #399 );
#334 = FILL_AREA_STYLE_COLOUR( '', #400 );
#335 = LINE( '', #401, #402 );
#336 = FILL_AREA_STYLE_COLOUR( '', #403 );
#337 = LINE( '', #404, #405 );
#338 = FILL_AREA_STYLE_COLOUR( '', #406 );
#339 = FILL_AREA_STYLE_COLOUR( '', #407 );
#340 = COLOUR_RGB( '', 0.689999997600000, 0.689999997600000, 0.689999997600000 );
#341 = CARTESIAN_POINT( '', ( 0.000000000000000, 0.000000000000000, -4.48970506417340 ) );
#342 = AXIS2_PLACEMENT_3D( '', #408, #409, #410 );
#343 = CARTESIAN_POINT( '', ( 0.000000000000000, 1.44337567297406, 2.50000000000000 ) );
#344 = CARTESIAN_POINT( '', ( 0.000000000000000, -1.44337567297406, 2.50000000000000 ) );
#345 = CARTESIAN_POINT( '', ( 0.000000000000000, 1.44337567297406, 2.50000000000000 ) );
#346 = VECTOR( '', #411, 1000.00000000000 );
#347 = CARTESIAN_POINT( '', ( 0.000000000000000, -2.88675134594813, 0.000000000000000 ) );
#348 = CARTESIAN_POINT( '', ( 0.000000000000000, -1.44337567297406, 2.50000000000000 ) );
#349 = VECTOR( '', #412, 1000.00000000000 );
#350 = CARTESIAN_POINT( '', ( 0.000000000000000, -1.44337567297406, -2.50000000000000 ) );
#351 = CARTESIAN_POINT( '', ( 0.000000000000000, -2.88675134594813, 0.000000000000000 ) );
#352 = VECTOR( '', #413, 1000.00000000000 );
#353 = CARTESIAN_POINT( '', ( 0.000000000000000, 1.44337567297406, -2.50000000000000 ) );
#354 = CARTESIAN_POINT( '', ( 0.000000000000000, -1.44337567297406, -2.50000000000000 ) );
#355 = VECTOR( '', #414, 1000.00000000000 );
#356 = CARTESIAN_POINT( '', ( 0.000000000000000, 2.88675134594813, 0.000000000000000 ) );
#357 = CARTESIAN_POINT( '', ( 0.000000000000000, 1.44337567297406, -2.50000000000000 ) );
#358 = VECTOR( '', #415, 1000.00000000000 );
#359 = CARTESIAN_POINT( '', ( 0.000000000000000, 2.88675134594813, 0.000000000000000 ) );
#360 = VECTOR( '', #416, 1000.00000000000 );
#361 = COLOUR_RGB( '', 0.689999997600000, 0.689999997600000, 0.689999997600000 );
#362 = CARTESIAN_POINT( '', ( 8.00000000000000, 0.000000000000000, -4.23829493582660 ) );
#363 = AXIS2_PLACEMENT_3D( '', #417, #418, #419 );
#364 = COLOUR_RGB( '', 0.689999997600000, 0.689999997600000, 0.689999997600000 );
#365 = CARTESIAN_POINT( '', ( 7.50024671981714, 0.000000000000000, -4.75400031536566 ) );
#366 = AXIS2_PLACEMENT_3D( '', #420, #421, #422 );
#367 = CARTESIAN_POINT( '', ( 0.499753280182866, 0.000000000000000, -4.97399968463434 ) );
#368 = AXIS2_PLACEMENT_3D( '', #423, #424, #425 );
#369 = COLOUR_RGB( '', 0.689999997600000, 0.689999997600000, 0.689999997600000 );
#370 = CARTESIAN_POINT( '', ( 4.00000000000000, -1.44337567297406, -2.50000000000000 ) );
#371 = CARTESIAN_POINT( '', ( 4.00000000000000, -1.44337567297406, -2.50000000000000 ) );
#372 = VECTOR( '', #426, 1000.00000000000 );
#373 = CARTESIAN_POINT( '', ( 4.00000000000000, 1.44337567297406, -2.50000000000000 ) );
#374 = CARTESIAN_POINT( '', ( 4.00000000000000, -1.44337567297406, -2.50000000000000 ) );
#375 = VECTOR( '', #427, 1000.00000000000 );
#376 = CARTESIAN_POINT( '', ( 4.00000000000000, 1.44337567297406, -2.50000000000000 ) );
#377 = VECTOR( '', #428, 1000.00000000000 );
#378 = COLOUR_RGB( '', 0.689999997600000, 0.689999997600000, 0.689999997600000 );
#379 = COLOUR_RGB( '', 0.689999997600000, 0.689999997600000, 0.689999997600000 );
#380 = CARTESIAN_POINT( '', ( 4.00000000000000, 1.44337567297406, 2.50000000000000 ) );
#381 = CARTESIAN_POINT( '', ( 4.00000000000000, -1.44337567297406, 2.50000000000000 ) );
#382 = CARTESIAN_POINT( '', ( 4.00000000000000, 1.44337567297406, 2.50000000000000 ) );
#383 = VECTOR( '', #429, 1000.00000000000 );
#384 = CARTESIAN_POINT( '', ( 4.00000000000000, 2.88675134594813, 0.000000000000000 ) );
#385 = CARTESIAN_POINT( '', ( 4.00000000000000, 2.88675134594813, 0.000000000000000 ) );
#386 = VECTOR( '', #430, 1000.00000000000 );
#387 = CARTESIAN_POINT( '', ( 4.00000000000000, 1.44337567297406, -2.50000000000000 ) );
#388 = VECTOR( '', #431, 1000.00000000000 );
#389 = CARTESIAN_POINT( '', ( 4.00000000000000, -2.88675134594813, 0.000000000000000 ) );
#390 = CARTESIAN_POINT( '', ( 4.00000000000000, -2.88675134594813, 0.000000000000000 ) );
#391 = VECTOR( '', #432, 1000.00000000000 );
#392 = CARTESIAN_POINT( '', ( 4.00000000000000, -1.44337567297406, 2.50000000000000 ) );
#393 = VECTOR( '', #433, 1000.00000000000 );
#394 = COLOUR_RGB( '', 0.689999997600000, 0.689999997600000, 0.689999997600000 );
#395 = CARTESIAN_POINT( '', ( 4.00000000000000, 2.88675134594813, 0.000000000000000 ) );
#396 = VECTOR( '', #434, 1000.00000000000 );
#397 = CARTESIAN_POINT( '', ( 4.00000000000000, 1.44337567297406, 2.50000000000000 ) );
#398 = VECTOR( '', #435, 1000.00000000000 );
#399 = COLOUR_RGB( '', 0.689999997600000, 0.689999997600000, 0.689999997600000 );
#400 = COLOUR_RGB( '', 0.689999997600000, 0.689999997600000, 0.689999997600000 );
#401 = CARTESIAN_POINT( '', ( 4.00000000000000, -2.88675134594813, 0.000000000000000 ) );
#402 = VECTOR( '', #436, 1000.00000000000 );
#403 = COLOUR_RGB( '', 0.689999997600000, 0.689999997600000, 0.689999997600000 );
#404 = CARTESIAN_POINT( '', ( 4.00000000000000, -1.44337567297406, 2.50000000000000 ) );
#405 = VECTOR( '', #437, 1000.00000000000 );
#406 = COLOUR_RGB( '', 0.689999997600000, 0.689999997600000, 0.689999997600000 );
#407 = COLOUR_RGB( '', 0.689999997600000, 0.689999997600000, 0.689999997600000 );
#408 = CARTESIAN_POINT( '', ( 0.000000000000000, 0.000000000000000, 0.000000000000000 ) );
#409 = DIRECTION( '', ( 1.00000000000000, 0.000000000000000, -0.000000000000000 ) );
#410 = DIRECTION( '', ( -0.000000000000000, 0.000000000000000, -1.00000000000000 ) );
#411 = DIRECTION( '', ( 0.000000000000000, -1.00000000000000, 0.000000000000000 ) );
#412 = DIRECTION( '', ( 0.000000000000000, -0.500000000000000, -0.866025403784439 ) );
#413 = DIRECTION( '', ( 0.000000000000000, 0.500000000000000, -0.866025403784439 ) );
#414 = DIRECTION( '', ( 0.000000000000000, 1.00000000000000, 0.000000000000000 ) );
#415 = DIRECTION( '', ( 0.000000000000000, 0.500000000000000, 0.866025403784439 ) );
#416 = DIRECTION( '', ( 0.000000000000000, -0.500000000000000, 0.866025403784439 ) );
#417 = CARTESIAN_POINT( '', ( 8.00000000000000, 0.000000000000000, 0.000000000000000 ) );
#418 = DIRECTION( '', ( 1.00000000000000, 0.000000000000000, -0.000000000000000 ) );
#419 = DIRECTION( '', ( -0.000000000000000, 0.000000000000000, -1.00000000000000 ) );
#420 = CARTESIAN_POINT( '', ( 7.50024671981714, 0.000000000000000, 0.000000000000000 ) );
#421 = DIRECTION( '', ( 1.00000000000000, 0.000000000000000, -0.000000000000000 ) );
#422 = DIRECTION( '', ( -0.000000000000000, 0.000000000000000, -1.00000000000000 ) );
#423 = CARTESIAN_POINT( '', ( 0.499753280182866, 0.000000000000000, 0.000000000000000 ) );
#424 = DIRECTION( '', ( 1.00000000000000, 0.000000000000000, -0.000000000000000 ) );
#425 = DIRECTION( '', ( -0.000000000000000, 0.000000000000000, -1.00000000000000 ) );
#426 = DIRECTION( '', ( -1.00000000000000, -0.000000000000000, -0.000000000000000 ) );
#427 = DIRECTION( '', ( 0.000000000000000, 1.00000000000000, 0.000000000000000 ) );
#428 = DIRECTION( '', ( -1.00000000000000, -0.000000000000000, -0.000000000000000 ) );
#429 = DIRECTION( '', ( 0.000000000000000, -1.00000000000000, 0.000000000000000 ) );
#430 = DIRECTION( '', ( 0.000000000000000, -0.500000000000000, 0.866025403784439 ) );
#431 = DIRECTION( '', ( 0.000000000000000, 0.500000000000000, 0.866025403784439 ) );
#432 = DIRECTION( '', ( 0.000000000000000, 0.500000000000000, -0.866025403784439 ) );
#433 = DIRECTION( '', ( 0.000000000000000, -0.500000000000000, -0.866025403784439 ) );
#434 = DIRECTION( '', ( -1.00000000000000, -0.000000000000000, -0.000000000000000 ) );
#435 = DIRECTION( '', ( -1.00000000000000, -0.000000000000000, -0.000000000000000 ) );
#436 = DIRECTION( '', ( -1.00000000000000, -0.000000000000000, -0.000000000000000 ) );
#437 = DIRECTION( '', ( -1.00000000000000, -0.000000000000000, -0.000000000000000 ) );
ENDSEC;
END-ISO-10303-21;
