ISO-10303-21;
HEADER;
FILE_DESCRIPTION( ( 'STEP AP214' ), '1' );
FILE_NAME( '//goodhand-server/Shared Folders/GoodHand Data/Kipp CAD/K0390/K0390.20X90.stp', '2020-12-07T10:15:08', ( '' ), ( '' ), ' ', 'PARTsolutions', ' ' );
FILE_SCHEMA( ( 'AUTOMOTIVE_DESIGN { 1 0 10303 214 1 1 1 1 }' ) );
ENDSEC;
DATA;
#1 = MECHANICAL_DESIGN_GEOMETRIC_PRESENTATION_REPRESENTATION( ' ', ( #10, #11, #12, #13, #14, #15, #16, #17, #18, #19, #20, #21, #22 ), #6 );
#2 = PRODUCT_DEFINITION_CONTEXT( '', #23, 'design' );
#3 = APPLICATION_PROTOCOL_DEFINITION( 'international standard', 'automotive_design', 2001, #23 );
#4 = PRODUCT_CATEGORY_RELATIONSHIP( 'NONE', 'NONE', #24, #25 );
#5 = SHAPE_DEFINITION_REPRESENTATION( #26, #27 );
#6 =  ( GEOMETRIC_REPRESENTATION_CONTEXT( 3 )GLOBAL_UNCERTAINTY_ASSIGNED_CONTEXT( ( #30 ) )GLOBAL_UNIT_ASSIGNED_CONTEXT( ( #32, #33, #34 ) )REPRESENTATION_CONTEXT( 'NONE', 'WORKSPACE' ) );
#10 = STYLED_ITEM( '', ( #36 ), #37 );
#11 = STYLED_ITEM( '', ( #38 ), #39 );
#12 = STYLED_ITEM( '', ( #40 ), #41 );
#13 = STYLED_ITEM( '', ( #42 ), #43 );
#14 = STYLED_ITEM( '', ( #44 ), #45 );
#15 = STYLED_ITEM( '', ( #46 ), #47 );
#16 = STYLED_ITEM( '', ( #48 ), #49 );
#17 = STYLED_ITEM( '', ( #50 ), #51 );
#18 = STYLED_ITEM( '', ( #52 ), #53 );
#19 = STYLED_ITEM( '', ( #54 ), #55 );
#20 = STYLED_ITEM( '', ( #56 ), #57 );
#21 = STYLED_ITEM( '', ( #58 ), #59 );
#22 = STYLED_ITEM( '', ( #60 ), #61 );
#23 = APPLICATION_CONTEXT( 'core data for automotive mechanical design processes' );
#24 = PRODUCT_CATEGORY( 'part', 'NONE' );
#25 = PRODUCT_RELATED_PRODUCT_CATEGORY( 'detail', ' ', ( #62 ) );
#26 = PRODUCT_DEFINITION_SHAPE( 'NONE', 'NONE', #63 );
#27 = ADVANCED_BREP_SHAPE_REPRESENTATION( '_K0390.20X90', ( #64, #65 ), #6 );
#30 = UNCERTAINTY_MEASURE_WITH_UNIT( LENGTH_MEASURE( 0.00100000000000000 ), #32, '', '' );
#32 =  ( CONVERSION_BASED_UNIT( 'MILLIMETRE', #68 )LENGTH_UNIT(  )NAMED_UNIT( #71 ) );
#33 =  ( NAMED_UNIT( #73 )PLANE_ANGLE_UNIT(  )SI_UNIT( $, .RADIAN. ) );
#34 =  ( NAMED_UNIT( #73 )SI_UNIT( $, .STERADIAN. )SOLID_ANGLE_UNIT(  ) );
#36 = PRESENTATION_STYLE_ASSIGNMENT( ( #79 ) );
#37 = ADVANCED_FACE( '', ( #80 ), #81, .F. );
#38 = PRESENTATION_STYLE_ASSIGNMENT( ( #82 ) );
#39 = ADVANCED_FACE( '', ( #83, #84 ), #85, .T. );
#40 = PRESENTATION_STYLE_ASSIGNMENT( ( #86 ) );
#41 = ADVANCED_FACE( '', ( #87 ), #88, .T. );
#42 = PRESENTATION_STYLE_ASSIGNMENT( ( #89 ) );
#43 = ADVANCED_FACE( '', ( #90 ), #91, .T. );
#44 = PRESENTATION_STYLE_ASSIGNMENT( ( #92 ) );
#45 = ADVANCED_FACE( '', ( #93, #94 ), #95, .T. );
#46 = PRESENTATION_STYLE_ASSIGNMENT( ( #96 ) );
#47 = ADVANCED_FACE( '', ( #97, #98 ), #99, .T. );
#48 = PRESENTATION_STYLE_ASSIGNMENT( ( #100 ) );
#49 = ADVANCED_FACE( '', ( #101, #102 ), #103, .F. );
#50 = PRESENTATION_STYLE_ASSIGNMENT( ( #104 ) );
#51 = ADVANCED_FACE( '', ( #105 ), #106, .F. );
#52 = PRESENTATION_STYLE_ASSIGNMENT( ( #107 ) );
#53 = ADVANCED_FACE( '', ( #108 ), #109, .F. );
#54 = PRESENTATION_STYLE_ASSIGNMENT( ( #110 ) );
#55 = ADVANCED_FACE( '', ( #111, #112 ), #113, .T. );
#56 = PRESENTATION_STYLE_ASSIGNMENT( ( #114 ) );
#57 = ADVANCED_FACE( '', ( #115 ), #116, .F. );
#58 = PRESENTATION_STYLE_ASSIGNMENT( ( #117 ) );
#59 = ADVANCED_FACE( '', ( #118 ), #119, .T. );
#60 = PRESENTATION_STYLE_ASSIGNMENT( ( #120 ) );
#61 = ADVANCED_FACE( '', ( #121, #122 ), #123, .T. );
#62 = PRODUCT( '_K0390.20X90', '_K0390.20X90', 'PART-_K0390.20X90-DESC', ( #124 ) );
#63 = PRODUCT_DEFINITION( 'NONE', 'NONE', #125, #2 );
#64 = MANIFOLD_SOLID_BREP( '_K0390.20X90', #126 );
#65 = AXIS2_PLACEMENT_3D( '', #127, #128, #129 );
#68 = LENGTH_MEASURE_WITH_UNIT( LENGTH_MEASURE( 1.00000000000000 ), #130 );
#71 = DIMENSIONAL_EXPONENTS( 1.00000000000000, 0.000000000000000, 0.000000000000000, 0.000000000000000, 0.000000000000000, 0.000000000000000, 0.000000000000000 );
#73 = DIMENSIONAL_EXPONENTS( 0.000000000000000, 0.000000000000000, 0.000000000000000, 0.000000000000000, 0.000000000000000, 0.000000000000000, 0.000000000000000 );
#79 = SURFACE_STYLE_USAGE( .BOTH., #131 );
#80 = FACE_OUTER_BOUND( '', #132, .T. );
#81 = PLANE( '', #133 );
#82 = SURFACE_STYLE_USAGE( .BOTH., #134 );
#83 = FACE_OUTER_BOUND( '', #135, .T. );
#84 = FACE_OUTER_BOUND( '', #136, .T. );
#85 = CYLINDRICAL_SURFACE( '', #137, 10.0000000000000 );
#86 = SURFACE_STYLE_USAGE( .BOTH., #138 );
#87 = FACE_OUTER_BOUND( '', #139, .T. );
#88 = PLANE( '', #140 );
#89 = SURFACE_STYLE_USAGE( .BOTH., #141 );
#90 = FACE_OUTER_BOUND( '', #142, .T. );
#91 = CONICAL_SURFACE( '', #143, 8.46650000000000, 0.785398163400000 );
#92 = SURFACE_STYLE_USAGE( .BOTH., #144 );
#93 = FACE_OUTER_BOUND( '', #145, .T. );
#94 = FACE_OUTER_BOUND( '', #146, .T. );
#95 = CYLINDRICAL_SURFACE( '', #147, 7.20000000000000 );
#96 = SURFACE_STYLE_USAGE( .BOTH., #148 );
#97 = FACE_BOUND( '', #149, .T. );
#98 = FACE_OUTER_BOUND( '', #150, .T. );
#99 = CONICAL_SURFACE( '', #151, 10.0000000000000, 1.12234211560000 );
#100 = SURFACE_STYLE_USAGE( .BOTH., #152 );
#101 = FACE_OUTER_BOUND( '', #153, .T. );
#102 = FACE_BOUND( '', #154, .T. );
#103 = PLANE( '', #155 );
#104 = SURFACE_STYLE_USAGE( .BOTH., #156 );
#105 = FACE_OUTER_BOUND( '', #157, .T. );
#106 = PLANE( '', #158 );
#107 = SURFACE_STYLE_USAGE( .BOTH., #159 );
#108 = FACE_OUTER_BOUND( '', #160, .T. );
#109 = PLANE( '', #161 );
#110 = SURFACE_STYLE_USAGE( .BOTH., #162 );
#111 = FACE_OUTER_BOUND( '', #163, .T. );
#112 = FACE_OUTER_BOUND( '', #164, .T. );
#113 = CYLINDRICAL_SURFACE( '', #165, 7.75000000000000 );
#114 = SURFACE_STYLE_USAGE( .BOTH., #166 );
#115 = FACE_OUTER_BOUND( '', #167, .T. );
#116 = PLANE( '', #168 );
#117 = SURFACE_STYLE_USAGE( .BOTH., #169 );
#118 = FACE_OUTER_BOUND( '', #170, .T. );
#119 = CONICAL_SURFACE( '', #171, 8.46650000000000, 0.785398163400000 );
#120 = SURFACE_STYLE_USAGE( .BOTH., #172 );
#121 = FACE_BOUND( '', #173, .T. );
#122 = FACE_OUTER_BOUND( '', #174, .T. );
#123 = SPHERICAL_SURFACE( '', #175, 12.9998500000000 );
#124 = PRODUCT_CONTEXT( '', #23, 'mechanical' );
#125 = PRODUCT_DEFINITION_FORMATION_WITH_SPECIFIED_SOURCE( ' ', 'NONE', #62, .NOT_KNOWN. );
#126 = CLOSED_SHELL( '', ( #37, #53, #61, #55, #49, #45, #47, #39, #59, #51, #43, #57, #41 ) );
#127 = CARTESIAN_POINT( '', ( 0.000000000000000, 0.000000000000000, 0.000000000000000 ) );
#128 = DIRECTION( '', ( 0.000000000000000, 0.000000000000000, 1.00000000000000 ) );
#129 = DIRECTION( '', ( 1.00000000000000, 0.000000000000000, 0.000000000000000 ) );
#130 =  ( LENGTH_UNIT(  )NAMED_UNIT( #71 )SI_UNIT( .MILLI., .METRE. ) );
#131 = SURFACE_SIDE_STYLE( '', ( #177 ) );
#132 = EDGE_LOOP( '', ( #178, #179, #180, #181, #182, #183 ) );
#133 = AXIS2_PLACEMENT_3D( '', #184, #185, #186 );
#134 = SURFACE_SIDE_STYLE( '', ( #187 ) );
#135 = EDGE_LOOP( '', ( #188 ) );
#136 = EDGE_LOOP( '', ( #189, #190, #191, #192, #193, #194, #195, #196 ) );
#137 = AXIS2_PLACEMENT_3D( '', #197, #198, #199 );
#138 = SURFACE_SIDE_STYLE( '', ( #200 ) );
#139 = EDGE_LOOP( '', ( #201, #202, #203, #204 ) );
#140 = AXIS2_PLACEMENT_3D( '', #205, #206, #207 );
#141 = SURFACE_SIDE_STYLE( '', ( #208 ) );
#142 = EDGE_LOOP( '', ( #209, #210, #211, #212 ) );
#143 = AXIS2_PLACEMENT_3D( '', #213, #214, #215 );
#144 = SURFACE_SIDE_STYLE( '', ( #216 ) );
#145 = EDGE_LOOP( '', ( #217 ) );
#146 = EDGE_LOOP( '', ( #218 ) );
#147 = AXIS2_PLACEMENT_3D( '', #219, #220, #221 );
#148 = SURFACE_SIDE_STYLE( '', ( #222 ) );
#149 = EDGE_LOOP( '', ( #223 ) );
#150 = EDGE_LOOP( '', ( #224 ) );
#151 = AXIS2_PLACEMENT_3D( '', #225, #226, #227 );
#152 = SURFACE_SIDE_STYLE( '', ( #228 ) );
#153 = EDGE_LOOP( '', ( #229 ) );
#154 = EDGE_LOOP( '', ( #230 ) );
#155 = AXIS2_PLACEMENT_3D( '', #231, #232, #233 );
#156 = SURFACE_SIDE_STYLE( '', ( #234 ) );
#157 = EDGE_LOOP( '', ( #235, #236 ) );
#158 = AXIS2_PLACEMENT_3D( '', #237, #238, #239 );
#159 = SURFACE_SIDE_STYLE( '', ( #240 ) );
#160 = EDGE_LOOP( '', ( #241, #242, #243, #244, #245, #246 ) );
#161 = AXIS2_PLACEMENT_3D( '', #247, #248, #249 );
#162 = SURFACE_SIDE_STYLE( '', ( #250 ) );
#163 = EDGE_LOOP( '', ( #251 ) );
#164 = EDGE_LOOP( '', ( #252 ) );
#165 = AXIS2_PLACEMENT_3D( '', #253, #254, #255 );
#166 = SURFACE_SIDE_STYLE( '', ( #256 ) );
#167 = EDGE_LOOP( '', ( #257, #258 ) );
#168 = AXIS2_PLACEMENT_3D( '', #259, #260, #261 );
#169 = SURFACE_SIDE_STYLE( '', ( #262 ) );
#170 = EDGE_LOOP( '', ( #263, #264, #265, #266 ) );
#171 = AXIS2_PLACEMENT_3D( '', #267, #268, #269 );
#172 = SURFACE_SIDE_STYLE( '', ( #270 ) );
#173 = VERTEX_LOOP( '', #271 );
#174 = EDGE_LOOP( '', ( #272 ) );
#175 = AXIS2_PLACEMENT_3D( '', #273, #274, #275 );
#177 = SURFACE_STYLE_FILL_AREA( #276 );
#178 = ORIENTED_EDGE( '', *, *, #277, .F. );
#179 = ORIENTED_EDGE( '', *, *, #278, .T. );
#180 = ORIENTED_EDGE( '', *, *, #279, .F. );
#181 = ORIENTED_EDGE( '', *, *, #280, .F. );
#182 = ORIENTED_EDGE( '', *, *, #281, .F. );
#183 = ORIENTED_EDGE( '', *, *, #282, .F. );
#184 = CARTESIAN_POINT( '', ( 3.00000000000001, 0.900000000000014, 10.5000000000000 ) );
#185 = DIRECTION( '', ( 0.000000000000000, 1.00000000000000, 0.000000000000000 ) );
#186 = DIRECTION( '', ( 0.000000000000000, -0.000000000000000, 1.00000000000000 ) );
#187 = SURFACE_STYLE_FILL_AREA( #283 );
#188 = ORIENTED_EDGE( '', *, *, #284, .F. );
#189 = ORIENTED_EDGE( '', *, *, #285, .T. );
#190 = ORIENTED_EDGE( '', *, *, #286, .T. );
#191 = ORIENTED_EDGE( '', *, *, #287, .F. );
#192 = ORIENTED_EDGE( '', *, *, #280, .T. );
#193 = ORIENTED_EDGE( '', *, *, #288, .T. );
#194 = ORIENTED_EDGE( '', *, *, #282, .T. );
#195 = ORIENTED_EDGE( '', *, *, #289, .F. );
#196 = ORIENTED_EDGE( '', *, *, #290, .T. );
#197 = CARTESIAN_POINT( '', ( 90.0000000000000, 8.88178419700125E-15, 0.000000000000000 ) );
#198 = DIRECTION( '', ( -1.00000000000000, 6.12323399573677E-17, 0.000000000000000 ) );
#199 = DIRECTION( '', ( 6.12323399573677E-17, 1.00000000000000, 0.000000000000000 ) );
#200 = SURFACE_STYLE_FILL_AREA( #291 );
#201 = ORIENTED_EDGE( '', *, *, #287, .T. );
#202 = ORIENTED_EDGE( '', *, *, #292, .T. );
#203 = ORIENTED_EDGE( '', *, *, #289, .T. );
#204 = ORIENTED_EDGE( '', *, *, #281, .T. );
#205 = CARTESIAN_POINT( '', ( 3.00000000000001, -0.000000000000000, -0.000000000000000 ) );
#206 = DIRECTION( '', ( -1.00000000000000, 0.000000000000000, 0.000000000000000 ) );
#207 = DIRECTION( '', ( 0.000000000000000, 0.000000000000000, 1.00000000000000 ) );
#208 = SURFACE_STYLE_FILL_AREA( #293 );
#209 = ORIENTED_EDGE( '', *, *, #285, .F. );
#210 = ORIENTED_EDGE( '', *, *, #294, .T. );
#211 = ORIENTED_EDGE( '', *, *, #295, .T. );
#212 = ORIENTED_EDGE( '', *, *, #296, .T. );
#213 = CARTESIAN_POINT( '', ( 1.38777878078145E-14, 1.43926947931643E-14, 0.000000000000000 ) );
#214 = DIRECTION( '', ( 1.00000000000000, -6.12323399573677E-17, -0.000000000000000 ) );
#215 = DIRECTION( '', ( 6.12323399573677E-17, 1.00000000000000, 0.000000000000000 ) );
#216 = SURFACE_STYLE_FILL_AREA( #297 );
#217 = ORIENTED_EDGE( '', *, *, #298, .F. );
#218 = ORIENTED_EDGE( '', *, *, #299, .T. );
#219 = CARTESIAN_POINT( '', ( 90.0000000000000, 8.88178419700125E-15, 0.000000000000000 ) );
#220 = DIRECTION( '', ( -1.00000000000000, 6.12323399573677E-17, 0.000000000000000 ) );
#221 = DIRECTION( '', ( 6.12323399573677E-17, 1.00000000000000, 0.000000000000000 ) );
#222 = SURFACE_STYLE_FILL_AREA( #300 );
#223 = ORIENTED_EDGE( '', *, *, #299, .F. );
#224 = ORIENTED_EDGE( '', *, *, #284, .T. );
#225 = CARTESIAN_POINT( '', ( 76.0000000000000, 9.73903695640440E-15, 0.000000000000000 ) );
#226 = DIRECTION( '', ( -1.00000000000000, 6.12323399573677E-17, -0.000000000000000 ) );
#227 = DIRECTION( '', ( -6.12323399573677E-17, -1.00000000000000, 0.000000000000000 ) );
#228 = SURFACE_STYLE_FILL_AREA( #301 );
#229 = ORIENTED_EDGE( '', *, *, #302, .F. );
#230 = ORIENTED_EDGE( '', *, *, #298, .T. );
#231 = CARTESIAN_POINT( '', ( 84.5000000000000, 7.20000000000001, 0.000000000000000 ) );
#232 = DIRECTION( '', ( 1.00000000000000, -6.12323399573677E-17, -0.000000000000000 ) );
#233 = DIRECTION( '', ( 6.12323399573677E-17, 1.00000000000000, 0.000000000000000 ) );
#234 = SURFACE_STYLE_FILL_AREA( #303 );
#235 = ORIENTED_EDGE( '', *, *, #295, .F. );
#236 = ORIENTED_EDGE( '', *, *, #304, .F. );
#237 = CARTESIAN_POINT( '', ( 1.39516429120775E-14, 1.43926947931643E-14, 0.000000000000000 ) );
#238 = DIRECTION( '', ( 1.00000000000000, -6.12323399573677E-17, -0.000000000000000 ) );
#239 = DIRECTION( '', ( 6.12323399573677E-17, 1.00000000000000, 0.000000000000000 ) );
#240 = SURFACE_STYLE_FILL_AREA( #305 );
#241 = ORIENTED_EDGE( '', *, *, #304, .T. );
#242 = ORIENTED_EDGE( '', *, *, #294, .F. );
#243 = ORIENTED_EDGE( '', *, *, #290, .F. );
#244 = ORIENTED_EDGE( '', *, *, #292, .F. );
#245 = ORIENTED_EDGE( '', *, *, #286, .F. );
#246 = ORIENTED_EDGE( '', *, *, #296, .F. );
#247 = CARTESIAN_POINT( '', ( 3.00000000000001, -0.899999999999986, -10.5000000000000 ) );
#248 = DIRECTION( '', ( 0.000000000000000, -1.00000000000000, 0.000000000000000 ) );
#249 = DIRECTION( '', ( 0.000000000000000, 0.000000000000000, -1.00000000000000 ) );
#250 = SURFACE_STYLE_FILL_AREA( #306 );
#251 = ORIENTED_EDGE( '', *, *, #307, .F. );
#252 = ORIENTED_EDGE( '', *, *, #302, .T. );
#253 = CARTESIAN_POINT( '', ( 90.0000000000000, 8.88178419700125E-15, 0.000000000000000 ) );
#254 = DIRECTION( '', ( -1.00000000000000, 6.12323399573677E-17, 0.000000000000000 ) );
#255 = DIRECTION( '', ( 6.12323399573677E-17, 1.00000000000000, 0.000000000000000 ) );
#256 = SURFACE_STYLE_FILL_AREA( #308 );
#257 = ORIENTED_EDGE( '', *, *, #309, .F. );
#258 = ORIENTED_EDGE( '', *, *, #278, .F. );
#259 = CARTESIAN_POINT( '', ( 1.39516429120775E-14, 1.43926947931643E-14, 0.000000000000000 ) );
#260 = DIRECTION( '', ( 1.00000000000000, -6.12323399573677E-17, -0.000000000000000 ) );
#261 = DIRECTION( '', ( 6.12323399573677E-17, 1.00000000000000, 0.000000000000000 ) );
#262 = SURFACE_STYLE_FILL_AREA( #310 );
#263 = ORIENTED_EDGE( '', *, *, #309, .T. );
#264 = ORIENTED_EDGE( '', *, *, #277, .T. );
#265 = ORIENTED_EDGE( '', *, *, #288, .F. );
#266 = ORIENTED_EDGE( '', *, *, #279, .T. );
#267 = CARTESIAN_POINT( '', ( 1.38777878078145E-14, 1.43926947931643E-14, 0.000000000000000 ) );
#268 = DIRECTION( '', ( 1.00000000000000, -6.12323399573677E-17, -0.000000000000000 ) );
#269 = DIRECTION( '', ( 6.12323399573677E-17, 1.00000000000000, 0.000000000000000 ) );
#270 = SURFACE_STYLE_FILL_AREA( #311 );
#271 = VERTEX_POINT( '', #312 );
#272 = ORIENTED_EDGE( '', *, *, #307, .T. );
#273 = CARTESIAN_POINT( '', ( 77.0001500000001, 6.76542155630955E-14, 0.000000000000000 ) );
#274 = DIRECTION( '', ( 1.00000000000000, 0.000000000000000, 0.000000000000000 ) );
#275 = DIRECTION( '', ( 0.000000000000000, -1.00000000000000, 0.000000000000000 ) );
#276 = FILL_AREA_STYLE( '', ( #313 ) );
#277 = EDGE_CURVE( '', #314, #315, #316, .T. );
#278 = EDGE_CURVE( '', #314, #317, #318, .T. );
#279 = EDGE_CURVE( '', #319, #317, #320, .T. );
#280 = EDGE_CURVE( '', #321, #319, #322, .F. );
#281 = EDGE_CURVE( '', #323, #321, #324, .T. );
#282 = EDGE_CURVE( '', #315, #323, #325, .T. );
#283 = FILL_AREA_STYLE( '', ( #326 ) );
#284 = EDGE_CURVE( '', #327, #327, #328, .T. );
#285 = EDGE_CURVE( '', #329, #330, #331, .T. );
#286 = EDGE_CURVE( '', #330, #332, #333, .T. );
#287 = EDGE_CURVE( '', #321, #332, #334, .T. );
#288 = EDGE_CURVE( '', #319, #315, #335, .T. );
#289 = EDGE_CURVE( '', #336, #323, #337, .T. );
#290 = EDGE_CURVE( '', #336, #329, #338, .F. );
#291 = FILL_AREA_STYLE( '', ( #339 ) );
#292 = EDGE_CURVE( '', #332, #336, #340, .T. );
#293 = FILL_AREA_STYLE( '', ( #341 ) );
#294 = EDGE_CURVE( '', #329, #342, #343, .T. );
#295 = EDGE_CURVE( '', #342, #344, #345, .T. );
#296 = EDGE_CURVE( '', #344, #330, #346, .T. );
#297 = FILL_AREA_STYLE( '', ( #347 ) );
#298 = EDGE_CURVE( '', #348, #348, #349, .T. );
#299 = EDGE_CURVE( '', #350, #350, #351, .T. );
#300 = FILL_AREA_STYLE( '', ( #352 ) );
#301 = FILL_AREA_STYLE( '', ( #353 ) );
#302 = EDGE_CURVE( '', #354, #354, #355, .T. );
#303 = FILL_AREA_STYLE( '', ( #356 ) );
#304 = EDGE_CURVE( '', #344, #342, #357, .T. );
#305 = FILL_AREA_STYLE( '', ( #358 ) );
#306 = FILL_AREA_STYLE( '', ( #359 ) );
#307 = EDGE_CURVE( '', #360, #360, #361, .T. );
#308 = FILL_AREA_STYLE( '', ( #362 ) );
#309 = EDGE_CURVE( '', #317, #314, #363, .T. );
#310 = FILL_AREA_STYLE( '', ( #364 ) );
#311 = FILL_AREA_STYLE( '', ( #365 ) );
#312 = CARTESIAN_POINT( '', ( 90.0000000000000, 6.60621930939059E-14, 0.000000000000000 ) );
#313 = FILL_AREA_STYLE_COLOUR( '', #366 );
#314 = VERTEX_POINT( '', #367 );
#315 = VERTEX_POINT( '', #368 );
#316 = B_SPLINE_CURVE_WITH_KNOTS( '', 3, ( #369, #370, #371, #372 ), .UNSPECIFIED., .F., .F., ( 4, 4 ), ( 0.0420335464893133, 0.0442124251860489 ), .UNSPECIFIED. );
#317 = VERTEX_POINT( '', #373 );
#318 = LINE( '', #374, #375 );
#319 = VERTEX_POINT( '', #376 );
#320 = B_SPLINE_CURVE_WITH_KNOTS( '', 3, ( #377, #378, #379, #380 ), .UNSPECIFIED., .F., .F., ( 4, 4 ), ( 0.0170363399290314, 0.0192102676191475 ), .UNSPECIFIED. );
#321 = VERTEX_POINT( '', #381 );
#322 = LINE( '', #382, #383 );
#323 = VERTEX_POINT( '', #384 );
#324 = LINE( '', #385, #386 );
#325 = LINE( '', #387, #388 );
#326 = FILL_AREA_STYLE_COLOUR( '', #389 );
#327 = VERTEX_POINT( '', #390 );
#328 = CIRCLE( '', #391, 10.0000000000000 );
#329 = VERTEX_POINT( '', #392 );
#330 = VERTEX_POINT( '', #393 );
#331 = CIRCLE( '', #394, 10.0000000000000 );
#332 = VERTEX_POINT( '', #395 );
#333 = LINE( '', #396, #397 );
#334 = CIRCLE( '', #398, 10.0000000000000 );
#335 = CIRCLE( '', #399, 10.0000000000000 );
#336 = VERTEX_POINT( '', #400 );
#337 = CIRCLE( '', #401, 10.0000000000000 );
#338 = LINE( '', #402, #403 );
#339 = FILL_AREA_STYLE_COLOUR( '', #404 );
#340 = LINE( '', #405, #406 );
#341 = FILL_AREA_STYLE_COLOUR( '', #407 );
#342 = VERTEX_POINT( '', #408 );
#343 = B_SPLINE_CURVE_WITH_KNOTS( '', 3, ( #409, #410, #411, #412 ), .UNSPECIFIED., .F., .F., ( 4, 4 ), ( 0.0170363399290314, 0.0192102676191475 ), .UNSPECIFIED. );
#344 = VERTEX_POINT( '', #413 );
#345 = CIRCLE( '', #414, 8.46650000000000 );
#346 = B_SPLINE_CURVE_WITH_KNOTS( '', 3, ( #415, #416, #417, #418 ), .UNSPECIFIED., .F., .F., ( 4, 4 ), ( 0.0420335464893133, 0.0442124251860489 ), .UNSPECIFIED. );
#347 = FILL_AREA_STYLE_COLOUR( '', #419 );
#348 = VERTEX_POINT( '', #420 );
#349 = CIRCLE( '', #421, 7.20000000000000 );
#350 = VERTEX_POINT( '', #422 );
#351 = CIRCLE( '', #423, 7.20000000000000 );
#352 = FILL_AREA_STYLE_COLOUR( '', #424 );
#353 = FILL_AREA_STYLE_COLOUR( '', #425 );
#354 = VERTEX_POINT( '', #426 );
#355 = CIRCLE( '', #427, 7.75000000000000 );
#356 = FILL_AREA_STYLE_COLOUR( '', #428 );
#357 = LINE( '', #429, #430 );
#358 = FILL_AREA_STYLE_COLOUR( '', #431 );
#359 = FILL_AREA_STYLE_COLOUR( '', #432 );
#360 = VERTEX_POINT( '', #433 );
#361 = CIRCLE( '', #434, 7.75000000000000 );
#362 = FILL_AREA_STYLE_COLOUR( '', #435 );
#363 = CIRCLE( '', #436, 8.46650000000000 );
#364 = FILL_AREA_STYLE_COLOUR( '', #437 );
#365 = FILL_AREA_STYLE_COLOUR( '', #438 );
#366 = COLOUR_RGB( '', 0.689999997600000, 0.689999997600000, 0.689999997600000 );
#367 = CARTESIAN_POINT( '', ( 1.42108547152020E-14, 0.900000000000014, 8.41852850859341 ) );
#368 = CARTESIAN_POINT( '', ( 1.53350000000002, 0.900000000000020, 9.95941765365827 ) );
#369 = CARTESIAN_POINT( '', ( 1.06855184291770E-14, 0.900000000000014, 8.41852850859341 ) );
#370 = CARTESIAN_POINT( '', ( 0.510941899449521, 0.900000000000014, 8.93238191982478 ) );
#371 = CARTESIAN_POINT( '', ( 1.02214318709476, 0.900000000000014, 9.44597717883551 ) );
#372 = CARTESIAN_POINT( '', ( 1.53350000000001, 0.900000000000014, 9.95941765365827 ) );
#373 = CARTESIAN_POINT( '', ( 1.42108547152020E-14, 0.900000000000014, -8.41852850859341 ) );
#374 = CARTESIAN_POINT( '', ( 1.42108547152020E-14, 0.900000000000014, 10.5000000000000 ) );
#375 = VECTOR( '', #439, 1000.00000000000 );
#376 = CARTESIAN_POINT( '', ( 1.53350000000002, 0.900000000000020, -9.95941765365827 ) );
#377 = CARTESIAN_POINT( '', ( 1.53350000000001, 0.900000000000014, -9.95941765365827 ) );
#378 = CARTESIAN_POINT( '', ( 1.02214317772922, 0.900000000000014, -9.44597716943180 ) );
#379 = CARTESIAN_POINT( '', ( 0.510941888387734, 0.900000000000014, -8.93238190869996 ) );
#380 = CARTESIAN_POINT( '', ( 1.64454118502801E-14, 0.900000000000014, -8.41852850859341 ) );
#381 = CARTESIAN_POINT( '', ( 3.00000000000002, 0.900000000000014, -9.95941765365827 ) );
#382 = CARTESIAN_POINT( '', ( 90.0000000000000, 0.900000000000014, -9.95941765365827 ) );
#383 = VECTOR( '', #440, 1000.00000000000 );
#384 = CARTESIAN_POINT( '', ( 3.00000000000002, 0.900000000000014, 9.95941765365827 ) );
#385 = CARTESIAN_POINT( '', ( 3.00000000000001, 0.900000000000014, 10.5000000000000 ) );
#386 = VECTOR( '', #441, 1000.00000000000 );
#387 = CARTESIAN_POINT( '', ( 90.0000000000000, 0.900000000000014, 9.95941765365827 ) );
#388 = VECTOR( '', #442, 1000.00000000000 );
#389 = COLOUR_RGB( '', 0.689999997600000, 0.689999997600000, 0.689999997600000 );
#390 = CARTESIAN_POINT( '', ( 76.0000000000000, 10.0000000000000, 0.000000000000000 ) );
#391 = AXIS2_PLACEMENT_3D( '', #443, #444, #445 );
#392 = CARTESIAN_POINT( '', ( 1.53350000000002, -0.899999999999980, 9.95941765365827 ) );
#393 = CARTESIAN_POINT( '', ( 1.53350000000002, -0.899999999999980, -9.95941765365827 ) );
#394 = AXIS2_PLACEMENT_3D( '', #446, #447, #448 );
#395 = CARTESIAN_POINT( '', ( 3.00000000000002, -0.899999999999985, -9.95941765365827 ) );
#396 = CARTESIAN_POINT( '', ( 90.0000000000000, -0.899999999999986, -9.95941765365827 ) );
#397 = VECTOR( '', #449, 1000.00000000000 );
#398 = AXIS2_PLACEMENT_3D( '', #450, #451, #452 );
#399 = AXIS2_PLACEMENT_3D( '', #453, #454, #455 );
#400 = CARTESIAN_POINT( '', ( 3.00000000000002, -0.899999999999985, 9.95941765365827 ) );
#401 = AXIS2_PLACEMENT_3D( '', #456, #457, #458 );
#402 = CARTESIAN_POINT( '', ( 90.0000000000000, -0.899999999999986, 9.95941765365827 ) );
#403 = VECTOR( '', #459, 1000.00000000000 );
#404 = COLOUR_RGB( '', 0.689999997600000, 0.689999997600000, 0.689999997600000 );
#405 = CARTESIAN_POINT( '', ( 3.00000000000001, -0.899999999999986, -10.5000000000000 ) );
#406 = VECTOR( '', #460, 1000.00000000000 );
#407 = COLOUR_RGB( '', 0.689999997600000, 0.689999997600000, 0.689999997600000 );
#408 = CARTESIAN_POINT( '', ( 1.42108547152020E-14, -0.899999999999985, 8.41852850859341 ) );
#409 = CARTESIAN_POINT( '', ( 1.53350000000001, -0.899999999999986, 9.95941765365827 ) );
#410 = CARTESIAN_POINT( '', ( 1.02214317772922, -0.899999999999986, 9.44597716943180 ) );
#411 = CARTESIAN_POINT( '', ( 0.510941888387730, -0.899999999999986, 8.93238190869996 ) );
#412 = CARTESIAN_POINT( '', ( 1.20503297854486E-14, -0.899999999999986, 8.41852850859341 ) );
#413 = CARTESIAN_POINT( '', ( 1.42108547152020E-14, -0.899999999999985, -8.41852850859341 ) );
#414 = AXIS2_PLACEMENT_3D( '', #461, #462, #463 );
#415 = CARTESIAN_POINT( '', ( 1.08452509604183E-14, -0.899999999999986, -8.41852850859341 ) );
#416 = CARTESIAN_POINT( '', ( 0.510941899449521, -0.899999999999986, -8.93238191982478 ) );
#417 = CARTESIAN_POINT( '', ( 1.02214318709476, -0.899999999999986, -9.44597717883551 ) );
#418 = CARTESIAN_POINT( '', ( 1.53350000000001, -0.899999999999986, -9.95941765365828 ) );
#419 = COLOUR_RGB( '', 0.689999997600000, 0.689999997600000, 0.689999997600000 );
#420 = CARTESIAN_POINT( '', ( 84.5000000000000, 7.20000000000001, 0.000000000000000 ) );
#421 = AXIS2_PLACEMENT_3D( '', #464, #465, #466 );
#422 = CARTESIAN_POINT( '', ( 77.3472200000000, 7.20000000000001, 0.000000000000000 ) );
#423 = AXIS2_PLACEMENT_3D( '', #467, #468, #469 );
#424 = COLOUR_RGB( '', 0.689999997600000, 0.689999997600000, 0.689999997600000 );
#425 = COLOUR_RGB( '', 0.689999997600000, 0.689999997600000, 0.689999997600000 );
#426 = CARTESIAN_POINT( '', ( 84.5000000000000, 7.75000000000001, 0.000000000000000 ) );
#427 = AXIS2_PLACEMENT_3D( '', #470, #471, #472 );
#428 = COLOUR_RGB( '', 0.689999997600000, 0.689999997600000, 0.689999997600000 );
#429 = CARTESIAN_POINT( '', ( 1.42108547152020E-14, -0.899999999999986, -10.5000000000000 ) );
#430 = VECTOR( '', #473, 1000.00000000000 );
#431 = COLOUR_RGB( '', 0.689999997600000, 0.689999997600000, 0.689999997600000 );
#432 = COLOUR_RGB( '', 0.689999997600000, 0.689999997600000, 0.689999997600000 );
#433 = CARTESIAN_POINT( '', ( 87.4372760422829, 7.75000000000001, 0.000000000000000 ) );
#434 = AXIS2_PLACEMENT_3D( '', #474, #475, #476 );
#435 = COLOUR_RGB( '', 0.689999997600000, 0.689999997600000, 0.689999997600000 );
#436 = AXIS2_PLACEMENT_3D( '', #477, #478, #479 );
#437 = COLOUR_RGB( '', 0.689999997600000, 0.689999997600000, 0.689999997600000 );
#438 = COLOUR_RGB( '', 0.689999997600000, 0.689999997600000, 0.689999997600000 );
#439 = DIRECTION( '', ( 0.000000000000000, 0.000000000000000, -1.00000000000000 ) );
#440 = DIRECTION( '', ( 1.00000000000000, -6.12323399573677E-17, -0.000000000000000 ) );
#441 = DIRECTION( '', ( 0.000000000000000, 0.000000000000000, -1.00000000000000 ) );
#442 = DIRECTION( '', ( 1.00000000000000, -6.12323399573677E-17, -0.000000000000000 ) );
#443 = CARTESIAN_POINT( '', ( 76.0000000000000, 9.73903695640440E-15, 0.000000000000000 ) );
#444 = DIRECTION( '', ( 1.00000000000000, -6.12323399573677E-17, -0.000000000000000 ) );
#445 = DIRECTION( '', ( 6.12323399573677E-17, 1.00000000000000, 0.000000000000000 ) );
#446 = CARTESIAN_POINT( '', ( 1.53350000000001, 1.42987949998397E-14, 0.000000000000000 ) );
#447 = DIRECTION( '', ( 1.00000000000000, -6.12323399573677E-17, -0.000000000000000 ) );
#448 = DIRECTION( '', ( 6.12323399573677E-17, 1.00000000000000, 0.000000000000000 ) );
#449 = DIRECTION( '', ( 1.00000000000000, -6.12323399573677E-17, -0.000000000000000 ) );
#450 = CARTESIAN_POINT( '', ( 3.00000000000002, 1.42089977732922E-14, 0.000000000000000 ) );
#451 = DIRECTION( '', ( -1.00000000000000, 0.000000000000000, 0.000000000000000 ) );
#452 = DIRECTION( '', ( 0.000000000000000, 0.000000000000000, 1.00000000000000 ) );
#453 = CARTESIAN_POINT( '', ( 1.53350000000001, 1.42987949998397E-14, 0.000000000000000 ) );
#454 = DIRECTION( '', ( 1.00000000000000, -6.12323399573677E-17, -0.000000000000000 ) );
#455 = DIRECTION( '', ( 6.12323399573677E-17, 1.00000000000000, 0.000000000000000 ) );
#456 = CARTESIAN_POINT( '', ( 3.00000000000002, 1.42089977732922E-14, 0.000000000000000 ) );
#457 = DIRECTION( '', ( -1.00000000000000, 0.000000000000000, 0.000000000000000 ) );
#458 = DIRECTION( '', ( 0.000000000000000, 0.000000000000000, 1.00000000000000 ) );
#459 = DIRECTION( '', ( 1.00000000000000, -6.12323399573677E-17, -0.000000000000000 ) );
#460 = DIRECTION( '', ( 0.000000000000000, 0.000000000000000, 1.00000000000000 ) );
#461 = CARTESIAN_POINT( '', ( 1.38777878078145E-14, 1.43926947931643E-14, 0.000000000000000 ) );
#462 = DIRECTION( '', ( 1.00000000000000, -6.12323399573677E-17, -0.000000000000000 ) );
#463 = DIRECTION( '', ( 6.12323399573677E-17, 1.00000000000000, 0.000000000000000 ) );
#464 = CARTESIAN_POINT( '', ( 84.5000000000000, 9.21856206676677E-15, 0.000000000000000 ) );
#465 = DIRECTION( '', ( 1.00000000000000, -6.12323399573677E-17, -0.000000000000000 ) );
#466 = DIRECTION( '', ( 6.12323399573677E-17, 1.00000000000000, 0.000000000000000 ) );
#467 = CARTESIAN_POINT( '', ( 77.3472200000000, 9.65654352336703E-15, 0.000000000000000 ) );
#468 = DIRECTION( '', ( 1.00000000000000, -6.12323399573677E-17, -0.000000000000000 ) );
#469 = DIRECTION( '', ( 6.12323399573677E-17, 1.00000000000000, 0.000000000000000 ) );
#470 = CARTESIAN_POINT( '', ( 84.5000000000000, 9.21856206676677E-15, 0.000000000000000 ) );
#471 = DIRECTION( '', ( 1.00000000000000, -6.12323399573677E-17, -0.000000000000000 ) );
#472 = DIRECTION( '', ( 6.12323399573677E-17, 1.00000000000000, 0.000000000000000 ) );
#473 = DIRECTION( '', ( 0.000000000000000, 0.000000000000000, 1.00000000000000 ) );
#474 = CARTESIAN_POINT( '', ( 87.4372760422829, 9.03870578159707E-15, 0.000000000000000 ) );
#475 = DIRECTION( '', ( 1.00000000000000, -6.12323399573677E-17, -0.000000000000000 ) );
#476 = DIRECTION( '', ( 6.12323399573677E-17, 1.00000000000000, 0.000000000000000 ) );
#477 = CARTESIAN_POINT( '', ( 1.38777878078145E-14, 1.43926947931643E-14, 0.000000000000000 ) );
#478 = DIRECTION( '', ( 1.00000000000000, -6.12323399573677E-17, -0.000000000000000 ) );
#479 = DIRECTION( '', ( 6.12323399573677E-17, 1.00000000000000, 0.000000000000000 ) );
ENDSEC;
END-ISO-10303-21;
