ISO-10303-21;
HEADER;
FILE_DESCRIPTION( ( 'STEP AP214' ), '1' );
FILE_NAME( '//goodhand-server/Shared Folders/GoodHand Data/Kipp CAD/K0761/K0761.222.stp', '2020-12-10T08:53:34', ( '' ), ( '' ), ' ', 'PARTsolutions', ' ' );
FILE_SCHEMA( ( 'AUTOMOTIVE_DESIGN { 1 0 10303 214 1 1 1 1 }' ) );
ENDSEC;
DATA;
#1 = MECHANICAL_DESIGN_GEOMETRIC_PRESENTATION_REPRESENTATION( ' ', ( #10, #11, #12, #13, #14, #15, #16, #17, #18, #19, #20, #21, #22, #23, #24 ), #6 );
#2 = PRODUCT_DEFINITION_CONTEXT( '', #25, 'design' );
#3 = APPLICATION_PROTOCOL_DEFINITION( 'international standard', 'automotive_design', 2001, #25 );
#4 = PRODUCT_CATEGORY_RELATIONSHIP( 'NONE', 'NONE', #26, #27 );
#5 = SHAPE_DEFINITION_REPRESENTATION( #28, #29 );
#6 =  ( GEOMETRIC_REPRESENTATION_CONTEXT( 3 )GLOBAL_UNCERTAINTY_ASSIGNED_CONTEXT( ( #32 ) )GLOBAL_UNIT_ASSIGNED_CONTEXT( ( #34, #35, #36 ) )REPRESENTATION_CONTEXT( 'NONE', 'WORKSPACE' ) );
#10 = STYLED_ITEM( '', ( #38 ), #39 );
#11 = STYLED_ITEM( '', ( #40 ), #41 );
#12 = STYLED_ITEM( '', ( #42 ), #43 );
#13 = STYLED_ITEM( '', ( #44 ), #45 );
#14 = STYLED_ITEM( '', ( #46 ), #47 );
#15 = STYLED_ITEM( '', ( #48 ), #49 );
#16 = STYLED_ITEM( '', ( #50 ), #51 );
#17 = STYLED_ITEM( '', ( #52 ), #53 );
#18 = STYLED_ITEM( '', ( #54 ), #55 );
#19 = STYLED_ITEM( '', ( #56 ), #57 );
#20 = STYLED_ITEM( '', ( #58 ), #59 );
#21 = STYLED_ITEM( '', ( #60 ), #61 );
#22 = STYLED_ITEM( '', ( #62 ), #63 );
#23 = STYLED_ITEM( '', ( #64 ), #65 );
#24 = STYLED_ITEM( '', ( #66 ), #67 );
#25 = APPLICATION_CONTEXT( 'core data for automotive mechanical design processes' );
#26 = PRODUCT_CATEGORY( 'part', 'NONE' );
#27 = PRODUCT_RELATED_PRODUCT_CATEGORY( 'detail', ' ', ( #68 ) );
#28 = PRODUCT_DEFINITION_SHAPE( 'NONE', 'NONE', #69 );
#29 = ADVANCED_BREP_SHAPE_REPRESENTATION( '_K0761.222', ( #70, #71 ), #6 );
#32 = UNCERTAINTY_MEASURE_WITH_UNIT( LENGTH_MEASURE( 0.00100000000000000 ), #34, '', '' );
#34 =  ( CONVERSION_BASED_UNIT( 'MILLIMETRE', #74 )LENGTH_UNIT(  )NAMED_UNIT( #77 ) );
#35 =  ( NAMED_UNIT( #79 )PLANE_ANGLE_UNIT(  )SI_UNIT( $, .RADIAN. ) );
#36 =  ( NAMED_UNIT( #79 )SI_UNIT( $, .STERADIAN. )SOLID_ANGLE_UNIT(  ) );
#38 = PRESENTATION_STYLE_ASSIGNMENT( ( #85 ) );
#39 = ADVANCED_FACE( '', ( #86, #87 ), #88, .T. );
#40 = PRESENTATION_STYLE_ASSIGNMENT( ( #89 ) );
#41 = ADVANCED_FACE( '', ( #90, #91 ), #92, .F. );
#42 = PRESENTATION_STYLE_ASSIGNMENT( ( #93 ) );
#43 = ADVANCED_FACE( '', ( #94, #95 ), #96, .T. );
#44 = PRESENTATION_STYLE_ASSIGNMENT( ( #97 ) );
#45 = ADVANCED_FACE( '', ( #98, #99 ), #100, .T. );
#46 = PRESENTATION_STYLE_ASSIGNMENT( ( #101 ) );
#47 = ADVANCED_FACE( '', ( #102, #103 ), #104, .T. );
#48 = PRESENTATION_STYLE_ASSIGNMENT( ( #105 ) );
#49 = ADVANCED_FACE( '', ( #106, #107 ), #108, .T. );
#50 = PRESENTATION_STYLE_ASSIGNMENT( ( #109 ) );
#51 = ADVANCED_FACE( '', ( #110, #111 ), #112, .T. );
#52 = PRESENTATION_STYLE_ASSIGNMENT( ( #113 ) );
#53 = ADVANCED_FACE( '', ( #114 ), #115, .F. );
#54 = PRESENTATION_STYLE_ASSIGNMENT( ( #116 ) );
#55 = ADVANCED_FACE( '', ( #117, #118 ), #119, .F. );
#56 = PRESENTATION_STYLE_ASSIGNMENT( ( #120 ) );
#57 = ADVANCED_FACE( '', ( #121, #122 ), #123, .F. );
#58 = PRESENTATION_STYLE_ASSIGNMENT( ( #124 ) );
#59 = ADVANCED_FACE( '', ( #125, #126 ), #127, .T. );
#60 = PRESENTATION_STYLE_ASSIGNMENT( ( #128 ) );
#61 = ADVANCED_FACE( '', ( #129, #130 ), #131, .T. );
#62 = PRESENTATION_STYLE_ASSIGNMENT( ( #132 ) );
#63 = ADVANCED_FACE( '', ( #133, #134 ), #135, .F. );
#64 = PRESENTATION_STYLE_ASSIGNMENT( ( #136 ) );
#65 = ADVANCED_FACE( '', ( #137, #138 ), #139, .F. );
#66 = PRESENTATION_STYLE_ASSIGNMENT( ( #140 ) );
#67 = ADVANCED_FACE( '', ( #141, #142 ), #143, .T. );
#68 = PRODUCT( '_K0761.222', '_K0761.222', 'PART-_K0761.222-DESC', ( #144 ) );
#69 = PRODUCT_DEFINITION( 'NONE', 'NONE', #145, #2 );
#70 = MANIFOLD_SOLID_BREP( '_K0761.222', #146 );
#71 = AXIS2_PLACEMENT_3D( '', #147, #148, #149 );
#74 = LENGTH_MEASURE_WITH_UNIT( LENGTH_MEASURE( 1.00000000000000 ), #150 );
#77 = DIMENSIONAL_EXPONENTS( 1.00000000000000, 0.000000000000000, 0.000000000000000, 0.000000000000000, 0.000000000000000, 0.000000000000000, 0.000000000000000 );
#79 = DIMENSIONAL_EXPONENTS( 0.000000000000000, 0.000000000000000, 0.000000000000000, 0.000000000000000, 0.000000000000000, 0.000000000000000, 0.000000000000000 );
#85 = SURFACE_STYLE_USAGE( .BOTH., #151 );
#86 = FACE_OUTER_BOUND( '', #152, .T. );
#87 = FACE_OUTER_BOUND( '', #153, .T. );
#88 = CYLINDRICAL_SURFACE( '', #154, 18.0000000000000 );
#89 = SURFACE_STYLE_USAGE( .BOTH., #155 );
#90 = FACE_OUTER_BOUND( '', #156, .T. );
#91 = FACE_BOUND( '', #157, .T. );
#92 = PLANE( '', #158 );
#93 = SURFACE_STYLE_USAGE( .BOTH., #159 );
#94 = FACE_OUTER_BOUND( '', #160, .T. );
#95 = FACE_OUTER_BOUND( '', #161, .T. );
#96 = TOROIDAL_SURFACE( '', #162, 15.6240000000000, 2.37600000000000 );
#97 = SURFACE_STYLE_USAGE( .BOTH., #163 );
#98 = FACE_OUTER_BOUND( '', #164, .T. );
#99 = FACE_OUTER_BOUND( '', #165, .T. );
#100 = TOROIDAL_SURFACE( '', #166, 21.3120000000000, 1.18800000000000 );
#101 = SURFACE_STYLE_USAGE( .BOTH., #167 );
#102 = FACE_OUTER_BOUND( '', #168, .T. );
#103 = FACE_BOUND( '', #169, .T. );
#104 = CONICAL_SURFACE( '', #170, 12.6294790733000, 0.436332313000000 );
#105 = SURFACE_STYLE_USAGE( .BOTH., #171 );
#106 = FACE_OUTER_BOUND( '', #172, .T. );
#107 = FACE_OUTER_BOUND( '', #173, .T. );
#108 = TOROIDAL_SURFACE( '', #174, 8.90796273010000, 0.111000000000000 );
#109 = SURFACE_STYLE_USAGE( .BOTH., #175 );
#110 = FACE_BOUND( '', #176, .T. );
#111 = FACE_OUTER_BOUND( '', #177, .T. );
#112 = SPHERICAL_SURFACE( '', #178, 11.1100000000000 );
#113 = SURFACE_STYLE_USAGE( .BOTH., #179 );
#114 = FACE_OUTER_BOUND( '', #180, .T. );
#115 = PLANE( '', #181 );
#116 = SURFACE_STYLE_USAGE( .BOTH., #182 );
#117 = FACE_OUTER_BOUND( '', #183, .T. );
#118 = FACE_BOUND( '', #184, .T. );
#119 = PLANE( '', #185 );
#120 = SURFACE_STYLE_USAGE( .BOTH., #186 );
#121 = FACE_BOUND( '', #187, .T. );
#122 = FACE_OUTER_BOUND( '', #188, .T. );
#123 = PLANE( '', #189 );
#124 = SURFACE_STYLE_USAGE( .BOTH., #190 );
#125 = FACE_OUTER_BOUND( '', #191, .T. );
#126 = FACE_OUTER_BOUND( '', #192, .T. );
#127 = TOROIDAL_SURFACE( '', #193, 21.3120000000000, 1.18800000000000 );
#128 = SURFACE_STYLE_USAGE( .BOTH., #194 );
#129 = FACE_OUTER_BOUND( '', #195, .T. );
#130 = FACE_OUTER_BOUND( '', #196, .T. );
#131 = CYLINDRICAL_SURFACE( '', #197, 22.5000000000000 );
#132 = SURFACE_STYLE_USAGE( .BOTH., #198 );
#133 = FACE_OUTER_BOUND( '', #199, .T. );
#134 = FACE_OUTER_BOUND( '', #200, .T. );
#135 = SPHERICAL_SURFACE( '', #201, 11.1500000000000 );
#136 = SURFACE_STYLE_USAGE( .BOTH., #202 );
#137 = FACE_OUTER_BOUND( '', #203, .T. );
#138 = FACE_OUTER_BOUND( '', #204, .T. );
#139 = TOROIDAL_SURFACE( '', #205, 13.9667176731000, 0.732600000000000 );
#140 = SURFACE_STYLE_USAGE( .BOTH., #206 );
#141 = FACE_OUTER_BOUND( '', #207, .T. );
#142 = FACE_OUTER_BOUND( '', #208, .T. );
#143 = TOROIDAL_SURFACE( '', #209, 11.3216769366000, 1.44300000000000 );
#144 = PRODUCT_CONTEXT( '', #25, 'mechanical' );
#145 = PRODUCT_DEFINITION_FORMATION_WITH_SPECIFIED_SOURCE( ' ', 'NONE', #68, .NOT_KNOWN. );
#146 = CLOSED_SHELL( '', ( #43, #53, #39, #63, #49, #55, #67, #47, #65, #41, #59, #61, #45, #57, #51 ) );
#147 = CARTESIAN_POINT( '', ( 0.000000000000000, 0.000000000000000, 0.000000000000000 ) );
#148 = DIRECTION( '', ( 0.000000000000000, 0.000000000000000, 1.00000000000000 ) );
#149 = DIRECTION( '', ( 1.00000000000000, 0.000000000000000, 0.000000000000000 ) );
#150 =  ( LENGTH_UNIT(  )NAMED_UNIT( #77 )SI_UNIT( .MILLI., .METRE. ) );
#151 = SURFACE_SIDE_STYLE( '', ( #211 ) );
#152 = EDGE_LOOP( '', ( #212 ) );
#153 = EDGE_LOOP( '', ( #213 ) );
#154 = AXIS2_PLACEMENT_3D( '', #214, #215, #216 );
#155 = SURFACE_SIDE_STYLE( '', ( #217 ) );
#156 = EDGE_LOOP( '', ( #218 ) );
#157 = EDGE_LOOP( '', ( #219 ) );
#158 = AXIS2_PLACEMENT_3D( '', #220, #221, #222 );
#159 = SURFACE_SIDE_STYLE( '', ( #223 ) );
#160 = EDGE_LOOP( '', ( #224 ) );
#161 = EDGE_LOOP( '', ( #225 ) );
#162 = AXIS2_PLACEMENT_3D( '', #226, #227, #228 );
#163 = SURFACE_SIDE_STYLE( '', ( #229 ) );
#164 = EDGE_LOOP( '', ( #230 ) );
#165 = EDGE_LOOP( '', ( #231 ) );
#166 = AXIS2_PLACEMENT_3D( '', #232, #233, #234 );
#167 = SURFACE_SIDE_STYLE( '', ( #235 ) );
#168 = EDGE_LOOP( '', ( #236 ) );
#169 = EDGE_LOOP( '', ( #237 ) );
#170 = AXIS2_PLACEMENT_3D( '', #238, #239, #240 );
#171 = SURFACE_SIDE_STYLE( '', ( #241 ) );
#172 = EDGE_LOOP( '', ( #242 ) );
#173 = EDGE_LOOP( '', ( #243 ) );
#174 = AXIS2_PLACEMENT_3D( '', #244, #245, #246 );
#175 = SURFACE_SIDE_STYLE( '', ( #247 ) );
#176 = VERTEX_LOOP( '', #248 );
#177 = EDGE_LOOP( '', ( #249 ) );
#178 = AXIS2_PLACEMENT_3D( '', #250, #251, #252 );
#179 = SURFACE_SIDE_STYLE( '', ( #253 ) );
#180 = EDGE_LOOP( '', ( #254 ) );
#181 = AXIS2_PLACEMENT_3D( '', #255, #256, #257 );
#182 = SURFACE_SIDE_STYLE( '', ( #258 ) );
#183 = EDGE_LOOP( '', ( #259 ) );
#184 = EDGE_LOOP( '', ( #260 ) );
#185 = AXIS2_PLACEMENT_3D( '', #261, #262, #263 );
#186 = SURFACE_SIDE_STYLE( '', ( #264 ) );
#187 = EDGE_LOOP( '', ( #265 ) );
#188 = EDGE_LOOP( '', ( #266 ) );
#189 = AXIS2_PLACEMENT_3D( '', #267, #268, #269 );
#190 = SURFACE_SIDE_STYLE( '', ( #270 ) );
#191 = EDGE_LOOP( '', ( #271 ) );
#192 = EDGE_LOOP( '', ( #272 ) );
#193 = AXIS2_PLACEMENT_3D( '', #273, #274, #275 );
#194 = SURFACE_SIDE_STYLE( '', ( #276 ) );
#195 = EDGE_LOOP( '', ( #277 ) );
#196 = EDGE_LOOP( '', ( #278 ) );
#197 = AXIS2_PLACEMENT_3D( '', #279, #280, #281 );
#198 = SURFACE_SIDE_STYLE( '', ( #282 ) );
#199 = EDGE_LOOP( '', ( #283 ) );
#200 = EDGE_LOOP( '', ( #284 ) );
#201 = AXIS2_PLACEMENT_3D( '', #285, #286, #287 );
#202 = SURFACE_SIDE_STYLE( '', ( #288 ) );
#203 = EDGE_LOOP( '', ( #289 ) );
#204 = EDGE_LOOP( '', ( #290 ) );
#205 = AXIS2_PLACEMENT_3D( '', #291, #292, #293 );
#206 = SURFACE_SIDE_STYLE( '', ( #294 ) );
#207 = EDGE_LOOP( '', ( #295 ) );
#208 = EDGE_LOOP( '', ( #296 ) );
#209 = AXIS2_PLACEMENT_3D( '', #297, #298, #299 );
#211 = SURFACE_STYLE_FILL_AREA( #300 );
#212 = ORIENTED_EDGE( '', *, *, #301, .F. );
#213 = ORIENTED_EDGE( '', *, *, #302, .T. );
#214 = CARTESIAN_POINT( '', ( 0.000000000000000, 0.000000000000000, 0.000000000000000 ) );
#215 = DIRECTION( '', ( -0.000000000000000, 1.00000000000000, 0.000000000000000 ) );
#216 = DIRECTION( '', ( 0.000000000000000, 0.000000000000000, -1.00000000000000 ) );
#217 = SURFACE_STYLE_FILL_AREA( #303 );
#218 = ORIENTED_EDGE( '', *, *, #304, .F. );
#219 = ORIENTED_EDGE( '', *, *, #305, .T. );
#220 = CARTESIAN_POINT( '', ( 13.9667176730676, 23.2000000000000, 0.000000000000000 ) );
#221 = DIRECTION( '', ( 0.000000000000000, -1.00000000000000, -0.000000000000000 ) );
#222 = DIRECTION( '', ( 0.000000000000000, 0.000000000000000, -1.00000000000000 ) );
#223 = SURFACE_STYLE_FILL_AREA( #306 );
#224 = ORIENTED_EDGE( '', *, *, #301, .T. );
#225 = ORIENTED_EDGE( '', *, *, #307, .F. );
#226 = CARTESIAN_POINT( '', ( 0.000000000000000, 2.37600000000000, 0.000000000000000 ) );
#227 = DIRECTION( '', ( 0.000000000000000, -1.00000000000000, -0.000000000000000 ) );
#228 = DIRECTION( '', ( 0.000000000000000, 0.000000000000000, -1.00000000000000 ) );
#229 = SURFACE_STYLE_FILL_AREA( #308 );
#230 = ORIENTED_EDGE( '', *, *, #309, .T. );
#231 = ORIENTED_EDGE( '', *, *, #310, .F. );
#232 = CARTESIAN_POINT( '', ( 0.000000000000000, 21.5880000000000, 0.000000000000000 ) );
#233 = DIRECTION( '', ( 0.000000000000000, -1.00000000000000, -0.000000000000000 ) );
#234 = DIRECTION( '', ( 0.000000000000000, 0.000000000000000, -1.00000000000000 ) );
#235 = SURFACE_STYLE_FILL_AREA( #311 );
#236 = ORIENTED_EDGE( '', *, *, #312, .F. );
#237 = ORIENTED_EDGE( '', *, *, #313, .T. );
#238 = CARTESIAN_POINT( '', ( 0.000000000000000, 25.0668381516918, 0.000000000000000 ) );
#239 = DIRECTION( '', ( -0.000000000000000, -1.00000000000000, -0.000000000000000 ) );
#240 = DIRECTION( '', ( 0.000000000000000, 0.000000000000000, -1.00000000000000 ) );
#241 = SURFACE_STYLE_FILL_AREA( #314 );
#242 = ORIENTED_EDGE( '', *, *, #315, .T. );
#243 = ORIENTED_EDGE( '', *, *, #316, .F. );
#244 = CARTESIAN_POINT( '', ( 0.000000000000000, 25.7890000000000, 0.000000000000000 ) );
#245 = DIRECTION( '', ( 0.000000000000000, -1.00000000000000, -0.000000000000000 ) );
#246 = DIRECTION( '', ( 0.000000000000000, 0.000000000000000, -1.00000000000000 ) );
#247 = SURFACE_STYLE_FILL_AREA( #317 );
#248 = VERTEX_POINT( '', #318 );
#249 = ORIENTED_EDGE( '', *, *, #319, .F. );
#250 = CARTESIAN_POINT( '', ( 8.67361737988404E-16, 18.8500000000000, 0.000000000000000 ) );
#251 = DIRECTION( '', ( 0.000000000000000, -1.00000000000000, 0.000000000000000 ) );
#252 = DIRECTION( '', ( -1.00000000000000, 0.000000000000000, 0.000000000000000 ) );
#253 = SURFACE_STYLE_FILL_AREA( #320 );
#254 = ORIENTED_EDGE( '', *, *, #307, .T. );
#255 = CARTESIAN_POINT( '', ( 15.6240000000000, 8.67361737988404E-16, 0.000000000000000 ) );
#256 = DIRECTION( '', ( 0.000000000000000, 1.00000000000000, 0.000000000000000 ) );
#257 = DIRECTION( '', ( 0.000000000000000, -0.000000000000000, 1.00000000000000 ) );
#258 = SURFACE_STYLE_FILL_AREA( #321 );
#259 = ORIENTED_EDGE( '', *, *, #322, .F. );
#260 = ORIENTED_EDGE( '', *, *, #316, .T. );
#261 = CARTESIAN_POINT( '', ( 8.90796273005225, 25.9000000000000, 0.000000000000000 ) );
#262 = DIRECTION( '', ( 0.000000000000000, -1.00000000000000, -0.000000000000000 ) );
#263 = DIRECTION( '', ( 0.000000000000000, 0.000000000000000, -1.00000000000000 ) );
#264 = SURFACE_STYLE_FILL_AREA( #323 );
#265 = ORIENTED_EDGE( '', *, *, #302, .F. );
#266 = ORIENTED_EDGE( '', *, *, #310, .T. );
#267 = CARTESIAN_POINT( '', ( 21.3120000000000, 20.4000000000000, 0.000000000000000 ) );
#268 = DIRECTION( '', ( 0.000000000000000, 1.00000000000000, 0.000000000000000 ) );
#269 = DIRECTION( '', ( 0.000000000000000, -0.000000000000000, 1.00000000000000 ) );
#270 = SURFACE_STYLE_FILL_AREA( #324 );
#271 = ORIENTED_EDGE( '', *, *, #304, .T. );
#272 = ORIENTED_EDGE( '', *, *, #325, .F. );
#273 = CARTESIAN_POINT( '', ( 0.000000000000000, 22.0120000000000, 0.000000000000000 ) );
#274 = DIRECTION( '', ( 0.000000000000000, -1.00000000000000, -0.000000000000000 ) );
#275 = DIRECTION( '', ( 0.000000000000000, 0.000000000000000, -1.00000000000000 ) );
#276 = SURFACE_STYLE_FILL_AREA( #326 );
#277 = ORIENTED_EDGE( '', *, *, #309, .F. );
#278 = ORIENTED_EDGE( '', *, *, #325, .T. );
#279 = CARTESIAN_POINT( '', ( 0.000000000000000, 0.000000000000000, 0.000000000000000 ) );
#280 = DIRECTION( '', ( -0.000000000000000, 1.00000000000000, 0.000000000000000 ) );
#281 = DIRECTION( '', ( 0.000000000000000, 0.000000000000000, -1.00000000000000 ) );
#282 = SURFACE_STYLE_FILL_AREA( #327 );
#283 = ORIENTED_EDGE( '', *, *, #315, .F. );
#284 = ORIENTED_EDGE( '', *, *, #319, .T. );
#285 = CARTESIAN_POINT( '', ( 7.80625564189563E-15, 18.9000000000000, 0.000000000000000 ) );
#286 = DIRECTION( '', ( 0.000000000000000, -1.00000000000000, 0.000000000000000 ) );
#287 = DIRECTION( '', ( -1.00000000000000, 0.000000000000000, 0.000000000000000 ) );
#288 = SURFACE_STYLE_FILL_AREA( #328 );
#289 = ORIENTED_EDGE( '', *, *, #305, .F. );
#290 = ORIENTED_EDGE( '', *, *, #312, .T. );
#291 = CARTESIAN_POINT( '', ( 0.000000000000000, 23.9326000000000, 0.000000000000000 ) );
#292 = DIRECTION( '', ( 0.000000000000000, -1.00000000000000, -0.000000000000000 ) );
#293 = DIRECTION( '', ( 0.000000000000000, 0.000000000000000, -1.00000000000000 ) );
#294 = SURFACE_STYLE_FILL_AREA( #329 );
#295 = ORIENTED_EDGE( '', *, *, #322, .T. );
#296 = ORIENTED_EDGE( '', *, *, #313, .F. );
#297 = CARTESIAN_POINT( '', ( 0.000000000000000, 24.4570000000000, 0.000000000000000 ) );
#298 = DIRECTION( '', ( 0.000000000000000, -1.00000000000000, -0.000000000000000 ) );
#299 = DIRECTION( '', ( 0.000000000000000, 0.000000000000000, -1.00000000000000 ) );
#300 = FILL_AREA_STYLE( '', ( #330 ) );
#301 = EDGE_CURVE( '', #331, #331, #332, .T. );
#302 = EDGE_CURVE( '', #333, #333, #334, .T. );
#303 = FILL_AREA_STYLE( '', ( #335 ) );
#304 = EDGE_CURVE( '', #336, #336, #337, .T. );
#305 = EDGE_CURVE( '', #338, #338, #339, .T. );
#306 = FILL_AREA_STYLE( '', ( #340 ) );
#307 = EDGE_CURVE( '', #341, #341, #342, .T. );
#308 = FILL_AREA_STYLE( '', ( #343 ) );
#309 = EDGE_CURVE( '', #344, #344, #345, .T. );
#310 = EDGE_CURVE( '', #346, #346, #347, .T. );
#311 = FILL_AREA_STYLE( '', ( #348 ) );
#312 = EDGE_CURVE( '', #349, #349, #350, .T. );
#313 = EDGE_CURVE( '', #351, #351, #352, .T. );
#314 = FILL_AREA_STYLE( '', ( #353 ) );
#315 = EDGE_CURVE( '', #354, #354, #355, .T. );
#316 = EDGE_CURVE( '', #356, #356, #357, .T. );
#317 = FILL_AREA_STYLE( '', ( #358 ) );
#318 = CARTESIAN_POINT( '', ( 1.87070441062049E-16, 29.9600000000000, 0.000000000000000 ) );
#319 = EDGE_CURVE( '', #359, #359, #360, .T. );
#320 = FILL_AREA_STYLE( '', ( #361 ) );
#321 = FILL_AREA_STYLE( '', ( #362 ) );
#322 = EDGE_CURVE( '', #363, #363, #364, .T. );
#323 = FILL_AREA_STYLE( '', ( #365 ) );
#324 = FILL_AREA_STYLE( '', ( #366 ) );
#325 = EDGE_CURVE( '', #367, #367, #368, .T. );
#326 = FILL_AREA_STYLE( '', ( #369 ) );
#327 = FILL_AREA_STYLE( '', ( #370 ) );
#328 = FILL_AREA_STYLE( '', ( #371 ) );
#329 = FILL_AREA_STYLE( '', ( #372 ) );
#330 = FILL_AREA_STYLE_COLOUR( '', #373 );
#331 = VERTEX_POINT( '', #374 );
#332 = CIRCLE( '', #375, 18.0000000000000 );
#333 = VERTEX_POINT( '', #376 );
#334 = CIRCLE( '', #377, 18.0000000000000 );
#335 = FILL_AREA_STYLE_COLOUR( '', #378 );
#336 = VERTEX_POINT( '', #379 );
#337 = CIRCLE( '', #380, 21.3120000000000 );
#338 = VERTEX_POINT( '', #381 );
#339 = CIRCLE( '', #382, 13.9667176731000 );
#340 = FILL_AREA_STYLE_COLOUR( '', #383 );
#341 = VERTEX_POINT( '', #384 );
#342 = CIRCLE( '', #385, 15.6240000000000 );
#343 = FILL_AREA_STYLE_COLOUR( '', #386 );
#344 = VERTEX_POINT( '', #387 );
#345 = CIRCLE( '', #388, 22.5000000000000 );
#346 = VERTEX_POINT( '', #389 );
#347 = CIRCLE( '', #390, 21.3120000000000 );
#348 = FILL_AREA_STYLE_COLOUR( '', #391 );
#349 = VERTEX_POINT( '', #392 );
#350 = CIRCLE( '', #393, 13.3027565883000 );
#351 = VERTEX_POINT( '', #394 );
#352 = CIRCLE( '', #395, 12.6294790733000 );
#353 = FILL_AREA_STYLE_COLOUR( '', #396 );
#354 = VERTEX_POINT( '', #397 );
#355 = CIRCLE( '', #398, 8.82015668590000 );
#356 = VERTEX_POINT( '', #399 );
#357 = CIRCLE( '', #400, 8.90796273010000 );
#358 = FILL_AREA_STYLE_COLOUR( '', #401 );
#359 = VERTEX_POINT( '', #402 );
#360 = CIRCLE( '', #403, 6.67798315360000 );
#361 = FILL_AREA_STYLE_COLOUR( '', #404 );
#362 = FILL_AREA_STYLE_COLOUR( '', #405 );
#363 = VERTEX_POINT( '', #406 );
#364 = CIRCLE( '', #407, 11.3216769366000 );
#365 = FILL_AREA_STYLE_COLOUR( '', #408 );
#366 = FILL_AREA_STYLE_COLOUR( '', #409 );
#367 = VERTEX_POINT( '', #410 );
#368 = CIRCLE( '', #411, 22.5000000000000 );
#369 = FILL_AREA_STYLE_COLOUR( '', #412 );
#370 = FILL_AREA_STYLE_COLOUR( '', #413 );
#371 = FILL_AREA_STYLE_COLOUR( '', #414 );
#372 = FILL_AREA_STYLE_COLOUR( '', #415 );
#373 = COLOUR_RGB( '', 0.689999997600000, 0.689999997600000, 0.689999997600000 );
#374 = CARTESIAN_POINT( '', ( 0.000000000000000, 2.37600000000000, -18.0000000000000 ) );
#375 = AXIS2_PLACEMENT_3D( '', #416, #417, #418 );
#376 = CARTESIAN_POINT( '', ( 0.000000000000000, 20.4000000000000, -18.0000000000000 ) );
#377 = AXIS2_PLACEMENT_3D( '', #419, #420, #421 );
#378 = COLOUR_RGB( '', 0.689999997600000, 0.689999997600000, 0.689999997600000 );
#379 = CARTESIAN_POINT( '', ( 0.000000000000000, 23.2000000000000, -21.3120000000000 ) );
#380 = AXIS2_PLACEMENT_3D( '', #422, #423, #424 );
#381 = CARTESIAN_POINT( '', ( 0.000000000000000, 23.2000000000000, -13.9667176730676 ) );
#382 = AXIS2_PLACEMENT_3D( '', #425, #426, #427 );
#383 = COLOUR_RGB( '', 0.689999997600000, 0.689999997600000, 0.689999997600000 );
#384 = CARTESIAN_POINT( '', ( 0.000000000000000, 1.73472347597681E-15, -15.6240000000000 ) );
#385 = AXIS2_PLACEMENT_3D( '', #428, #429, #430 );
#386 = COLOUR_RGB( '', 0.689999997600000, 0.689999997600000, 0.689999997600000 );
#387 = CARTESIAN_POINT( '', ( 0.000000000000000, 21.5880000000000, -22.5000000000000 ) );
#388 = AXIS2_PLACEMENT_3D( '', #431, #432, #433 );
#389 = CARTESIAN_POINT( '', ( 0.000000000000000, 20.4000000000000, -21.3120000000000 ) );
#390 = AXIS2_PLACEMENT_3D( '', #434, #435, #436 );
#391 = COLOUR_RGB( '', 0.689999997600000, 0.689999997600000, 0.689999997600000 );
#392 = CARTESIAN_POINT( '', ( 0.000000000000000, 23.6229898614488, -13.3027565882845 ) );
#393 = AXIS2_PLACEMENT_3D( '', #437, #438, #439 );
#394 = CARTESIAN_POINT( '', ( 0.000000000000000, 25.0668381516918, -12.6294790733302 ) );
#395 = AXIS2_PLACEMENT_3D( '', #440, #441, #442 );
#396 = COLOUR_RGB( '', 0.689999997600000, 0.689999997600000, 0.689999997600000 );
#397 = CARTESIAN_POINT( '', ( 0.000000000000000, 25.7210949294024, -8.82015668591445 ) );
#398 = AXIS2_PLACEMENT_3D( '', #443, #444, #445 );
#399 = CARTESIAN_POINT( '', ( 0.000000000000000, 25.9000000000000, -8.90796273005225 ) );
#400 = AXIS2_PLACEMENT_3D( '', #446, #447, #448 );
#401 = COLOUR_RGB( '', 0.689999997600000, 0.689999997600000, 0.689999997600000 );
#402 = CARTESIAN_POINT( '', ( 6.67798315361686, 9.97099999999947, 0.000000000000000 ) );
#403 = AXIS2_PLACEMENT_3D( '', #449, #450, #451 );
#404 = COLOUR_RGB( '', 0.689999997600000, 0.689999997600000, 0.689999997600000 );
#405 = COLOUR_RGB( '', 0.689999997600000, 0.689999997600000, 0.689999997600000 );
#406 = CARTESIAN_POINT( '', ( 0.000000000000000, 25.9000000000000, -11.3216769366363 ) );
#407 = AXIS2_PLACEMENT_3D( '', #452, #453, #454 );
#408 = COLOUR_RGB( '', 0.689999997600000, 0.689999997600000, 0.689999997600000 );
#409 = COLOUR_RGB( '', 0.689999997600000, 0.689999997600000, 0.689999997600000 );
#410 = CARTESIAN_POINT( '', ( 0.000000000000000, 22.0120000000000, -22.5000000000000 ) );
#411 = AXIS2_PLACEMENT_3D( '', #455, #456, #457 );
#412 = COLOUR_RGB( '', 0.689999997600000, 0.689999997600000, 0.689999997600000 );
#413 = COLOUR_RGB( '', 0.689999997600000, 0.689999997600000, 0.689999997600000 );
#414 = COLOUR_RGB( '', 0.689999997600000, 0.689999997600000, 0.689999997600000 );
#415 = COLOUR_RGB( '', 0.689999997600000, 0.689999997600000, 0.689999997600000 );
#416 = CARTESIAN_POINT( '', ( 0.000000000000000, 2.37600000000000, 0.000000000000000 ) );
#417 = DIRECTION( '', ( 0.000000000000000, -1.00000000000000, -0.000000000000000 ) );
#418 = DIRECTION( '', ( 0.000000000000000, 0.000000000000000, -1.00000000000000 ) );
#419 = CARTESIAN_POINT( '', ( 0.000000000000000, 20.4000000000000, 0.000000000000000 ) );
#420 = DIRECTION( '', ( 0.000000000000000, -1.00000000000000, -0.000000000000000 ) );
#421 = DIRECTION( '', ( 0.000000000000000, 0.000000000000000, -1.00000000000000 ) );
#422 = CARTESIAN_POINT( '', ( 0.000000000000000, 23.2000000000000, 0.000000000000000 ) );
#423 = DIRECTION( '', ( 0.000000000000000, -1.00000000000000, -0.000000000000000 ) );
#424 = DIRECTION( '', ( 0.000000000000000, 0.000000000000000, -1.00000000000000 ) );
#425 = CARTESIAN_POINT( '', ( 0.000000000000000, 23.2000000000000, 0.000000000000000 ) );
#426 = DIRECTION( '', ( 0.000000000000000, -1.00000000000000, -0.000000000000000 ) );
#427 = DIRECTION( '', ( 0.000000000000000, 0.000000000000000, -1.00000000000000 ) );
#428 = CARTESIAN_POINT( '', ( 0.000000000000000, 1.73472347597681E-15, 0.000000000000000 ) );
#429 = DIRECTION( '', ( 0.000000000000000, -1.00000000000000, -0.000000000000000 ) );
#430 = DIRECTION( '', ( 0.000000000000000, 0.000000000000000, -1.00000000000000 ) );
#431 = CARTESIAN_POINT( '', ( 0.000000000000000, 21.5880000000000, 0.000000000000000 ) );
#432 = DIRECTION( '', ( 0.000000000000000, -1.00000000000000, -0.000000000000000 ) );
#433 = DIRECTION( '', ( 0.000000000000000, 0.000000000000000, -1.00000000000000 ) );
#434 = CARTESIAN_POINT( '', ( 0.000000000000000, 20.4000000000000, 0.000000000000000 ) );
#435 = DIRECTION( '', ( 0.000000000000000, -1.00000000000000, -0.000000000000000 ) );
#436 = DIRECTION( '', ( 0.000000000000000, 0.000000000000000, -1.00000000000000 ) );
#437 = CARTESIAN_POINT( '', ( 0.000000000000000, 23.6229898614488, 0.000000000000000 ) );
#438 = DIRECTION( '', ( 0.000000000000000, -1.00000000000000, -0.000000000000000 ) );
#439 = DIRECTION( '', ( 0.000000000000000, 0.000000000000000, -1.00000000000000 ) );
#440 = CARTESIAN_POINT( '', ( 0.000000000000000, 25.0668381516918, 0.000000000000000 ) );
#441 = DIRECTION( '', ( 0.000000000000000, -1.00000000000000, -0.000000000000000 ) );
#442 = DIRECTION( '', ( 0.000000000000000, 0.000000000000000, -1.00000000000000 ) );
#443 = CARTESIAN_POINT( '', ( 0.000000000000000, 25.7210949294024, 0.000000000000000 ) );
#444 = DIRECTION( '', ( 0.000000000000000, -1.00000000000000, -0.000000000000000 ) );
#445 = DIRECTION( '', ( 0.000000000000000, 0.000000000000000, -1.00000000000000 ) );
#446 = CARTESIAN_POINT( '', ( 0.000000000000000, 25.9000000000000, 0.000000000000000 ) );
#447 = DIRECTION( '', ( 0.000000000000000, -1.00000000000000, -0.000000000000000 ) );
#448 = DIRECTION( '', ( 0.000000000000000, 0.000000000000000, -1.00000000000000 ) );
#449 = CARTESIAN_POINT( '', ( 0.000000000000000, 9.97100000000039, 0.000000000000000 ) );
#450 = DIRECTION( '', ( -1.38777878078141E-13, -1.00000000000000, 0.000000000000000 ) );
#451 = DIRECTION( '', ( 1.00000000000000, -1.38777878078141E-13, 0.000000000000000 ) );
#452 = CARTESIAN_POINT( '', ( 0.000000000000000, 25.9000000000000, 0.000000000000000 ) );
#453 = DIRECTION( '', ( 0.000000000000000, -1.00000000000000, -0.000000000000000 ) );
#454 = DIRECTION( '', ( 0.000000000000000, 0.000000000000000, -1.00000000000000 ) );
#455 = CARTESIAN_POINT( '', ( 0.000000000000000, 22.0120000000000, 0.000000000000000 ) );
#456 = DIRECTION( '', ( 0.000000000000000, -1.00000000000000, -0.000000000000000 ) );
#457 = DIRECTION( '', ( 0.000000000000000, 0.000000000000000, -1.00000000000000 ) );
ENDSEC;
END-ISO-10303-21;
