ISO-10303-21;
HEADER;
FILE_DESCRIPTION( ( 'STEP AP214' ), '1' );
FILE_NAME( '//goodhand-server/Shared Folders/GoodHand Data/Kipp CAD/K0367/K0367.2150.stp', '2020-12-03T15:16:11', ( '' ), ( '' ), ' ', 'PARTsolutions', ' ' );
FILE_SCHEMA( ( 'AUTOMOTIVE_DESIGN { 1 0 10303 214 1 1 1 1 }' ) );
ENDSEC;
DATA;
#1 = MECHANICAL_DESIGN_GEOMETRIC_PRESENTATION_REPRESENTATION( ' ', ( #10, #11, #12, #13, #14, #15, #16, #17, #18, #19, #20, #21, #22 ), #6 );
#2 = PRODUCT_DEFINITION_CONTEXT( '', #23, 'design' );
#3 = APPLICATION_PROTOCOL_DEFINITION( 'international standard', 'automotive_design', 2001, #23 );
#4 = PRODUCT_CATEGORY_RELATIONSHIP( 'NONE', 'NONE', #24, #25 );
#5 = SHAPE_DEFINITION_REPRESENTATION( #26, #27 );
#6 =  ( GEOMETRIC_REPRESENTATION_CONTEXT( 3 )GLOBAL_UNCERTAINTY_ASSIGNED_CONTEXT( ( #30 ) )GLOBAL_UNIT_ASSIGNED_CONTEXT( ( #32, #33, #34 ) )REPRESENTATION_CONTEXT( 'NONE', 'WORKSPACE' ) );
#10 = STYLED_ITEM( '', ( #36 ), #37 );
#11 = STYLED_ITEM( '', ( #38 ), #39 );
#12 = STYLED_ITEM( '', ( #40 ), #41 );
#13 = STYLED_ITEM( '', ( #42 ), #43 );
#14 = STYLED_ITEM( '', ( #44 ), #45 );
#15 = STYLED_ITEM( '', ( #46 ), #47 );
#16 = STYLED_ITEM( '', ( #48 ), #49 );
#17 = STYLED_ITEM( '', ( #50 ), #51 );
#18 = STYLED_ITEM( '', ( #52 ), #53 );
#19 = STYLED_ITEM( '', ( #54 ), #55 );
#20 = STYLED_ITEM( '', ( #56 ), #57 );
#21 = STYLED_ITEM( '', ( #58 ), #59 );
#22 = STYLED_ITEM( '', ( #60 ), #61 );
#23 = APPLICATION_CONTEXT( 'core data for automotive mechanical design processes' );
#24 = PRODUCT_CATEGORY( 'part', 'NONE' );
#25 = PRODUCT_RELATED_PRODUCT_CATEGORY( 'detail', ' ', ( #62 ) );
#26 = PRODUCT_DEFINITION_SHAPE( 'NONE', 'NONE', #63 );
#27 = ADVANCED_BREP_SHAPE_REPRESENTATION( '_K0367.2150', ( #64, #65 ), #6 );
#30 = UNCERTAINTY_MEASURE_WITH_UNIT( LENGTH_MEASURE( 0.00100000000000000 ), #32, '', '' );
#32 =  ( CONVERSION_BASED_UNIT( 'MILLIMETRE', #68 )LENGTH_UNIT(  )NAMED_UNIT( #71 ) );
#33 =  ( NAMED_UNIT( #73 )PLANE_ANGLE_UNIT(  )SI_UNIT( $, .RADIAN. ) );
#34 =  ( NAMED_UNIT( #73 )SI_UNIT( $, .STERADIAN. )SOLID_ANGLE_UNIT(  ) );
#36 = PRESENTATION_STYLE_ASSIGNMENT( ( #79 ) );
#37 = ADVANCED_FACE( '', ( #80, #81 ), #82, .T. );
#38 = PRESENTATION_STYLE_ASSIGNMENT( ( #83 ) );
#39 = ADVANCED_FACE( '', ( #84, #85 ), #86, .F. );
#40 = PRESENTATION_STYLE_ASSIGNMENT( ( #87 ) );
#41 = ADVANCED_FACE( '', ( #88, #89 ), #90, .T. );
#42 = PRESENTATION_STYLE_ASSIGNMENT( ( #91 ) );
#43 = ADVANCED_FACE( '', ( #92, #93 ), #94, .T. );
#44 = PRESENTATION_STYLE_ASSIGNMENT( ( #95 ) );
#45 = ADVANCED_FACE( '', ( #96, #97 ), #98, .T. );
#46 = PRESENTATION_STYLE_ASSIGNMENT( ( #99 ) );
#47 = ADVANCED_FACE( '', ( #100, #101, #102 ), #103, .F. );
#48 = PRESENTATION_STYLE_ASSIGNMENT( ( #104 ) );
#49 = ADVANCED_FACE( '', ( #105, #106 ), #107, .T. );
#50 = PRESENTATION_STYLE_ASSIGNMENT( ( #108 ) );
#51 = ADVANCED_FACE( '', ( #109, #110 ), #111, .T. );
#52 = PRESENTATION_STYLE_ASSIGNMENT( ( #112 ) );
#53 = ADVANCED_FACE( '', ( #113, #114 ), #115, .T. );
#54 = PRESENTATION_STYLE_ASSIGNMENT( ( #116 ) );
#55 = ADVANCED_FACE( '', ( #117, #118, #119 ), #120, .T. );
#56 = PRESENTATION_STYLE_ASSIGNMENT( ( #121 ) );
#57 = ADVANCED_FACE( '', ( #122, #123, #124 ), #125, .T. );
#58 = PRESENTATION_STYLE_ASSIGNMENT( ( #126 ) );
#59 = ADVANCED_FACE( '', ( #127, #128, #129 ), #130, .T. );
#60 = PRESENTATION_STYLE_ASSIGNMENT( ( #131 ) );
#61 = ADVANCED_FACE( '', ( #132, #133 ), #134, .T. );
#62 = PRODUCT( '_K0367.2150', '_K0367.2150', 'PART-_K0367.2150-DESC', ( #135 ) );
#63 = PRODUCT_DEFINITION( 'NONE', 'NONE', #136, #2 );
#64 = MANIFOLD_SOLID_BREP( '_K0367.2150', #137 );
#65 = AXIS2_PLACEMENT_3D( '', #138, #139, #140 );
#68 = LENGTH_MEASURE_WITH_UNIT( LENGTH_MEASURE( 1.00000000000000 ), #141 );
#71 = DIMENSIONAL_EXPONENTS( 1.00000000000000, 0.000000000000000, 0.000000000000000, 0.000000000000000, 0.000000000000000, 0.000000000000000, 0.000000000000000 );
#73 = DIMENSIONAL_EXPONENTS( 0.000000000000000, 0.000000000000000, 0.000000000000000, 0.000000000000000, 0.000000000000000, 0.000000000000000, 0.000000000000000 );
#79 = SURFACE_STYLE_USAGE( .BOTH., #142 );
#80 = FACE_OUTER_BOUND( '', #143, .T. );
#81 = FACE_OUTER_BOUND( '', #144, .T. );
#82 = CYLINDRICAL_SURFACE( '', #145, 0.800000000000000 );
#83 = SURFACE_STYLE_USAGE( .BOTH., #146 );
#84 = FACE_BOUND( '', #147, .T. );
#85 = FACE_OUTER_BOUND( '', #148, .T. );
#86 = PLANE( '', #149 );
#87 = SURFACE_STYLE_USAGE( .BOTH., #150 );
#88 = FACE_OUTER_BOUND( '', #151, .T. );
#89 = FACE_OUTER_BOUND( '', #152, .T. );
#90 = CYLINDRICAL_SURFACE( '', #153, 2.50000000000000 );
#91 = SURFACE_STYLE_USAGE( .BOTH., #154 );
#92 = FACE_BOUND( '', #155, .T. );
#93 = FACE_OUTER_BOUND( '', #156, .T. );
#94 = PLANE( '', #157 );
#95 = SURFACE_STYLE_USAGE( .BOTH., #158 );
#96 = FACE_OUTER_BOUND( '', #159, .T. );
#97 = FACE_OUTER_BOUND( '', #160, .T. );
#98 = CYLINDRICAL_SURFACE( '', #161, 0.800000000000000 );
#99 = SURFACE_STYLE_USAGE( .BOTH., #162 );
#100 = FACE_BOUND( '', #163, .T. );
#101 = FACE_BOUND( '', #164, .T. );
#102 = FACE_OUTER_BOUND( '', #165, .T. );
#103 = PLANE( '', #166 );
#104 = SURFACE_STYLE_USAGE( .BOTH., #167 );
#105 = FACE_OUTER_BOUND( '', #168, .T. );
#106 = FACE_OUTER_BOUND( '', #169, .T. );
#107 = CYLINDRICAL_SURFACE( '', #170, 0.800000000000000 );
#108 = SURFACE_STYLE_USAGE( .BOTH., #171 );
#109 = FACE_OUTER_BOUND( '', #172, .T. );
#110 = FACE_OUTER_BOUND( '', #173, .T. );
#111 = CYLINDRICAL_SURFACE( '', #174, 0.800000000000000 );
#112 = SURFACE_STYLE_USAGE( .BOTH., #175 );
#113 = FACE_OUTER_BOUND( '', #176, .T. );
#114 = FACE_OUTER_BOUND( '', #177, .T. );
#115 = CYLINDRICAL_SURFACE( '', #178, 2.50000000000000 );
#116 = SURFACE_STYLE_USAGE( .BOTH., #179 );
#117 = FACE_BOUND( '', #180, .T. );
#118 = FACE_OUTER_BOUND( '', #181, .T. );
#119 = FACE_OUTER_BOUND( '', #182, .T. );
#120 = TOROIDAL_SURFACE( '', #183, 4.20000000000000, 0.800000000000000 );
#121 = SURFACE_STYLE_USAGE( .BOTH., #184 );
#122 = FACE_BOUND( '', #185, .T. );
#123 = FACE_OUTER_BOUND( '', #186, .T. );
#124 = FACE_OUTER_BOUND( '', #187, .T. );
#125 = TOROIDAL_SURFACE( '', #188, 4.20000000000000, 0.800000000000000 );
#126 = SURFACE_STYLE_USAGE( .BOTH., #189 );
#127 = FACE_BOUND( '', #190, .T. );
#128 = FACE_BOUND( '', #191, .T. );
#129 = FACE_OUTER_BOUND( '', #192, .T. );
#130 = PLANE( '', #193 );
#131 = SURFACE_STYLE_USAGE( .BOTH., #194 );
#132 = FACE_OUTER_BOUND( '', #195, .T. );
#133 = FACE_OUTER_BOUND( '', #196, .T. );
#134 = CYLINDRICAL_SURFACE( '', #197, 0.800000000000000 );
#135 = PRODUCT_CONTEXT( '', #23, 'mechanical' );
#136 = PRODUCT_DEFINITION_FORMATION_WITH_SPECIFIED_SOURCE( ' ', 'NONE', #62, .NOT_KNOWN. );
#137 = CLOSED_SHELL( '', ( #45, #57, #49, #41, #51, #53, #43, #37, #47, #55, #61, #39, #59 ) );
#138 = CARTESIAN_POINT( '', ( 0.000000000000000, 0.000000000000000, 0.000000000000000 ) );
#139 = DIRECTION( '', ( 0.000000000000000, 0.000000000000000, 1.00000000000000 ) );
#140 = DIRECTION( '', ( 1.00000000000000, 0.000000000000000, 0.000000000000000 ) );
#141 =  ( LENGTH_UNIT(  )NAMED_UNIT( #71 )SI_UNIT( .MILLI., .METRE. ) );
#142 = SURFACE_SIDE_STYLE( '', ( #199 ) );
#143 = EDGE_LOOP( '', ( #200 ) );
#144 = EDGE_LOOP( '', ( #201 ) );
#145 = AXIS2_PLACEMENT_3D( '', #202, #203, #204 );
#146 = SURFACE_SIDE_STYLE( '', ( #205 ) );
#147 = EDGE_LOOP( '', ( #206 ) );
#148 = EDGE_LOOP( '', ( #207 ) );
#149 = AXIS2_PLACEMENT_3D( '', #208, #209, #210 );
#150 = SURFACE_SIDE_STYLE( '', ( #211 ) );
#151 = EDGE_LOOP( '', ( #212 ) );
#152 = EDGE_LOOP( '', ( #213 ) );
#153 = AXIS2_PLACEMENT_3D( '', #214, #215, #216 );
#154 = SURFACE_SIDE_STYLE( '', ( #217 ) );
#155 = EDGE_LOOP( '', ( #218 ) );
#156 = EDGE_LOOP( '', ( #219 ) );
#157 = AXIS2_PLACEMENT_3D( '', #220, #221, #222 );
#158 = SURFACE_SIDE_STYLE( '', ( #223 ) );
#159 = EDGE_LOOP( '', ( #224 ) );
#160 = EDGE_LOOP( '', ( #225 ) );
#161 = AXIS2_PLACEMENT_3D( '', #226, #227, #228 );
#162 = SURFACE_SIDE_STYLE( '', ( #229 ) );
#163 = EDGE_LOOP( '', ( #230 ) );
#164 = EDGE_LOOP( '', ( #231 ) );
#165 = EDGE_LOOP( '', ( #232 ) );
#166 = AXIS2_PLACEMENT_3D( '', #233, #234, #235 );
#167 = SURFACE_SIDE_STYLE( '', ( #236 ) );
#168 = EDGE_LOOP( '', ( #237 ) );
#169 = EDGE_LOOP( '', ( #238 ) );
#170 = AXIS2_PLACEMENT_3D( '', #239, #240, #241 );
#171 = SURFACE_SIDE_STYLE( '', ( #242 ) );
#172 = EDGE_LOOP( '', ( #243 ) );
#173 = EDGE_LOOP( '', ( #244 ) );
#174 = AXIS2_PLACEMENT_3D( '', #245, #246, #247 );
#175 = SURFACE_SIDE_STYLE( '', ( #248 ) );
#176 = EDGE_LOOP( '', ( #249 ) );
#177 = EDGE_LOOP( '', ( #250 ) );
#178 = AXIS2_PLACEMENT_3D( '', #251, #252, #253 );
#179 = SURFACE_SIDE_STYLE( '', ( #254 ) );
#180 = VERTEX_LOOP( '', #255 );
#181 = EDGE_LOOP( '', ( #256 ) );
#182 = EDGE_LOOP( '', ( #257 ) );
#183 = AXIS2_PLACEMENT_3D( '', #258, #259, #260 );
#184 = SURFACE_SIDE_STYLE( '', ( #261 ) );
#185 = VERTEX_LOOP( '', #262 );
#186 = EDGE_LOOP( '', ( #263 ) );
#187 = EDGE_LOOP( '', ( #264 ) );
#188 = AXIS2_PLACEMENT_3D( '', #265, #266, #267 );
#189 = SURFACE_SIDE_STYLE( '', ( #268 ) );
#190 = EDGE_LOOP( '', ( #269 ) );
#191 = EDGE_LOOP( '', ( #270 ) );
#192 = EDGE_LOOP( '', ( #271 ) );
#193 = AXIS2_PLACEMENT_3D( '', #272, #273, #274 );
#194 = SURFACE_SIDE_STYLE( '', ( #275 ) );
#195 = EDGE_LOOP( '', ( #276 ) );
#196 = EDGE_LOOP( '', ( #277 ) );
#197 = AXIS2_PLACEMENT_3D( '', #278, #279, #280 );
#199 = SURFACE_STYLE_FILL_AREA( #281 );
#200 = ORIENTED_EDGE( '', *, *, #282, .F. );
#201 = ORIENTED_EDGE( '', *, *, #283, .T. );
#202 = CARTESIAN_POINT( '', ( 4.67304081931883, 0.000000000000000, -4.90489844914408 ) );
#203 = DIRECTION( '', ( -0.953716950748227, 0.000000000000000, -0.300705799504273 ) );
#204 = DIRECTION( '', ( 0.300705799504273, 0.000000000000000, -0.953716950748227 ) );
#205 = SURFACE_STYLE_FILL_AREA( #284 );
#206 = ORIENTED_EDGE( '', *, *, #285, .T. );
#207 = ORIENTED_EDGE( '', *, *, #286, .F. );
#208 = CARTESIAN_POINT( '', ( 125.100000000000, 0.000000000000000, -0.900000000000000 ) );
#209 = DIRECTION( '', ( 1.00000000000000, 0.000000000000000, 0.000000000000000 ) );
#210 = DIRECTION( '', ( 0.000000000000000, 0.000000000000000, -1.00000000000000 ) );
#211 = SURFACE_STYLE_FILL_AREA( #287 );
#212 = ORIENTED_EDGE( '', *, *, #288, .T. );
#213 = ORIENTED_EDGE( '', *, *, #289, .F. );
#214 = CARTESIAN_POINT( '', ( 14.4000000000000, 0.000000000000000, -0.900000000000000 ) );
#215 = DIRECTION( '', ( -1.00000000000000, -0.000000000000000, -0.000000000000000 ) );
#216 = DIRECTION( '', ( 0.000000000000000, 0.000000000000000, -1.00000000000000 ) );
#217 = SURFACE_STYLE_FILL_AREA( #290 );
#218 = ORIENTED_EDGE( '', *, *, #291, .F. );
#219 = ORIENTED_EDGE( '', *, *, #289, .T. );
#220 = CARTESIAN_POINT( '', ( 24.9000000000000, 0.000000000000000, -0.900000000000000 ) );
#221 = DIRECTION( '', ( 1.00000000000000, 0.000000000000000, 0.000000000000000 ) );
#222 = DIRECTION( '', ( 0.000000000000000, 0.000000000000000, -1.00000000000000 ) );
#223 = SURFACE_STYLE_FILL_AREA( #292 );
#224 = ORIENTED_EDGE( '', *, *, #293, .F. );
#225 = ORIENTED_EDGE( '', *, *, #294, .F. );
#226 = CARTESIAN_POINT( '', ( 145.326959180681, 0.000000000000000, -4.90489844914408 ) );
#227 = DIRECTION( '', ( 0.953716950748227, 0.000000000000000, -0.300705799504273 ) );
#228 = DIRECTION( '', ( 0.300705799504273, 0.000000000000000, 0.953716950748227 ) );
#229 = SURFACE_STYLE_FILL_AREA( #295 );
#230 = ORIENTED_EDGE( '', *, *, #296, .F. );
#231 = ORIENTED_EDGE( '', *, *, #283, .F. );
#232 = ORIENTED_EDGE( '', *, *, #288, .F. );
#233 = CARTESIAN_POINT( '', ( 14.4000000000000, 0.000000000000000, -0.900000000000000 ) );
#234 = DIRECTION( '', ( 1.00000000000000, 0.000000000000000, 0.000000000000000 ) );
#235 = DIRECTION( '', ( 0.000000000000000, 0.000000000000000, -1.00000000000000 ) );
#236 = SURFACE_STYLE_FILL_AREA( #297 );
#237 = ORIENTED_EDGE( '', *, *, #298, .F. );
#238 = ORIENTED_EDGE( '', *, *, #299, .T. );
#239 = CARTESIAN_POINT( '', ( 133.882355771702, 0.000000000000000, -0.502145656910233 ) );
#240 = DIRECTION( '', ( -0.953716950748227, 0.000000000000000, -0.300705799504273 ) );
#241 = DIRECTION( '', ( 0.300705799504273, 0.000000000000000, -0.953716950748227 ) );
#242 = SURFACE_STYLE_FILL_AREA( #300 );
#243 = ORIENTED_EDGE( '', *, *, #285, .F. );
#244 = ORIENTED_EDGE( '', *, *, #291, .T. );
#245 = CARTESIAN_POINT( '', ( 125.100000000000, 0.000000000000000, 0.000000000000000 ) );
#246 = DIRECTION( '', ( 1.00000000000000, -0.000000000000000, -0.000000000000000 ) );
#247 = DIRECTION( '', ( 0.000000000000000, 0.000000000000000, 1.00000000000000 ) );
#248 = SURFACE_STYLE_FILL_AREA( #301 );
#249 = ORIENTED_EDGE( '', *, *, #302, .F. );
#250 = ORIENTED_EDGE( '', *, *, #286, .T. );
#251 = CARTESIAN_POINT( '', ( 135.600000000000, 0.000000000000000, -0.900000000000000 ) );
#252 = DIRECTION( '', ( 1.00000000000000, -0.000000000000000, -0.000000000000000 ) );
#253 = DIRECTION( '', ( 0.000000000000000, 0.000000000000000, 1.00000000000000 ) );
#254 = SURFACE_STYLE_FILL_AREA( #303 );
#255 = VERTEX_POINT( '', #304 );
#256 = ORIENTED_EDGE( '', *, *, #282, .T. );
#257 = ORIENTED_EDGE( '', *, *, #305, .F. );
#258 = CARTESIAN_POINT( '', ( 3.41007646140089, 0.000000000000000, -0.899287256001528 ) );
#259 = DIRECTION( '', ( -0.000000000000000, 1.00000000000000, 0.000000000000000 ) );
#260 = DIRECTION( '', ( 0.000000000000000, 0.000000000000000, 1.00000000000000 ) );
#261 = SURFACE_STYLE_FILL_AREA( #306 );
#262 = VERTEX_POINT( '', #307 );
#263 = ORIENTED_EDGE( '', *, *, #294, .T. );
#264 = ORIENTED_EDGE( '', *, *, #299, .F. );
#265 = CARTESIAN_POINT( '', ( 146.589923538599, 0.000000000000000, -0.899287256001520 ) );
#266 = DIRECTION( '', ( 0.000000000000000, -1.00000000000000, -0.000000000000000 ) );
#267 = DIRECTION( '', ( 0.000000000000000, 0.000000000000000, -1.00000000000000 ) );
#268 = SURFACE_STYLE_FILL_AREA( #308 );
#269 = ORIENTED_EDGE( '', *, *, #298, .T. );
#270 = ORIENTED_EDGE( '', *, *, #293, .T. );
#271 = ORIENTED_EDGE( '', *, *, #302, .T. );
#272 = CARTESIAN_POINT( '', ( 135.600000000000, 0.000000000000000, -0.900000000000000 ) );
#273 = DIRECTION( '', ( 1.00000000000000, 0.000000000000000, 0.000000000000000 ) );
#274 = DIRECTION( '', ( 0.000000000000000, 0.000000000000000, -1.00000000000000 ) );
#275 = SURFACE_STYLE_FILL_AREA( #309 );
#276 = ORIENTED_EDGE( '', *, *, #305, .T. );
#277 = ORIENTED_EDGE( '', *, *, #296, .T. );
#278 = CARTESIAN_POINT( '', ( 16.1176442282976, 0.000000000000000, -0.502145656910247 ) );
#279 = DIRECTION( '', ( 0.953716950748227, 0.000000000000000, -0.300705799504273 ) );
#280 = DIRECTION( '', ( 0.300705799504273, 0.000000000000000, 0.953716950748227 ) );
#281 = FILL_AREA_STYLE( '', ( #310 ) );
#282 = EDGE_CURVE( '', #311, #311, #312, .T. );
#283 = EDGE_CURVE( '', #313, #313, #314, .F. );
#284 = FILL_AREA_STYLE( '', ( #315 ) );
#285 = EDGE_CURVE( '', #316, #316, #317, .T. );
#286 = EDGE_CURVE( '', #318, #318, #319, .T. );
#287 = FILL_AREA_STYLE( '', ( #320 ) );
#288 = EDGE_CURVE( '', #321, #321, #322, .T. );
#289 = EDGE_CURVE( '', #323, #323, #324, .T. );
#290 = FILL_AREA_STYLE( '', ( #325 ) );
#291 = EDGE_CURVE( '', #326, #326, #327, .T. );
#292 = FILL_AREA_STYLE( '', ( #328 ) );
#293 = EDGE_CURVE( '', #329, #329, #330, .F. );
#294 = EDGE_CURVE( '', #331, #331, #332, .T. );
#295 = FILL_AREA_STYLE( '', ( #333 ) );
#296 = EDGE_CURVE( '', #334, #334, #335, .F. );
#297 = FILL_AREA_STYLE( '', ( #336 ) );
#298 = EDGE_CURVE( '', #337, #337, #338, .F. );
#299 = EDGE_CURVE( '', #339, #339, #340, .T. );
#300 = FILL_AREA_STYLE( '', ( #341 ) );
#301 = FILL_AREA_STYLE( '', ( #342 ) );
#302 = EDGE_CURVE( '', #343, #343, #344, .T. );
#303 = FILL_AREA_STYLE( '', ( #345 ) );
#304 = CARTESIAN_POINT( '', ( 3.41007646140089, 0.000000000000000, 4.10071274399847 ) );
#305 = EDGE_CURVE( '', #346, #346, #347, .T. );
#306 = FILL_AREA_STYLE( '', ( #348 ) );
#307 = CARTESIAN_POINT( '', ( 146.589923538599, 0.000000000000000, -5.89928725600153 ) );
#308 = FILL_AREA_STYLE( '', ( #349 ) );
#309 = FILL_AREA_STYLE( '', ( #350 ) );
#310 = FILL_AREA_STYLE_COLOUR( '', #351 );
#311 = VERTEX_POINT( '', #352 );
#312 = CIRCLE( '', #353, 0.800000000000000 );
#313 = VERTEX_POINT( '', #354 );
#314 = ELLIPSE( '', #355, 0.838823300100000, 0.800000000000000 );
#315 = FILL_AREA_STYLE_COLOUR( '', #356 );
#316 = VERTEX_POINT( '', #357 );
#317 = CIRCLE( '', #358, 0.800000000000000 );
#318 = VERTEX_POINT( '', #359 );
#319 = CIRCLE( '', #360, 2.50000000000000 );
#320 = FILL_AREA_STYLE_COLOUR( '', #361 );
#321 = VERTEX_POINT( '', #362 );
#322 = CIRCLE( '', #363, 2.50000000000000 );
#323 = VERTEX_POINT( '', #364 );
#324 = CIRCLE( '', #365, 2.50000000000000 );
#325 = FILL_AREA_STYLE_COLOUR( '', #366 );
#326 = VERTEX_POINT( '', #367 );
#327 = CIRCLE( '', #368, 0.800000000000000 );
#328 = FILL_AREA_STYLE_COLOUR( '', #369 );
#329 = VERTEX_POINT( '', #370 );
#330 = ELLIPSE( '', #371, 0.838823300100000, 0.800000000000000 );
#331 = VERTEX_POINT( '', #372 );
#332 = CIRCLE( '', #373, 0.800000000000000 );
#333 = FILL_AREA_STYLE_COLOUR( '', #374 );
#334 = VERTEX_POINT( '', #375 );
#335 = ELLIPSE( '', #376, 0.838823300100000, 0.800000000000000 );
#336 = FILL_AREA_STYLE_COLOUR( '', #377 );
#337 = VERTEX_POINT( '', #378 );
#338 = ELLIPSE( '', #379, 0.838823300100000, 0.800000000000000 );
#339 = VERTEX_POINT( '', #380 );
#340 = CIRCLE( '', #381, 0.800000000000000 );
#341 = FILL_AREA_STYLE_COLOUR( '', #382 );
#342 = FILL_AREA_STYLE_COLOUR( '', #383 );
#343 = VERTEX_POINT( '', #384 );
#344 = CIRCLE( '', #385, 2.50000000000000 );
#345 = FILL_AREA_STYLE_COLOUR( '', #386 );
#346 = VERTEX_POINT( '', #387 );
#347 = CIRCLE( '', #388, 0.800000000000000 );
#348 = FILL_AREA_STYLE_COLOUR( '', #389 );
#349 = FILL_AREA_STYLE_COLOUR( '', #390 );
#350 = FILL_AREA_STYLE_COLOUR( '', #391 );
#351 = COLOUR_RGB( '', 0.689999997600000, 0.689999997600000, 0.689999997600000 );
#352 = CARTESIAN_POINT( '', ( 4.43247617971541, 0.000000000000000, -4.14192488854550 ) );
#353 = AXIS2_PLACEMENT_3D( '', #392, #393, #394 );
#354 = CARTESIAN_POINT( '', ( 14.4000000000000, 0.000000000000000, -0.999176699887351 ) );
#355 = AXIS2_PLACEMENT_3D( '', #395, #396, #397 );
#356 = COLOUR_RGB( '', 0.689999997600000, 0.689999997600000, 0.689999997600000 );
#357 = CARTESIAN_POINT( '', ( 125.100000000000, 0.000000000000000, -0.800000000000000 ) );
#358 = AXIS2_PLACEMENT_3D( '', #398, #399, #400 );
#359 = CARTESIAN_POINT( '', ( 125.100000000000, 0.000000000000000, -3.40000000000000 ) );
#360 = AXIS2_PLACEMENT_3D( '', #401, #402, #403 );
#361 = COLOUR_RGB( '', 0.689999997600000, 0.689999997600000, 0.689999997600000 );
#362 = CARTESIAN_POINT( '', ( 14.4000000000000, 0.000000000000000, -3.40000000000000 ) );
#363 = AXIS2_PLACEMENT_3D( '', #404, #405, #406 );
#364 = CARTESIAN_POINT( '', ( 24.9000000000000, 0.000000000000000, -3.40000000000000 ) );
#365 = AXIS2_PLACEMENT_3D( '', #407, #408, #409 );
#366 = COLOUR_RGB( '', 0.689999997600000, 0.689999997600000, 0.689999997600000 );
#367 = CARTESIAN_POINT( '', ( 24.9000000000000, 0.000000000000000, -0.800000000000000 ) );
#368 = AXIS2_PLACEMENT_3D( '', #410, #411, #412 );
#369 = COLOUR_RGB( '', 0.689999997600000, 0.689999997600000, 0.689999997600000 );
#370 = CARTESIAN_POINT( '', ( 135.600000000000, 0.000000000000000, -0.999176699887344 ) );
#371 = AXIS2_PLACEMENT_3D( '', #413, #414, #415 );
#372 = CARTESIAN_POINT( '', ( 145.086394541078, 0.000000000000000, -5.66787200974266 ) );
#373 = AXIS2_PLACEMENT_3D( '', #416, #417, #418 );
#374 = COLOUR_RGB( '', 0.689999997600000, 0.689999997600000, 0.689999997600000 );
#375 = CARTESIAN_POINT( '', ( 14.4000000000000, 0.000000000000000, 0.878248788109597 ) );
#376 = AXIS2_PLACEMENT_3D( '', #419, #420, #421 );
#377 = COLOUR_RGB( '', 0.689999997600000, 0.689999997600000, 0.689999997600000 );
#378 = CARTESIAN_POINT( '', ( 135.600000000000, 0.000000000000000, 0.878248788109597 ) );
#379 = AXIS2_PLACEMENT_3D( '', #422, #423, #424 );
#380 = CARTESIAN_POINT( '', ( 145.086394541078, 0.000000000000000, 3.86929749773962 ) );
#381 = AXIS2_PLACEMENT_3D( '', #425, #426, #427 );
#382 = COLOUR_RGB( '', 0.689999997600000, 0.689999997600000, 0.689999997600000 );
#383 = COLOUR_RGB( '', 0.689999997600000, 0.689999997600000, 0.689999997600000 );
#384 = CARTESIAN_POINT( '', ( 135.600000000000, 0.000000000000000, -3.40000000000000 ) );
#385 = AXIS2_PLACEMENT_3D( '', #428, #429, #430 );
#386 = COLOUR_RGB( '', 0.689999997600000, 0.689999997600000, 0.689999997600000 );
#387 = CARTESIAN_POINT( '', ( 4.43247617971541, 0.000000000000000, 2.34335037654245 ) );
#388 = AXIS2_PLACEMENT_3D( '', #431, #432, #433 );
#389 = COLOUR_RGB( '', 0.689999997600000, 0.689999997600000, 0.689999997600000 );
#390 = COLOUR_RGB( '', 0.689999997600000, 0.689999997600000, 0.689999997600000 );
#391 = COLOUR_RGB( '', 0.689999997600000, 0.689999997600000, 0.689999997600000 );
#392 = CARTESIAN_POINT( '', ( 4.67304081931883, 0.000000000000000, -4.90489844914408 ) );
#393 = DIRECTION( '', ( -0.953716950748227, 0.000000000000000, -0.300705799504273 ) );
#394 = DIRECTION( '', ( -0.300705799504273, 0.000000000000000, 0.953716950748227 ) );
#395 = CARTESIAN_POINT( '', ( 14.4000000000000, 0.000000000000000, -1.83800000000000 ) );
#396 = DIRECTION( '', ( 1.00000000000000, 0.000000000000000, 0.000000000000000 ) );
#397 = DIRECTION( '', ( 0.000000000000000, -0.000000000000000, 1.00000000000000 ) );
#398 = CARTESIAN_POINT( '', ( 125.100000000000, 0.000000000000000, 0.000000000000000 ) );
#399 = DIRECTION( '', ( 1.00000000000000, 0.000000000000000, 0.000000000000000 ) );
#400 = DIRECTION( '', ( 0.000000000000000, 0.000000000000000, -1.00000000000000 ) );
#401 = CARTESIAN_POINT( '', ( 125.100000000000, 0.000000000000000, -0.900000000000000 ) );
#402 = DIRECTION( '', ( 1.00000000000000, 0.000000000000000, 0.000000000000000 ) );
#403 = DIRECTION( '', ( 0.000000000000000, 0.000000000000000, -1.00000000000000 ) );
#404 = CARTESIAN_POINT( '', ( 14.4000000000000, 0.000000000000000, -0.900000000000000 ) );
#405 = DIRECTION( '', ( 1.00000000000000, 0.000000000000000, 0.000000000000000 ) );
#406 = DIRECTION( '', ( 0.000000000000000, 0.000000000000000, -1.00000000000000 ) );
#407 = CARTESIAN_POINT( '', ( 24.9000000000000, 0.000000000000000, -0.900000000000000 ) );
#408 = DIRECTION( '', ( 1.00000000000000, 0.000000000000000, 0.000000000000000 ) );
#409 = DIRECTION( '', ( 0.000000000000000, 0.000000000000000, -1.00000000000000 ) );
#410 = CARTESIAN_POINT( '', ( 24.9000000000000, 0.000000000000000, 0.000000000000000 ) );
#411 = DIRECTION( '', ( 1.00000000000000, 0.000000000000000, 0.000000000000000 ) );
#412 = DIRECTION( '', ( 0.000000000000000, 0.000000000000000, -1.00000000000000 ) );
#413 = CARTESIAN_POINT( '', ( 135.600000000000, 0.000000000000000, -1.83799999999999 ) );
#414 = DIRECTION( '', ( 1.00000000000000, 0.000000000000000, 0.000000000000000 ) );
#415 = DIRECTION( '', ( -0.000000000000000, 0.000000000000000, 1.00000000000000 ) );
#416 = CARTESIAN_POINT( '', ( 145.326959180681, 0.000000000000000, -4.90489844914408 ) );
#417 = DIRECTION( '', ( 0.953716950748227, 0.000000000000000, -0.300705799504273 ) );
#418 = DIRECTION( '', ( -0.300705799504273, 0.000000000000000, -0.953716950748227 ) );
#419 = CARTESIAN_POINT( '', ( 14.4000000000000, 0.000000000000000, 0.0394254879969485 ) );
#420 = DIRECTION( '', ( 1.00000000000000, 0.000000000000000, 0.000000000000000 ) );
#421 = DIRECTION( '', ( -0.000000000000000, 0.000000000000000, 1.00000000000000 ) );
#422 = CARTESIAN_POINT( '', ( 135.600000000000, 0.000000000000000, 0.0394254879969482 ) );
#423 = DIRECTION( '', ( 1.00000000000000, 0.000000000000000, 0.000000000000000 ) );
#424 = DIRECTION( '', ( 0.000000000000000, -0.000000000000000, 1.00000000000000 ) );
#425 = CARTESIAN_POINT( '', ( 145.326959180681, 0.000000000000000, 3.10632393714104 ) );
#426 = DIRECTION( '', ( -0.953716950748227, 0.000000000000000, -0.300705799504273 ) );
#427 = DIRECTION( '', ( -0.300705799504273, 0.000000000000000, 0.953716950748227 ) );
#428 = CARTESIAN_POINT( '', ( 135.600000000000, 0.000000000000000, -0.900000000000000 ) );
#429 = DIRECTION( '', ( 1.00000000000000, 0.000000000000000, 0.000000000000000 ) );
#430 = DIRECTION( '', ( 0.000000000000000, 0.000000000000000, -1.00000000000000 ) );
#431 = CARTESIAN_POINT( '', ( 4.67304081931883, 0.000000000000000, 3.10632393714103 ) );
#432 = DIRECTION( '', ( 0.953716950748227, 0.000000000000000, -0.300705799504273 ) );
#433 = DIRECTION( '', ( -0.300705799504273, 0.000000000000000, -0.953716950748227 ) );
ENDSEC;
END-ISO-10303-21;
