ISO-10303-21;
HEADER;
FILE_DESCRIPTION( ( 'STEP AP214' ), '1' );
FILE_NAME( '//goodhand-server/Shared Folders/GoodHand Data/Kipp CAD/K0676/K0676.2006X050.stp', '2020-12-09T11:09:30', ( '' ), ( '' ), ' ', 'PARTsolutions', ' ' );
FILE_SCHEMA( ( 'AUTOMOTIVE_DESIGN { 1 0 10303 214 1 1 1 1 }' ) );
ENDSEC;
DATA;
#1 = MECHANICAL_DESIGN_GEOMETRIC_PRESENTATION_REPRESENTATION( ' ', ( #10, #11, #12, #13, #14, #15, #16, #17, #18, #19, #20 ), #6 );
#2 = PRODUCT_DEFINITION_CONTEXT( '', #21, 'design' );
#3 = APPLICATION_PROTOCOL_DEFINITION( 'international standard', 'automotive_design', 2001, #21 );
#4 = PRODUCT_CATEGORY_RELATIONSHIP( 'NONE', 'NONE', #22, #23 );
#5 = SHAPE_DEFINITION_REPRESENTATION( #24, #25 );
#6 =  ( GEOMETRIC_REPRESENTATION_CONTEXT( 3 )GLOBAL_UNCERTAINTY_ASSIGNED_CONTEXT( ( #28 ) )GLOBAL_UNIT_ASSIGNED_CONTEXT( ( #30, #31, #32 ) )REPRESENTATION_CONTEXT( 'NONE', 'WORKSPACE' ) );
#10 = STYLED_ITEM( '', ( #34 ), #35 );
#11 = STYLED_ITEM( '', ( #36 ), #37 );
#12 = STYLED_ITEM( '', ( #38 ), #39 );
#13 = STYLED_ITEM( '', ( #40 ), #41 );
#14 = STYLED_ITEM( '', ( #42 ), #43 );
#15 = STYLED_ITEM( '', ( #44 ), #45 );
#16 = STYLED_ITEM( '', ( #46 ), #47 );
#17 = STYLED_ITEM( '', ( #48 ), #49 );
#18 = STYLED_ITEM( '', ( #50 ), #51 );
#19 = STYLED_ITEM( '', ( #52 ), #53 );
#20 = STYLED_ITEM( '', ( #54 ), #55 );
#21 = APPLICATION_CONTEXT( 'core data for automotive mechanical design processes' );
#22 = PRODUCT_CATEGORY( 'part', 'NONE' );
#23 = PRODUCT_RELATED_PRODUCT_CATEGORY( 'detail', ' ', ( #56 ) );
#24 = PRODUCT_DEFINITION_SHAPE( 'NONE', 'NONE', #57 );
#25 = ADVANCED_BREP_SHAPE_REPRESENTATION( '_K0676.2006X050', ( #58, #59 ), #6 );
#28 = UNCERTAINTY_MEASURE_WITH_UNIT( LENGTH_MEASURE( 0.00100000000000000 ), #30, '', '' );
#30 =  ( CONVERSION_BASED_UNIT( 'MILLIMETRE', #62 )LENGTH_UNIT(  )NAMED_UNIT( #65 ) );
#31 =  ( NAMED_UNIT( #67 )PLANE_ANGLE_UNIT(  )SI_UNIT( $, .RADIAN. ) );
#32 =  ( NAMED_UNIT( #67 )SI_UNIT( $, .STERADIAN. )SOLID_ANGLE_UNIT(  ) );
#34 = PRESENTATION_STYLE_ASSIGNMENT( ( #73 ) );
#35 = ADVANCED_FACE( '', ( #74 ), #75, .F. );
#36 = PRESENTATION_STYLE_ASSIGNMENT( ( #76 ) );
#37 = ADVANCED_FACE( '', ( #77 ), #78, .T. );
#38 = PRESENTATION_STYLE_ASSIGNMENT( ( #79 ) );
#39 = ADVANCED_FACE( '', ( #80 ), #81, .T. );
#40 = PRESENTATION_STYLE_ASSIGNMENT( ( #82 ) );
#41 = ADVANCED_FACE( '', ( #83, #84 ), #85, .T. );
#42 = PRESENTATION_STYLE_ASSIGNMENT( ( #86 ) );
#43 = ADVANCED_FACE( '', ( #87, #88 ), #89, .T. );
#44 = PRESENTATION_STYLE_ASSIGNMENT( ( #90 ) );
#45 = ADVANCED_FACE( '', ( #91 ), #92, .T. );
#46 = PRESENTATION_STYLE_ASSIGNMENT( ( #93 ) );
#47 = ADVANCED_FACE( '', ( #94, #95 ), #96, .T. );
#48 = PRESENTATION_STYLE_ASSIGNMENT( ( #97 ) );
#49 = ADVANCED_FACE( '', ( #98 ), #99, .T. );
#50 = PRESENTATION_STYLE_ASSIGNMENT( ( #100 ) );
#51 = ADVANCED_FACE( '', ( #101 ), #102, .T. );
#52 = PRESENTATION_STYLE_ASSIGNMENT( ( #103 ) );
#53 = ADVANCED_FACE( '', ( #104 ), #105, .T. );
#54 = PRESENTATION_STYLE_ASSIGNMENT( ( #106 ) );
#55 = ADVANCED_FACE( '', ( #107 ), #108, .F. );
#56 = PRODUCT( '_K0676.2006X050', '_K0676.2006X050', 'PART-_K0676.2006X050-DESC', ( #109 ) );
#57 = PRODUCT_DEFINITION( 'NONE', 'NONE', #110, #2 );
#58 = MANIFOLD_SOLID_BREP( '_K0676.2006X050', #111 );
#59 = AXIS2_PLACEMENT_3D( '', #112, #113, #114 );
#62 = LENGTH_MEASURE_WITH_UNIT( LENGTH_MEASURE( 1.00000000000000 ), #115 );
#65 = DIMENSIONAL_EXPONENTS( 1.00000000000000, 0.000000000000000, 0.000000000000000, 0.000000000000000, 0.000000000000000, 0.000000000000000, 0.000000000000000 );
#67 = DIMENSIONAL_EXPONENTS( 0.000000000000000, 0.000000000000000, 0.000000000000000, 0.000000000000000, 0.000000000000000, 0.000000000000000, 0.000000000000000 );
#73 = SURFACE_STYLE_USAGE( .BOTH., #116 );
#74 = FACE_OUTER_BOUND( '', #117, .T. );
#75 = PLANE( '', #118 );
#76 = SURFACE_STYLE_USAGE( .BOTH., #119 );
#77 = FACE_OUTER_BOUND( '', #120, .T. );
#78 = PLANE( '', #121 );
#79 = SURFACE_STYLE_USAGE( .BOTH., #122 );
#80 = FACE_OUTER_BOUND( '', #123, .T. );
#81 = PLANE( '', #124 );
#82 = SURFACE_STYLE_USAGE( .BOTH., #125 );
#83 = FACE_OUTER_BOUND( '', #126, .T. );
#84 = FACE_BOUND( '', #127, .T. );
#85 = CONICAL_SURFACE( '', #128, 2.38650000000000, 0.785398163400000 );
#86 = SURFACE_STYLE_USAGE( .BOTH., #129 );
#87 = FACE_OUTER_BOUND( '', #130, .T. );
#88 = FACE_OUTER_BOUND( '', #131, .T. );
#89 = CYLINDRICAL_SURFACE( '', #132, 3.00000000000000 );
#90 = SURFACE_STYLE_USAGE( .BOTH., #133 );
#91 = FACE_OUTER_BOUND( '', #134, .T. );
#92 = PLANE( '', #135 );
#93 = SURFACE_STYLE_USAGE( .BOTH., #136 );
#94 = FACE_BOUND( '', #137, .T. );
#95 = FACE_OUTER_BOUND( '', #138, .T. );
#96 = PLANE( '', #139 );
#97 = SURFACE_STYLE_USAGE( .BOTH., #140 );
#98 = FACE_OUTER_BOUND( '', #141, .T. );
#99 = PLANE( '', #142 );
#100 = SURFACE_STYLE_USAGE( .BOTH., #143 );
#101 = FACE_OUTER_BOUND( '', #144, .T. );
#102 = PLANE( '', #145 );
#103 = SURFACE_STYLE_USAGE( .BOTH., #146 );
#104 = FACE_OUTER_BOUND( '', #147, .T. );
#105 = PLANE( '', #148 );
#106 = SURFACE_STYLE_USAGE( .BOTH., #149 );
#107 = FACE_OUTER_BOUND( '', #150, .T. );
#108 = PLANE( '', #151 );
#109 = PRODUCT_CONTEXT( '', #21, 'mechanical' );
#110 = PRODUCT_DEFINITION_FORMATION_WITH_SPECIFIED_SOURCE( ' ', 'NONE', #56, .NOT_KNOWN. );
#111 = CLOSED_SHELL( '', ( #37, #35, #53, #45, #39, #51, #49, #47, #55, #41, #43 ) );
#112 = CARTESIAN_POINT( '', ( 0.000000000000000, 0.000000000000000, 0.000000000000000 ) );
#113 = DIRECTION( '', ( 0.000000000000000, 0.000000000000000, 1.00000000000000 ) );
#114 = DIRECTION( '', ( 1.00000000000000, 0.000000000000000, 0.000000000000000 ) );
#115 =  ( LENGTH_UNIT(  )NAMED_UNIT( #65 )SI_UNIT( .MILLI., .METRE. ) );
#116 = SURFACE_SIDE_STYLE( '', ( #153 ) );
#117 = EDGE_LOOP( '', ( #154, #155, #156, #157, #158, #159 ) );
#118 = AXIS2_PLACEMENT_3D( '', #160, #161, #162 );
#119 = SURFACE_SIDE_STYLE( '', ( #163 ) );
#120 = EDGE_LOOP( '', ( #164, #165, #166, #167 ) );
#121 = AXIS2_PLACEMENT_3D( '', #168, #169, #170 );
#122 = SURFACE_SIDE_STYLE( '', ( #171 ) );
#123 = EDGE_LOOP( '', ( #172, #173, #174, #175 ) );
#124 = AXIS2_PLACEMENT_3D( '', #176, #177, #178 );
#125 = SURFACE_SIDE_STYLE( '', ( #179 ) );
#126 = EDGE_LOOP( '', ( #180 ) );
#127 = EDGE_LOOP( '', ( #181 ) );
#128 = AXIS2_PLACEMENT_3D( '', #182, #183, #184 );
#129 = SURFACE_SIDE_STYLE( '', ( #185 ) );
#130 = EDGE_LOOP( '', ( #186 ) );
#131 = EDGE_LOOP( '', ( #187 ) );
#132 = AXIS2_PLACEMENT_3D( '', #188, #189, #190 );
#133 = SURFACE_SIDE_STYLE( '', ( #191 ) );
#134 = EDGE_LOOP( '', ( #192, #193, #194, #195 ) );
#135 = AXIS2_PLACEMENT_3D( '', #196, #197, #198 );
#136 = SURFACE_SIDE_STYLE( '', ( #199 ) );
#137 = EDGE_LOOP( '', ( #200 ) );
#138 = EDGE_LOOP( '', ( #201, #202, #203, #204, #205, #206 ) );
#139 = AXIS2_PLACEMENT_3D( '', #207, #208, #209 );
#140 = SURFACE_SIDE_STYLE( '', ( #210 ) );
#141 = EDGE_LOOP( '', ( #211, #212, #213, #214 ) );
#142 = AXIS2_PLACEMENT_3D( '', #215, #216, #217 );
#143 = SURFACE_SIDE_STYLE( '', ( #218 ) );
#144 = EDGE_LOOP( '', ( #219, #220, #221, #222 ) );
#145 = AXIS2_PLACEMENT_3D( '', #223, #224, #225 );
#146 = SURFACE_SIDE_STYLE( '', ( #226 ) );
#147 = EDGE_LOOP( '', ( #227, #228, #229, #230 ) );
#148 = AXIS2_PLACEMENT_3D( '', #231, #232, #233 );
#149 = SURFACE_SIDE_STYLE( '', ( #234 ) );
#150 = EDGE_LOOP( '', ( #235 ) );
#151 = AXIS2_PLACEMENT_3D( '', #236, #237, #238 );
#153 = SURFACE_STYLE_FILL_AREA( #239 );
#154 = ORIENTED_EDGE( '', *, *, #240, .F. );
#155 = ORIENTED_EDGE( '', *, *, #241, .F. );
#156 = ORIENTED_EDGE( '', *, *, #242, .F. );
#157 = ORIENTED_EDGE( '', *, *, #243, .F. );
#158 = ORIENTED_EDGE( '', *, *, #244, .F. );
#159 = ORIENTED_EDGE( '', *, *, #245, .F. );
#160 = CARTESIAN_POINT( '', ( 0.000000000000000, 0.000000000000000, 0.000000000000000 ) );
#161 = DIRECTION( '', ( 0.000000000000000, 1.00000000000000, 0.000000000000000 ) );
#162 = DIRECTION( '', ( 0.000000000000000, -0.000000000000000, 1.00000000000000 ) );
#163 = SURFACE_STYLE_FILL_AREA( #246 );
#164 = ORIENTED_EDGE( '', *, *, #247, .F. );
#165 = ORIENTED_EDGE( '', *, *, #248, .F. );
#166 = ORIENTED_EDGE( '', *, *, #241, .T. );
#167 = ORIENTED_EDGE( '', *, *, #249, .T. );
#168 = CARTESIAN_POINT( '', ( 0.000000000000000, 7.00000000000000, -11.5470053837925 ) );
#169 = DIRECTION( '', ( -0.499524110790929, -0.0436193873653360, -0.865201139495554 ) );
#170 = DIRECTION( '', ( -0.866025403784439, 0.000000000000000, 0.500000000000000 ) );
#171 = SURFACE_STYLE_FILL_AREA( #250 );
#172 = ORIENTED_EDGE( '', *, *, #251, .F. );
#173 = ORIENTED_EDGE( '', *, *, #252, .F. );
#174 = ORIENTED_EDGE( '', *, *, #245, .T. );
#175 = ORIENTED_EDGE( '', *, *, #253, .T. );
#176 = CARTESIAN_POINT( '', ( -10.0000000000000, 7.00000000000000, 5.77350269189626 ) );
#177 = DIRECTION( '', ( -0.499524110790929, -0.0436193873653360, 0.865201139495554 ) );
#178 = DIRECTION( '', ( 0.866025403784439, 0.000000000000000, 0.500000000000000 ) );
#179 = SURFACE_STYLE_FILL_AREA( #254 );
#180 = ORIENTED_EDGE( '', *, *, #255, .F. );
#181 = ORIENTED_EDGE( '', *, *, #256, .T. );
#182 = CARTESIAN_POINT( '', ( 0.000000000000000, 57.0000000000000, 0.000000000000000 ) );
#183 = DIRECTION( '', ( -0.000000000000000, -1.00000000000000, -0.000000000000000 ) );
#184 = DIRECTION( '', ( 0.000000000000000, 0.000000000000000, -1.00000000000000 ) );
#185 = SURFACE_STYLE_FILL_AREA( #257 );
#186 = ORIENTED_EDGE( '', *, *, #258, .F. );
#187 = ORIENTED_EDGE( '', *, *, #255, .T. );
#188 = CARTESIAN_POINT( '', ( 0.000000000000000, 7.00000000000000, 0.000000000000000 ) );
#189 = DIRECTION( '', ( -0.000000000000000, 1.00000000000000, 0.000000000000000 ) );
#190 = DIRECTION( '', ( 0.000000000000000, 0.000000000000000, -1.00000000000000 ) );
#191 = SURFACE_STYLE_FILL_AREA( #259 );
#192 = ORIENTED_EDGE( '', *, *, #260, .F. );
#193 = ORIENTED_EDGE( '', *, *, #249, .F. );
#194 = ORIENTED_EDGE( '', *, *, #240, .T. );
#195 = ORIENTED_EDGE( '', *, *, #252, .T. );
#196 = CARTESIAN_POINT( '', ( -10.0000000000000, 7.00000000000000, -5.77350269189626 ) );
#197 = DIRECTION( '', ( -0.999048221581858, -0.0436193873653360, 0.000000000000000 ) );
#198 = DIRECTION( '', ( 0.0436193873653360, -0.999048221581858, 0.000000000000000 ) );
#199 = SURFACE_STYLE_FILL_AREA( #261 );
#200 = ORIENTED_EDGE( '', *, *, #258, .T. );
#201 = ORIENTED_EDGE( '', *, *, #260, .T. );
#202 = ORIENTED_EDGE( '', *, *, #251, .T. );
#203 = ORIENTED_EDGE( '', *, *, #262, .T. );
#204 = ORIENTED_EDGE( '', *, *, #263, .T. );
#205 = ORIENTED_EDGE( '', *, *, #264, .T. );
#206 = ORIENTED_EDGE( '', *, *, #247, .T. );
#207 = CARTESIAN_POINT( '', ( 0.000000000000000, 7.00000000000000, 0.000000000000000 ) );
#208 = DIRECTION( '', ( 0.000000000000000, 1.00000000000000, 0.000000000000000 ) );
#209 = DIRECTION( '', ( 0.000000000000000, -0.000000000000000, 1.00000000000000 ) );
#210 = SURFACE_STYLE_FILL_AREA( #265 );
#211 = ORIENTED_EDGE( '', *, *, #263, .F. );
#212 = ORIENTED_EDGE( '', *, *, #266, .F. );
#213 = ORIENTED_EDGE( '', *, *, #243, .T. );
#214 = ORIENTED_EDGE( '', *, *, #267, .T. );
#215 = CARTESIAN_POINT( '', ( 10.0000000000000, 7.00000000000000, 5.77350269189626 ) );
#216 = DIRECTION( '', ( 0.999048221581858, -0.0436193873653360, 0.000000000000000 ) );
#217 = DIRECTION( '', ( 0.0436193873653360, 0.999048221581858, 0.000000000000000 ) );
#218 = SURFACE_STYLE_FILL_AREA( #268 );
#219 = ORIENTED_EDGE( '', *, *, #262, .F. );
#220 = ORIENTED_EDGE( '', *, *, #253, .F. );
#221 = ORIENTED_EDGE( '', *, *, #244, .T. );
#222 = ORIENTED_EDGE( '', *, *, #266, .T. );
#223 = CARTESIAN_POINT( '', ( 0.000000000000000, 7.00000000000000, 11.5470053837925 ) );
#224 = DIRECTION( '', ( 0.499524110790929, -0.0436193873653360, 0.865201139495554 ) );
#225 = DIRECTION( '', ( 0.866025403784439, 0.000000000000000, -0.500000000000000 ) );
#226 = SURFACE_STYLE_FILL_AREA( #269 );
#227 = ORIENTED_EDGE( '', *, *, #264, .F. );
#228 = ORIENTED_EDGE( '', *, *, #267, .F. );
#229 = ORIENTED_EDGE( '', *, *, #242, .T. );
#230 = ORIENTED_EDGE( '', *, *, #248, .T. );
#231 = CARTESIAN_POINT( '', ( 10.0000000000000, 7.00000000000000, -5.77350269189626 ) );
#232 = DIRECTION( '', ( 0.499524110790929, -0.0436193873653360, -0.865201139495554 ) );
#233 = DIRECTION( '', ( -0.866025403784439, 0.000000000000000, -0.500000000000000 ) );
#234 = SURFACE_STYLE_FILL_AREA( #270 );
#235 = ORIENTED_EDGE( '', *, *, #256, .F. );
#236 = CARTESIAN_POINT( '', ( 0.000000000000000, 57.0000000000000, 0.000000000000000 ) );
#237 = DIRECTION( '', ( 0.000000000000000, -1.00000000000000, -0.000000000000000 ) );
#238 = DIRECTION( '', ( 0.000000000000000, 0.000000000000000, -1.00000000000000 ) );
#239 = FILL_AREA_STYLE( '', ( #271 ) );
#240 = EDGE_CURVE( '', #272, #273, #274, .T. );
#241 = EDGE_CURVE( '', #275, #272, #276, .T. );
#242 = EDGE_CURVE( '', #277, #275, #278, .T. );
#243 = EDGE_CURVE( '', #279, #277, #280, .T. );
#244 = EDGE_CURVE( '', #281, #279, #282, .T. );
#245 = EDGE_CURVE( '', #273, #281, #283, .T. );
#246 = FILL_AREA_STYLE( '', ( #284 ) );
#247 = EDGE_CURVE( '', #285, #286, #287, .T. );
#248 = EDGE_CURVE( '', #275, #285, #288, .T. );
#249 = EDGE_CURVE( '', #272, #286, #289, .T. );
#250 = FILL_AREA_STYLE( '', ( #290 ) );
#251 = EDGE_CURVE( '', #291, #292, #293, .T. );
#252 = EDGE_CURVE( '', #273, #291, #294, .T. );
#253 = EDGE_CURVE( '', #281, #292, #295, .T. );
#254 = FILL_AREA_STYLE( '', ( #296 ) );
#255 = EDGE_CURVE( '', #297, #297, #298, .T. );
#256 = EDGE_CURVE( '', #299, #299, #300, .T. );
#257 = FILL_AREA_STYLE( '', ( #301 ) );
#258 = EDGE_CURVE( '', #302, #302, #303, .T. );
#259 = FILL_AREA_STYLE( '', ( #304 ) );
#260 = EDGE_CURVE( '', #286, #291, #305, .T. );
#261 = FILL_AREA_STYLE( '', ( #306 ) );
#262 = EDGE_CURVE( '', #292, #307, #308, .T. );
#263 = EDGE_CURVE( '', #307, #309, #310, .T. );
#264 = EDGE_CURVE( '', #309, #285, #311, .T. );
#265 = FILL_AREA_STYLE( '', ( #312 ) );
#266 = EDGE_CURVE( '', #279, #307, #313, .T. );
#267 = EDGE_CURVE( '', #277, #309, #314, .T. );
#268 = FILL_AREA_STYLE( '', ( #315 ) );
#269 = FILL_AREA_STYLE( '', ( #316 ) );
#270 = FILL_AREA_STYLE( '', ( #317 ) );
#271 = FILL_AREA_STYLE_COLOUR( '', #318 );
#272 = VERTEX_POINT( '', #319 );
#273 = VERTEX_POINT( '', #320 );
#274 = LINE( '', #321, #322 );
#275 = VERTEX_POINT( '', #323 );
#276 = LINE( '', #324, #325 );
#277 = VERTEX_POINT( '', #326 );
#278 = LINE( '', #327, #328 );
#279 = VERTEX_POINT( '', #329 );
#280 = LINE( '', #330, #331 );
#281 = VERTEX_POINT( '', #332 );
#282 = LINE( '', #333, #334 );
#283 = LINE( '', #335, #336 );
#284 = FILL_AREA_STYLE_COLOUR( '', #337 );
#285 = VERTEX_POINT( '', #338 );
#286 = VERTEX_POINT( '', #339 );
#287 = LINE( '', #340, #341 );
#288 = LINE( '', #342, #343 );
#289 = LINE( '', #344, #345 );
#290 = FILL_AREA_STYLE_COLOUR( '', #346 );
#291 = VERTEX_POINT( '', #347 );
#292 = VERTEX_POINT( '', #348 );
#293 = LINE( '', #349, #350 );
#294 = LINE( '', #351, #352 );
#295 = LINE( '', #353, #354 );
#296 = FILL_AREA_STYLE_COLOUR( '', #355 );
#297 = VERTEX_POINT( '', #356 );
#298 = CIRCLE( '', #357, 3.00000000000000 );
#299 = VERTEX_POINT( '', #358 );
#300 = CIRCLE( '', #359, 2.38650000000000 );
#301 = FILL_AREA_STYLE_COLOUR( '', #360 );
#302 = VERTEX_POINT( '', #361 );
#303 = CIRCLE( '', #362, 3.00000000000000 );
#304 = FILL_AREA_STYLE_COLOUR( '', #363 );
#305 = LINE( '', #364, #365 );
#306 = FILL_AREA_STYLE_COLOUR( '', #366 );
#307 = VERTEX_POINT( '', #367 );
#308 = LINE( '', #368, #369 );
#309 = VERTEX_POINT( '', #370 );
#310 = LINE( '', #371, #372 );
#311 = LINE( '', #373, #374 );
#312 = FILL_AREA_STYLE_COLOUR( '', #375 );
#313 = LINE( '', #376, #377 );
#314 = LINE( '', #378, #379 );
#315 = FILL_AREA_STYLE_COLOUR( '', #380 );
#316 = FILL_AREA_STYLE_COLOUR( '', #381 );
#317 = FILL_AREA_STYLE_COLOUR( '', #382 );
#318 = COLOUR_RGB( '', 0.689999997600000, 0.689999997600000, 0.689999997600000 );
#319 = CARTESIAN_POINT( '', ( -9.69437339964042, 0.000000000000000, -5.59704909190714 ) );
#320 = CARTESIAN_POINT( '', ( -9.69437339964042, 0.000000000000000, 5.59704909190714 ) );
#321 = CARTESIAN_POINT( '', ( -9.69437339964042, 0.000000000000000, 0.000000000000000 ) );
#322 = VECTOR( '', #383, 1000.00000000000 );
#323 = CARTESIAN_POINT( '', ( 4.39010374806836E-16, 0.000000000000000, -11.1940981838143 ) );
#324 = CARTESIAN_POINT( '', ( -4.84718669982021, 0.000000000000000, -8.39557363786071 ) );
#325 = VECTOR( '', #384, 1000.00000000000 );
#326 = CARTESIAN_POINT( '', ( 9.69437339964042, 0.000000000000000, -5.59704909190714 ) );
#327 = CARTESIAN_POINT( '', ( 4.84718669982021, 0.000000000000000, -8.39557363786071 ) );
#328 = VECTOR( '', #385, 1000.00000000000 );
#329 = CARTESIAN_POINT( '', ( 9.69437339964042, 0.000000000000000, 5.59704909190714 ) );
#330 = CARTESIAN_POINT( '', ( 9.69437339964042, 0.000000000000000, 0.000000000000000 ) );
#331 = VECTOR( '', #386, 1000.00000000000 );
#332 = CARTESIAN_POINT( '', ( -4.39010374806836E-16, 0.000000000000000, 11.1940981838143 ) );
#333 = CARTESIAN_POINT( '', ( 4.84718669982021, 0.000000000000000, 8.39557363786071 ) );
#334 = VECTOR( '', #387, 1000.00000000000 );
#335 = CARTESIAN_POINT( '', ( -4.84718669982021, 0.000000000000000, 8.39557363786071 ) );
#336 = VECTOR( '', #388, 1000.00000000000 );
#337 = COLOUR_RGB( '', 0.689999997600000, 0.689999997600000, 0.689999997600000 );
#338 = CARTESIAN_POINT( '', ( 0.000000000000000, 7.00000000000000, -11.5470053837925 ) );
#339 = CARTESIAN_POINT( '', ( -10.0000000000000, 7.00000000000000, -5.77350269189626 ) );
#340 = CARTESIAN_POINT( '', ( 0.000000000000000, 7.00000000000000, -11.5470053837925 ) );
#341 = VECTOR( '', #389, 1000.00000000000 );
#342 = CARTESIAN_POINT( '', ( 0.000000000000000, 6.70966499290056, -11.5323680531624 ) );
#343 = VECTOR( '', #390, 1000.00000000000 );
#344 = CARTESIAN_POINT( '', ( -9.98732369983069, 6.70966499290056, -5.76618402658118 ) );
#345 = VECTOR( '', #391, 1000.00000000000 );
#346 = COLOUR_RGB( '', 0.689999997600000, 0.689999997600000, 0.689999997600000 );
#347 = CARTESIAN_POINT( '', ( -10.0000000000000, 7.00000000000000, 5.77350269189626 ) );
#348 = CARTESIAN_POINT( '', ( 0.000000000000000, 7.00000000000000, 11.5470053837925 ) );
#349 = CARTESIAN_POINT( '', ( -10.0000000000000, 7.00000000000000, 5.77350269189626 ) );
#350 = VECTOR( '', #392, 1000.00000000000 );
#351 = CARTESIAN_POINT( '', ( -9.98732369983069, 6.70966499290056, 5.76618402658118 ) );
#352 = VECTOR( '', #393, 1000.00000000000 );
#353 = CARTESIAN_POINT( '', ( 0.000000000000000, 6.70966499290056, 11.5323680531624 ) );
#354 = VECTOR( '', #394, 1000.00000000000 );
#355 = COLOUR_RGB( '', 0.689999997600000, 0.689999997600000, 0.689999997600000 );
#356 = CARTESIAN_POINT( '', ( 0.000000000000000, 56.3865000000000, -3.00000000000000 ) );
#357 = AXIS2_PLACEMENT_3D( '', #395, #396, #397 );
#358 = CARTESIAN_POINT( '', ( 0.000000000000000, 57.0000000000000, -2.38650000000000 ) );
#359 = AXIS2_PLACEMENT_3D( '', #398, #399, #400 );
#360 = COLOUR_RGB( '', 0.689999997600000, 0.689999997600000, 0.689999997600000 );
#361 = CARTESIAN_POINT( '', ( 0.000000000000000, 7.00000000000001, -3.00000000000000 ) );
#362 = AXIS2_PLACEMENT_3D( '', #401, #402, #403 );
#363 = COLOUR_RGB( '', 0.689999997600000, 0.689999997600000, 0.689999997600000 );
#364 = CARTESIAN_POINT( '', ( -10.0000000000000, 7.00000000000000, -5.77350269189626 ) );
#365 = VECTOR( '', #404, 1000.00000000000 );
#366 = COLOUR_RGB( '', 0.689999997600000, 0.689999997600000, 0.689999997600000 );
#367 = CARTESIAN_POINT( '', ( 10.0000000000000, 7.00000000000000, 5.77350269189626 ) );
#368 = CARTESIAN_POINT( '', ( 0.000000000000000, 7.00000000000000, 11.5470053837925 ) );
#369 = VECTOR( '', #405, 1000.00000000000 );
#370 = CARTESIAN_POINT( '', ( 10.0000000000000, 7.00000000000000, -5.77350269189626 ) );
#371 = CARTESIAN_POINT( '', ( 10.0000000000000, 7.00000000000000, 5.77350269189626 ) );
#372 = VECTOR( '', #406, 1000.00000000000 );
#373 = CARTESIAN_POINT( '', ( 10.0000000000000, 7.00000000000000, -5.77350269189626 ) );
#374 = VECTOR( '', #407, 1000.00000000000 );
#375 = COLOUR_RGB( '', 0.689999997600000, 0.689999997600000, 0.689999997600000 );
#376 = CARTESIAN_POINT( '', ( 9.98732369983069, 6.70966499290056, 5.76618402658118 ) );
#377 = VECTOR( '', #408, 1000.00000000000 );
#378 = CARTESIAN_POINT( '', ( 9.98732369983069, 6.70966499290056, -5.76618402658118 ) );
#379 = VECTOR( '', #409, 1000.00000000000 );
#380 = COLOUR_RGB( '', 0.689999997600000, 0.689999997600000, 0.689999997600000 );
#381 = COLOUR_RGB( '', 0.689999997600000, 0.689999997600000, 0.689999997600000 );
#382 = COLOUR_RGB( '', 0.689999997600000, 0.689999997600000, 0.689999997600000 );
#383 = DIRECTION( '', ( 0.000000000000000, 0.000000000000000, 1.00000000000000 ) );
#384 = DIRECTION( '', ( -0.866025403784439, 0.000000000000000, 0.500000000000000 ) );
#385 = DIRECTION( '', ( -0.866025403784439, 0.000000000000000, -0.500000000000000 ) );
#386 = DIRECTION( '', ( 0.000000000000000, 0.000000000000000, -1.00000000000000 ) );
#387 = DIRECTION( '', ( 0.866025403784439, 0.000000000000000, -0.500000000000000 ) );
#388 = DIRECTION( '', ( 0.866025403784439, 0.000000000000000, 0.500000000000000 ) );
#389 = DIRECTION( '', ( -0.866025403784439, 0.000000000000000, 0.500000000000000 ) );
#390 = DIRECTION( '', ( 0.000000000000000, 0.998731565520054, -0.0503513657596513 ) );
#391 = DIRECTION( '', ( -0.0436055618630999, 0.998731565520054, -0.0251756828798256 ) );
#392 = DIRECTION( '', ( 0.866025403784439, 0.000000000000000, 0.500000000000000 ) );
#393 = DIRECTION( '', ( -0.0436055618630999, 0.998731565520054, 0.0251756828798256 ) );
#394 = DIRECTION( '', ( 0.000000000000000, 0.998731565520054, 0.0503513657596513 ) );
#395 = CARTESIAN_POINT( '', ( 0.000000000000000, 56.3865000000000, 0.000000000000000 ) );
#396 = DIRECTION( '', ( 0.000000000000000, -1.00000000000000, -0.000000000000000 ) );
#397 = DIRECTION( '', ( 0.000000000000000, 0.000000000000000, -1.00000000000000 ) );
#398 = CARTESIAN_POINT( '', ( 0.000000000000000, 57.0000000000000, 0.000000000000000 ) );
#399 = DIRECTION( '', ( 0.000000000000000, -1.00000000000000, -0.000000000000000 ) );
#400 = DIRECTION( '', ( 0.000000000000000, 0.000000000000000, -1.00000000000000 ) );
#401 = CARTESIAN_POINT( '', ( 0.000000000000000, 7.00000000000001, 0.000000000000000 ) );
#402 = DIRECTION( '', ( 0.000000000000000, -1.00000000000000, -0.000000000000000 ) );
#403 = DIRECTION( '', ( 0.000000000000000, 0.000000000000000, -1.00000000000000 ) );
#404 = DIRECTION( '', ( 0.000000000000000, 0.000000000000000, 1.00000000000000 ) );
#405 = DIRECTION( '', ( 0.866025403784439, 0.000000000000000, -0.500000000000000 ) );
#406 = DIRECTION( '', ( 0.000000000000000, 0.000000000000000, -1.00000000000000 ) );
#407 = DIRECTION( '', ( -0.866025403784439, 0.000000000000000, -0.500000000000000 ) );
#408 = DIRECTION( '', ( 0.0436055618630999, 0.998731565520054, 0.0251756828798256 ) );
#409 = DIRECTION( '', ( 0.0436055618630999, 0.998731565520054, -0.0251756828798256 ) );
ENDSEC;
END-ISO-10303-21;
