ISO-10303-21;
HEADER;
FILE_DESCRIPTION( ( 'STEP AP214' ), '1' );
FILE_NAME( '//goodhand-server/Shared Folders/GoodHand Data/Kipp CAD/K0713/K0713.1006.stp', '2020-12-09T12:39:08', ( '' ), ( '' ), ' ', 'PARTsolutions', ' ' );
FILE_SCHEMA( ( 'AUTOMOTIVE_DESIGN { 1 0 10303 214 1 1 1 1 }' ) );
ENDSEC;
DATA;
#1 = MECHANICAL_DESIGN_GEOMETRIC_PRESENTATION_REPRESENTATION( ' ', ( #10, #11, #12, #13, #14, #15, #16, #17, #18, #19, #20 ), #6 );
#2 = PRODUCT_DEFINITION_CONTEXT( '', #21, 'design' );
#3 = APPLICATION_PROTOCOL_DEFINITION( 'international standard', 'automotive_design', 2001, #21 );
#4 = PRODUCT_CATEGORY_RELATIONSHIP( 'NONE', 'NONE', #22, #23 );
#5 = SHAPE_DEFINITION_REPRESENTATION( #24, #25 );
#6 =  ( GEOMETRIC_REPRESENTATION_CONTEXT( 3 )GLOBAL_UNCERTAINTY_ASSIGNED_CONTEXT( ( #28 ) )GLOBAL_UNIT_ASSIGNED_CONTEXT( ( #30, #31, #32 ) )REPRESENTATION_CONTEXT( 'NONE', 'WORKSPACE' ) );
#10 = STYLED_ITEM( '', ( #34 ), #35 );
#11 = STYLED_ITEM( '', ( #36 ), #37 );
#12 = STYLED_ITEM( '', ( #38 ), #39 );
#13 = STYLED_ITEM( '', ( #40 ), #41 );
#14 = STYLED_ITEM( '', ( #42 ), #43 );
#15 = STYLED_ITEM( '', ( #44 ), #45 );
#16 = STYLED_ITEM( '', ( #46 ), #47 );
#17 = STYLED_ITEM( '', ( #48 ), #49 );
#18 = STYLED_ITEM( '', ( #50 ), #51 );
#19 = STYLED_ITEM( '', ( #52 ), #53 );
#20 = STYLED_ITEM( '', ( #54 ), #55 );
#21 = APPLICATION_CONTEXT( 'core data for automotive mechanical design processes' );
#22 = PRODUCT_CATEGORY( 'part', 'NONE' );
#23 = PRODUCT_RELATED_PRODUCT_CATEGORY( 'detail', ' ', ( #56 ) );
#24 = PRODUCT_DEFINITION_SHAPE( 'NONE', 'NONE', #57 );
#25 = ADVANCED_BREP_SHAPE_REPRESENTATION( '_K0713.1006', ( #58, #59 ), #6 );
#28 = UNCERTAINTY_MEASURE_WITH_UNIT( LENGTH_MEASURE( 0.00100000000000000 ), #30, '', '' );
#30 =  ( CONVERSION_BASED_UNIT( 'MILLIMETRE', #62 )LENGTH_UNIT(  )NAMED_UNIT( #65 ) );
#31 =  ( NAMED_UNIT( #67 )PLANE_ANGLE_UNIT(  )SI_UNIT( $, .RADIAN. ) );
#32 =  ( NAMED_UNIT( #67 )SI_UNIT( $, .STERADIAN. )SOLID_ANGLE_UNIT(  ) );
#34 = PRESENTATION_STYLE_ASSIGNMENT( ( #73 ) );
#35 = ADVANCED_FACE( '', ( #74 ), #75, .T. );
#36 = PRESENTATION_STYLE_ASSIGNMENT( ( #76 ) );
#37 = ADVANCED_FACE( '', ( #77, #78 ), #79, .T. );
#38 = PRESENTATION_STYLE_ASSIGNMENT( ( #80 ) );
#39 = ADVANCED_FACE( '', ( #81 ), #82, .T. );
#40 = PRESENTATION_STYLE_ASSIGNMENT( ( #83 ) );
#41 = ADVANCED_FACE( '', ( #84 ), #85, .T. );
#42 = PRESENTATION_STYLE_ASSIGNMENT( ( #86 ) );
#43 = ADVANCED_FACE( '', ( #87, #88 ), #89, .T. );
#44 = PRESENTATION_STYLE_ASSIGNMENT( ( #90 ) );
#45 = ADVANCED_FACE( '', ( #91, #92 ), #93, .F. );
#46 = PRESENTATION_STYLE_ASSIGNMENT( ( #94 ) );
#47 = ADVANCED_FACE( '', ( #95, #96 ), #97, .T. );
#48 = PRESENTATION_STYLE_ASSIGNMENT( ( #98 ) );
#49 = ADVANCED_FACE( '', ( #99, #100 ), #101, .F. );
#50 = PRESENTATION_STYLE_ASSIGNMENT( ( #102 ) );
#51 = ADVANCED_FACE( '', ( #103 ), #104, .T. );
#52 = PRESENTATION_STYLE_ASSIGNMENT( ( #105 ) );
#53 = ADVANCED_FACE( '', ( #106, #107 ), #108, .T. );
#54 = PRESENTATION_STYLE_ASSIGNMENT( ( #109 ) );
#55 = ADVANCED_FACE( '', ( #110 ), #111, .F. );
#56 = PRODUCT( '_K0713.1006', '_K0713.1006', 'PART-_K0713.1006-DESC', ( #112 ) );
#57 = PRODUCT_DEFINITION( 'NONE', 'NONE', #113, #2 );
#58 = MANIFOLD_SOLID_BREP( '_K0713.1006', #114 );
#59 = AXIS2_PLACEMENT_3D( '', #115, #116, #117 );
#62 = LENGTH_MEASURE_WITH_UNIT( LENGTH_MEASURE( 1.00000000000000 ), #118 );
#65 = DIMENSIONAL_EXPONENTS( 1.00000000000000, 0.000000000000000, 0.000000000000000, 0.000000000000000, 0.000000000000000, 0.000000000000000, 0.000000000000000 );
#67 = DIMENSIONAL_EXPONENTS( 0.000000000000000, 0.000000000000000, 0.000000000000000, 0.000000000000000, 0.000000000000000, 0.000000000000000, 0.000000000000000 );
#73 = SURFACE_STYLE_USAGE( .BOTH., #119 );
#74 = FACE_OUTER_BOUND( '', #120, .T. );
#75 = PLANE( '', #121 );
#76 = SURFACE_STYLE_USAGE( .BOTH., #122 );
#77 = FACE_OUTER_BOUND( '', #123, .T. );
#78 = FACE_OUTER_BOUND( '', #124, .T. );
#79 = CYLINDRICAL_SURFACE( '', #125, 3.00000000000000 );
#80 = SURFACE_STYLE_USAGE( .BOTH., #126 );
#81 = FACE_OUTER_BOUND( '', #127, .T. );
#82 = CYLINDRICAL_SURFACE( '', #128, 5.00000000000000 );
#83 = SURFACE_STYLE_USAGE( .BOTH., #129 );
#84 = FACE_OUTER_BOUND( '', #130, .T. );
#85 = PLANE( '', #131 );
#86 = SURFACE_STYLE_USAGE( .BOTH., #132 );
#87 = FACE_BOUND( '', #133, .T. );
#88 = FACE_OUTER_BOUND( '', #134, .T. );
#89 = SPHERICAL_SURFACE( '', #135, 4.22500000000000 );
#90 = SURFACE_STYLE_USAGE( .BOTH., #136 );
#91 = FACE_BOUND( '', #137, .T. );
#92 = FACE_OUTER_BOUND( '', #138, .T. );
#93 = PLANE( '', #139 );
#94 = SURFACE_STYLE_USAGE( .BOTH., #140 );
#95 = FACE_OUTER_BOUND( '', #141, .T. );
#96 = FACE_BOUND( '', #142, .T. );
#97 = CONICAL_SURFACE( '', #143, 2.17944947180000, 0.188558760600000 );
#98 = SURFACE_STYLE_USAGE( .BOTH., #144 );
#99 = FACE_OUTER_BOUND( '', #145, .T. );
#100 = FACE_BOUND( '', #146, .T. );
#101 = PLANE( '', #147 );
#102 = SURFACE_STYLE_USAGE( .BOTH., #148 );
#103 = FACE_OUTER_BOUND( '', #149, .T. );
#104 = CYLINDRICAL_SURFACE( '', #150, 5.00000000000000 );
#105 = SURFACE_STYLE_USAGE( .BOTH., #151 );
#106 = FACE_OUTER_BOUND( '', #152, .T. );
#107 = FACE_OUTER_BOUND( '', #153, .T. );
#108 = SPHERICAL_SURFACE( '', #154, 5.00000000000000 );
#109 = SURFACE_STYLE_USAGE( .BOTH., #155 );
#110 = FACE_OUTER_BOUND( '', #156, .T. );
#111 = PLANE( '', #157 );
#112 = PRODUCT_CONTEXT( '', #21, 'mechanical' );
#113 = PRODUCT_DEFINITION_FORMATION_WITH_SPECIFIED_SOURCE( ' ', 'NONE', #56, .NOT_KNOWN. );
#114 = CLOSED_SHELL( '', ( #37, #45, #51, #39, #49, #47, #53, #55, #43, #35, #41 ) );
#115 = CARTESIAN_POINT( '', ( 0.000000000000000, 0.000000000000000, 0.000000000000000 ) );
#116 = DIRECTION( '', ( 0.000000000000000, 0.000000000000000, 1.00000000000000 ) );
#117 = DIRECTION( '', ( 1.00000000000000, 0.000000000000000, 0.000000000000000 ) );
#118 =  ( LENGTH_UNIT(  )NAMED_UNIT( #65 )SI_UNIT( .MILLI., .METRE. ) );
#119 = SURFACE_SIDE_STYLE( '', ( #159 ) );
#120 = EDGE_LOOP( '', ( #160, #161, #162, #163 ) );
#121 = AXIS2_PLACEMENT_3D( '', #164, #165, #166 );
#122 = SURFACE_SIDE_STYLE( '', ( #167 ) );
#123 = EDGE_LOOP( '', ( #168 ) );
#124 = EDGE_LOOP( '', ( #169 ) );
#125 = AXIS2_PLACEMENT_3D( '', #170, #171, #172 );
#126 = SURFACE_SIDE_STYLE( '', ( #173 ) );
#127 = EDGE_LOOP( '', ( #174, #175, #176, #177 ) );
#128 = AXIS2_PLACEMENT_3D( '', #178, #179, #180 );
#129 = SURFACE_SIDE_STYLE( '', ( #181 ) );
#130 = EDGE_LOOP( '', ( #182, #183, #184, #185 ) );
#131 = AXIS2_PLACEMENT_3D( '', #186, #187, #188 );
#132 = SURFACE_SIDE_STYLE( '', ( #189 ) );
#133 = VERTEX_LOOP( '', #190 );
#134 = EDGE_LOOP( '', ( #191 ) );
#135 = AXIS2_PLACEMENT_3D( '', #192, #193, #194 );
#136 = SURFACE_SIDE_STYLE( '', ( #195 ) );
#137 = EDGE_LOOP( '', ( #196 ) );
#138 = EDGE_LOOP( '', ( #197, #198, #199, #200 ) );
#139 = AXIS2_PLACEMENT_3D( '', #201, #202, #203 );
#140 = SURFACE_SIDE_STYLE( '', ( #204 ) );
#141 = EDGE_LOOP( '', ( #205 ) );
#142 = EDGE_LOOP( '', ( #206 ) );
#143 = AXIS2_PLACEMENT_3D( '', #207, #208, #209 );
#144 = SURFACE_SIDE_STYLE( '', ( #210 ) );
#145 = EDGE_LOOP( '', ( #211, #212, #213, #214 ) );
#146 = EDGE_LOOP( '', ( #215 ) );
#147 = AXIS2_PLACEMENT_3D( '', #216, #217, #218 );
#148 = SURFACE_SIDE_STYLE( '', ( #219 ) );
#149 = EDGE_LOOP( '', ( #220, #221, #222, #223 ) );
#150 = AXIS2_PLACEMENT_3D( '', #224, #225, #226 );
#151 = SURFACE_SIDE_STYLE( '', ( #227 ) );
#152 = EDGE_LOOP( '', ( #228 ) );
#153 = EDGE_LOOP( '', ( #229 ) );
#154 = AXIS2_PLACEMENT_3D( '', #230, #231, #232 );
#155 = SURFACE_SIDE_STYLE( '', ( #233 ) );
#156 = EDGE_LOOP( '', ( #234 ) );
#157 = AXIS2_PLACEMENT_3D( '', #235, #236, #237 );
#159 = SURFACE_STYLE_FILL_AREA( #238 );
#160 = ORIENTED_EDGE( '', *, *, #239, .T. );
#161 = ORIENTED_EDGE( '', *, *, #240, .T. );
#162 = ORIENTED_EDGE( '', *, *, #241, .T. );
#163 = ORIENTED_EDGE( '', *, *, #242, .T. );
#164 = CARTESIAN_POINT( '', ( 4.80000000000000, 4.00000000000000, 4.00000000000000 ) );
#165 = DIRECTION( '', ( 0.000000000000000, 0.000000000000000, 1.00000000000000 ) );
#166 = DIRECTION( '', ( 1.00000000000000, 0.000000000000000, -0.000000000000000 ) );
#167 = SURFACE_STYLE_FILL_AREA( #243 );
#168 = ORIENTED_EDGE( '', *, *, #244, .F. );
#169 = ORIENTED_EDGE( '', *, *, #245, .T. );
#170 = CARTESIAN_POINT( '', ( 23.5000000000000, 0.000000000000000, 0.000000000000000 ) );
#171 = DIRECTION( '', ( -1.00000000000000, -0.000000000000000, 0.000000000000000 ) );
#172 = DIRECTION( '', ( -0.000000000000000, 0.000000000000000, -1.00000000000000 ) );
#173 = SURFACE_STYLE_FILL_AREA( #246 );
#174 = ORIENTED_EDGE( '', *, *, #247, .F. );
#175 = ORIENTED_EDGE( '', *, *, #248, .F. );
#176 = ORIENTED_EDGE( '', *, *, #240, .F. );
#177 = ORIENTED_EDGE( '', *, *, #249, .T. );
#178 = CARTESIAN_POINT( '', ( 23.5000000000000, 0.000000000000000, 0.000000000000000 ) );
#179 = DIRECTION( '', ( -1.00000000000000, -0.000000000000000, 0.000000000000000 ) );
#180 = DIRECTION( '', ( -0.000000000000000, 0.000000000000000, -1.00000000000000 ) );
#181 = SURFACE_STYLE_FILL_AREA( #250 );
#182 = ORIENTED_EDGE( '', *, *, #251, .T. );
#183 = ORIENTED_EDGE( '', *, *, #252, .T. );
#184 = ORIENTED_EDGE( '', *, *, #253, .T. );
#185 = ORIENTED_EDGE( '', *, *, #247, .T. );
#186 = CARTESIAN_POINT( '', ( 4.80000000000000, -4.00000000000000, -4.00000000000000 ) );
#187 = DIRECTION( '', ( 0.000000000000000, 1.08420217248550E-16, -1.00000000000000 ) );
#188 = DIRECTION( '', ( 0.000000000000000, 1.00000000000000, 1.08420217248550E-16 ) );
#189 = SURFACE_STYLE_FILL_AREA( #254 );
#190 = VERTEX_POINT( '', #255 );
#191 = ORIENTED_EDGE( '', *, *, #244, .T. );
#192 = CARTESIAN_POINT( '', ( 19.2750000000000, 6.50521303491303E-15, 0.000000000000000 ) );
#193 = DIRECTION( '', ( 1.00000000000000, 0.000000000000000, 0.000000000000000 ) );
#194 = DIRECTION( '', ( 0.000000000000000, -1.00000000000000, 0.000000000000000 ) );
#195 = SURFACE_STYLE_FILL_AREA( #256 );
#196 = ORIENTED_EDGE( '', *, *, #245, .F. );
#197 = ORIENTED_EDGE( '', *, *, #253, .F. );
#198 = ORIENTED_EDGE( '', *, *, #257, .T. );
#199 = ORIENTED_EDGE( '', *, *, #241, .F. );
#200 = ORIENTED_EDGE( '', *, *, #248, .T. );
#201 = CARTESIAN_POINT( '', ( 11.0000000000000, 5.00000000000001, 0.000000000000000 ) );
#202 = DIRECTION( '', ( -1.00000000000000, 0.000000000000000, 0.000000000000000 ) );
#203 = DIRECTION( '', ( 0.000000000000000, 0.000000000000000, 1.00000000000000 ) );
#204 = SURFACE_STYLE_FILL_AREA( #258 );
#205 = ORIENTED_EDGE( '', *, *, #259, .F. );
#206 = ORIENTED_EDGE( '', *, *, #260, .T. );
#207 = CARTESIAN_POINT( '', ( 4.50000000000000, 0.000000000000000, 0.000000000000000 ) );
#208 = DIRECTION( '', ( 1.00000000000000, -0.000000000000000, -0.000000000000000 ) );
#209 = DIRECTION( '', ( -0.000000000000000, 0.000000000000000, -1.00000000000000 ) );
#210 = SURFACE_STYLE_FILL_AREA( #261 );
#211 = ORIENTED_EDGE( '', *, *, #262, .F. );
#212 = ORIENTED_EDGE( '', *, *, #251, .F. );
#213 = ORIENTED_EDGE( '', *, *, #249, .F. );
#214 = ORIENTED_EDGE( '', *, *, #239, .F. );
#215 = ORIENTED_EDGE( '', *, *, #259, .T. );
#216 = CARTESIAN_POINT( '', ( 8.80000000000000, 3.00000000000000, 0.000000000000000 ) );
#217 = DIRECTION( '', ( 1.00000000000000, 0.000000000000000, -0.000000000000000 ) );
#218 = DIRECTION( '', ( -0.000000000000000, 0.000000000000000, -1.00000000000000 ) );
#219 = SURFACE_STYLE_FILL_AREA( #263 );
#220 = ORIENTED_EDGE( '', *, *, #242, .F. );
#221 = ORIENTED_EDGE( '', *, *, #257, .F. );
#222 = ORIENTED_EDGE( '', *, *, #252, .F. );
#223 = ORIENTED_EDGE( '', *, *, #262, .T. );
#224 = CARTESIAN_POINT( '', ( 23.5000000000000, 0.000000000000000, 0.000000000000000 ) );
#225 = DIRECTION( '', ( -1.00000000000000, -0.000000000000000, 0.000000000000000 ) );
#226 = DIRECTION( '', ( -0.000000000000000, 0.000000000000000, -1.00000000000000 ) );
#227 = SURFACE_STYLE_FILL_AREA( #264 );
#228 = ORIENTED_EDGE( '', *, *, #265, .T. );
#229 = ORIENTED_EDGE( '', *, *, #260, .F. );
#230 = CARTESIAN_POINT( '', ( -2.16840434497101E-16, -8.67361737988404E-16, 0.000000000000000 ) );
#231 = DIRECTION( '', ( 1.00000000000000, 0.000000000000000, 0.000000000000000 ) );
#232 = DIRECTION( '', ( 0.000000000000000, 1.00000000000000, 0.000000000000000 ) );
#233 = SURFACE_STYLE_FILL_AREA( #266 );
#234 = ORIENTED_EDGE( '', *, *, #265, .F. );
#235 = CARTESIAN_POINT( '', ( -4.00000000000000, 0.000000000000000, 0.000000000000000 ) );
#236 = DIRECTION( '', ( 1.00000000000000, 0.000000000000000, -0.000000000000000 ) );
#237 = DIRECTION( '', ( -0.000000000000000, 0.000000000000000, -1.00000000000000 ) );
#238 = FILL_AREA_STYLE( '', ( #267 ) );
#239 = EDGE_CURVE( '', #268, #269, #270, .T. );
#240 = EDGE_CURVE( '', #269, #271, #272, .T. );
#241 = EDGE_CURVE( '', #271, #273, #274, .T. );
#242 = EDGE_CURVE( '', #273, #268, #275, .F. );
#243 = FILL_AREA_STYLE( '', ( #276 ) );
#244 = EDGE_CURVE( '', #277, #277, #278, .T. );
#245 = EDGE_CURVE( '', #279, #279, #280, .T. );
#246 = FILL_AREA_STYLE( '', ( #281 ) );
#247 = EDGE_CURVE( '', #282, #283, #284, .F. );
#248 = EDGE_CURVE( '', #271, #282, #285, .T. );
#249 = EDGE_CURVE( '', #269, #283, #286, .T. );
#250 = FILL_AREA_STYLE( '', ( #287 ) );
#251 = EDGE_CURVE( '', #283, #288, #289, .T. );
#252 = EDGE_CURVE( '', #288, #290, #291, .T. );
#253 = EDGE_CURVE( '', #290, #282, #292, .T. );
#254 = FILL_AREA_STYLE( '', ( #293 ) );
#255 = CARTESIAN_POINT( '', ( 23.5000000000000, 6.24650639859315E-15, 0.000000000000000 ) );
#256 = FILL_AREA_STYLE( '', ( #294 ) );
#257 = EDGE_CURVE( '', #290, #273, #295, .T. );
#258 = FILL_AREA_STYLE( '', ( #296 ) );
#259 = EDGE_CURVE( '', #297, #297, #298, .T. );
#260 = EDGE_CURVE( '', #299, #299, #300, .T. );
#261 = FILL_AREA_STYLE( '', ( #301 ) );
#262 = EDGE_CURVE( '', #288, #268, #302, .T. );
#263 = FILL_AREA_STYLE( '', ( #303 ) );
#264 = FILL_AREA_STYLE( '', ( #304 ) );
#265 = EDGE_CURVE( '', #305, #305, #306, .T. );
#266 = FILL_AREA_STYLE( '', ( #307 ) );
#267 = FILL_AREA_STYLE_COLOUR( '', #308 );
#268 = VERTEX_POINT( '', #309 );
#269 = VERTEX_POINT( '', #310 );
#270 = LINE( '', #311, #312 );
#271 = VERTEX_POINT( '', #313 );
#272 = LINE( '', #314, #315 );
#273 = VERTEX_POINT( '', #316 );
#274 = LINE( '', #317, #318 );
#275 = LINE( '', #319, #320 );
#276 = FILL_AREA_STYLE_COLOUR( '', #321 );
#277 = VERTEX_POINT( '', #322 );
#278 = CIRCLE( '', #323, 3.00000000000000 );
#279 = VERTEX_POINT( '', #324 );
#280 = CIRCLE( '', #325, 3.00000000000000 );
#281 = FILL_AREA_STYLE_COLOUR( '', #326 );
#282 = VERTEX_POINT( '', #327 );
#283 = VERTEX_POINT( '', #328 );
#284 = LINE( '', #329, #330 );
#285 = CIRCLE( '', #331, 5.00000000000000 );
#286 = CIRCLE( '', #332, 5.00000000000000 );
#287 = FILL_AREA_STYLE_COLOUR( '', #333 );
#288 = VERTEX_POINT( '', #334 );
#289 = LINE( '', #335, #336 );
#290 = VERTEX_POINT( '', #337 );
#291 = LINE( '', #338, #339 );
#292 = LINE( '', #340, #341 );
#293 = FILL_AREA_STYLE_COLOUR( '', #342 );
#294 = FILL_AREA_STYLE_COLOUR( '', #343 );
#295 = CIRCLE( '', #344, 5.00000000000000 );
#296 = FILL_AREA_STYLE_COLOUR( '', #345 );
#297 = VERTEX_POINT( '', #346 );
#298 = CIRCLE( '', #347, 3.00000000000000 );
#299 = VERTEX_POINT( '', #348 );
#300 = CIRCLE( '', #349, 2.17944947180000 );
#301 = FILL_AREA_STYLE_COLOUR( '', #350 );
#302 = CIRCLE( '', #351, 5.00000000000000 );
#303 = FILL_AREA_STYLE_COLOUR( '', #352 );
#304 = FILL_AREA_STYLE_COLOUR( '', #353 );
#305 = VERTEX_POINT( '', #354 );
#306 = CIRCLE( '', #355, 3.00000000000000 );
#307 = FILL_AREA_STYLE_COLOUR( '', #356 );
#308 = COLOUR_RGB( '', 0.689999997600000, 0.689999997600000, 0.689999997600000 );
#309 = CARTESIAN_POINT( '', ( 8.80000000000000, 3.00000000000001, 4.00000000000000 ) );
#310 = CARTESIAN_POINT( '', ( 8.80000000000000, -3.00000000000001, 4.00000000000000 ) );
#311 = CARTESIAN_POINT( '', ( 8.80000000000000, 3.00000000000000, 4.00000000000000 ) );
#312 = VECTOR( '', #357, 1000.00000000000 );
#313 = CARTESIAN_POINT( '', ( 11.0000000000000, -3.00000000000001, 4.00000000000000 ) );
#314 = CARTESIAN_POINT( '', ( 23.5000000000000, -3.00000000000001, 4.00000000000000 ) );
#315 = VECTOR( '', #358, 1000.00000000000 );
#316 = CARTESIAN_POINT( '', ( 11.0000000000000, 3.00000000000001, 4.00000000000000 ) );
#317 = CARTESIAN_POINT( '', ( 11.0000000000000, 5.00000000000001, 4.00000000000000 ) );
#318 = VECTOR( '', #359, 1000.00000000000 );
#319 = CARTESIAN_POINT( '', ( 23.5000000000000, 3.00000000000001, 4.00000000000000 ) );
#320 = VECTOR( '', #360, 1000.00000000000 );
#321 = COLOUR_RGB( '', 0.689999997600000, 0.689999997600000, 0.689999997600000 );
#322 = CARTESIAN_POINT( '', ( 22.2500000000000, 0.000000000000000, -3.00000000000000 ) );
#323 = AXIS2_PLACEMENT_3D( '', #361, #362, #363 );
#324 = CARTESIAN_POINT( '', ( 11.0000000000000, 0.000000000000000, -3.00000000000000 ) );
#325 = AXIS2_PLACEMENT_3D( '', #364, #365, #366 );
#326 = COLOUR_RGB( '', 0.689999997600000, 0.689999997600000, 0.689999997600000 );
#327 = CARTESIAN_POINT( '', ( 11.0000000000000, -3.00000000000001, -4.00000000000000 ) );
#328 = CARTESIAN_POINT( '', ( 8.80000000000000, -3.00000000000001, -4.00000000000000 ) );
#329 = CARTESIAN_POINT( '', ( 23.5000000000000, -3.00000000000001, -4.00000000000000 ) );
#330 = VECTOR( '', #367, 1000.00000000000 );
#331 = AXIS2_PLACEMENT_3D( '', #368, #369, #370 );
#332 = AXIS2_PLACEMENT_3D( '', #371, #372, #373 );
#333 = COLOUR_RGB( '', 0.689999997600000, 0.689999997600000, 0.689999997600000 );
#334 = CARTESIAN_POINT( '', ( 8.80000000000000, 3.00000000000001, -4.00000000000000 ) );
#335 = CARTESIAN_POINT( '', ( 8.80000000000000, 3.00000000000000, -4.00000000000000 ) );
#336 = VECTOR( '', #374, 1000.00000000000 );
#337 = CARTESIAN_POINT( '', ( 11.0000000000000, 3.00000000000001, -4.00000000000000 ) );
#338 = CARTESIAN_POINT( '', ( 23.5000000000000, 3.00000000000001, -4.00000000000000 ) );
#339 = VECTOR( '', #375, 1000.00000000000 );
#340 = CARTESIAN_POINT( '', ( 11.0000000000000, 5.00000000000001, -4.00000000000000 ) );
#341 = VECTOR( '', #376, 1000.00000000000 );
#342 = COLOUR_RGB( '', 0.689999997600000, 0.689999997600000, 0.689999997600000 );
#343 = COLOUR_RGB( '', 0.689999997600000, 0.689999997600000, 0.689999997600000 );
#344 = AXIS2_PLACEMENT_3D( '', #377, #378, #379 );
#345 = COLOUR_RGB( '', 0.689999997600000, 0.689999997600000, 0.689999997600000 );
#346 = CARTESIAN_POINT( '', ( 8.80000000000000, 0.000000000000000, -3.00000000000000 ) );
#347 = AXIS2_PLACEMENT_3D( '', #380, #381, #382 );
#348 = CARTESIAN_POINT( '', ( 4.50000000000000, 0.000000000000000, -2.17944947177034 ) );
#349 = AXIS2_PLACEMENT_3D( '', #383, #384, #385 );
#350 = COLOUR_RGB( '', 0.689999997600000, 0.689999997600000, 0.689999997600000 );
#351 = AXIS2_PLACEMENT_3D( '', #386, #387, #388 );
#352 = COLOUR_RGB( '', 0.689999997600000, 0.689999997600000, 0.689999997600000 );
#353 = COLOUR_RGB( '', 0.689999997600000, 0.689999997600000, 0.689999997600000 );
#354 = CARTESIAN_POINT( '', ( -4.00000000000000, 0.000000000000000, -3.00000000000000 ) );
#355 = AXIS2_PLACEMENT_3D( '', #389, #390, #391 );
#356 = COLOUR_RGB( '', 0.689999997600000, 0.689999997600000, 0.689999997600000 );
#357 = DIRECTION( '', ( 0.000000000000000, -1.00000000000000, 0.000000000000000 ) );
#358 = DIRECTION( '', ( 1.00000000000000, -0.000000000000000, -0.000000000000000 ) );
#359 = DIRECTION( '', ( 0.000000000000000, 1.00000000000000, -0.000000000000000 ) );
#360 = DIRECTION( '', ( 1.00000000000000, -0.000000000000000, -0.000000000000000 ) );
#361 = CARTESIAN_POINT( '', ( 22.2500000000000, 0.000000000000000, 0.000000000000000 ) );
#362 = DIRECTION( '', ( 1.00000000000000, 0.000000000000000, -0.000000000000000 ) );
#363 = DIRECTION( '', ( -0.000000000000000, 0.000000000000000, -1.00000000000000 ) );
#364 = CARTESIAN_POINT( '', ( 11.0000000000000, 0.000000000000000, 0.000000000000000 ) );
#365 = DIRECTION( '', ( 1.00000000000000, 0.000000000000000, -0.000000000000000 ) );
#366 = DIRECTION( '', ( -0.000000000000000, 0.000000000000000, -1.00000000000000 ) );
#367 = DIRECTION( '', ( 1.00000000000000, -0.000000000000000, -0.000000000000000 ) );
#368 = CARTESIAN_POINT( '', ( 11.0000000000000, 0.000000000000000, 0.000000000000000 ) );
#369 = DIRECTION( '', ( 1.00000000000000, 0.000000000000000, -0.000000000000000 ) );
#370 = DIRECTION( '', ( -0.000000000000000, 0.000000000000000, -1.00000000000000 ) );
#371 = CARTESIAN_POINT( '', ( 8.80000000000000, 0.000000000000000, 0.000000000000000 ) );
#372 = DIRECTION( '', ( 1.00000000000000, 0.000000000000000, -0.000000000000000 ) );
#373 = DIRECTION( '', ( -0.000000000000000, 0.000000000000000, -1.00000000000000 ) );
#374 = DIRECTION( '', ( 0.000000000000000, 1.00000000000000, 1.08420217248550E-16 ) );
#375 = DIRECTION( '', ( 1.00000000000000, -0.000000000000000, -0.000000000000000 ) );
#376 = DIRECTION( '', ( 0.000000000000000, -1.00000000000000, -1.08420217248550E-16 ) );
#377 = CARTESIAN_POINT( '', ( 11.0000000000000, 0.000000000000000, 0.000000000000000 ) );
#378 = DIRECTION( '', ( 1.00000000000000, 0.000000000000000, -0.000000000000000 ) );
#379 = DIRECTION( '', ( -0.000000000000000, 0.000000000000000, -1.00000000000000 ) );
#380 = CARTESIAN_POINT( '', ( 8.80000000000000, 0.000000000000000, 0.000000000000000 ) );
#381 = DIRECTION( '', ( 1.00000000000000, 0.000000000000000, -0.000000000000000 ) );
#382 = DIRECTION( '', ( -0.000000000000000, 0.000000000000000, -1.00000000000000 ) );
#383 = CARTESIAN_POINT( '', ( 4.50000000000000, 0.000000000000000, 0.000000000000000 ) );
#384 = DIRECTION( '', ( 1.00000000000000, 0.000000000000000, -0.000000000000000 ) );
#385 = DIRECTION( '', ( -0.000000000000000, 0.000000000000000, -1.00000000000000 ) );
#386 = CARTESIAN_POINT( '', ( 8.80000000000000, 0.000000000000000, 0.000000000000000 ) );
#387 = DIRECTION( '', ( 1.00000000000000, 0.000000000000000, -0.000000000000000 ) );
#388 = DIRECTION( '', ( -0.000000000000000, 0.000000000000000, -1.00000000000000 ) );
#389 = CARTESIAN_POINT( '', ( -4.00000000000000, 0.000000000000000, 0.000000000000000 ) );
#390 = DIRECTION( '', ( 1.00000000000000, 0.000000000000000, -0.000000000000000 ) );
#391 = DIRECTION( '', ( -0.000000000000000, 0.000000000000000, -1.00000000000000 ) );
ENDSEC;
END-ISO-10303-21;
