ISO-10303-21;
HEADER;
FILE_DESCRIPTION( ( 'STEP AP214' ), '1' );
FILE_NAME( '//goodhand-server/Shared Folders/GoodHand Data/Kipp CAD/K0159/K0159.43210.stp', '2020-11-26T09:50:04', ( '' ), ( '' ), ' ', 'PARTsolutions', ' ' );
FILE_SCHEMA( ( 'AUTOMOTIVE_DESIGN { 1 0 10303 214 1 1 1 1 }' ) );
ENDSEC;
DATA;
#1 = MECHANICAL_DESIGN_GEOMETRIC_PRESENTATION_REPRESENTATION( ' ', ( #10, #11, #12, #13, #14, #15, #16, #17, #18, #19 ), #6 );
#2 = PRODUCT_DEFINITION_CONTEXT( '', #20, 'design' );
#3 = APPLICATION_PROTOCOL_DEFINITION( 'international standard', 'automotive_design', 2001, #20 );
#4 = PRODUCT_CATEGORY_RELATIONSHIP( 'NONE', 'NONE', #21, #22 );
#5 = SHAPE_DEFINITION_REPRESENTATION( #23, #24 );
#6 =  ( GEOMETRIC_REPRESENTATION_CONTEXT( 3 )GLOBAL_UNCERTAINTY_ASSIGNED_CONTEXT( ( #27 ) )GLOBAL_UNIT_ASSIGNED_CONTEXT( ( #29, #30, #31 ) )REPRESENTATION_CONTEXT( 'NONE', 'WORKSPACE' ) );
#10 = STYLED_ITEM( '', ( #33 ), #34 );
#11 = STYLED_ITEM( '', ( #35 ), #36 );
#12 = STYLED_ITEM( '', ( #37 ), #38 );
#13 = STYLED_ITEM( '', ( #39 ), #40 );
#14 = STYLED_ITEM( '', ( #41 ), #42 );
#15 = STYLED_ITEM( '', ( #43 ), #44 );
#16 = STYLED_ITEM( '', ( #45 ), #46 );
#17 = STYLED_ITEM( '', ( #47 ), #48 );
#18 = STYLED_ITEM( '', ( #49 ), #50 );
#19 = STYLED_ITEM( '', ( #51 ), #52 );
#20 = APPLICATION_CONTEXT( 'core data for automotive mechanical design processes' );
#21 = PRODUCT_CATEGORY( 'part', 'NONE' );
#22 = PRODUCT_RELATED_PRODUCT_CATEGORY( 'detail', ' ', ( #53 ) );
#23 = PRODUCT_DEFINITION_SHAPE( 'NONE', 'NONE', #54 );
#24 = ADVANCED_BREP_SHAPE_REPRESENTATION( '_K0159.43210', ( #55, #56 ), #6 );
#27 = UNCERTAINTY_MEASURE_WITH_UNIT( LENGTH_MEASURE( 0.00100000000000000 ), #29, '', '' );
#29 =  ( CONVERSION_BASED_UNIT( 'MILLIMETRE', #59 )LENGTH_UNIT(  )NAMED_UNIT( #62 ) );
#30 =  ( NAMED_UNIT( #64 )PLANE_ANGLE_UNIT(  )SI_UNIT( $, .RADIAN. ) );
#31 =  ( NAMED_UNIT( #64 )SI_UNIT( $, .STERADIAN. )SOLID_ANGLE_UNIT(  ) );
#33 = PRESENTATION_STYLE_ASSIGNMENT( ( #70 ) );
#34 = ADVANCED_FACE( '', ( #71, #72 ), #73, .T. );
#35 = PRESENTATION_STYLE_ASSIGNMENT( ( #74 ) );
#36 = ADVANCED_FACE( '', ( #75, #76 ), #77, .F. );
#37 = PRESENTATION_STYLE_ASSIGNMENT( ( #78 ) );
#38 = ADVANCED_FACE( '', ( #79, #80 ), #81, .F. );
#39 = PRESENTATION_STYLE_ASSIGNMENT( ( #82 ) );
#40 = ADVANCED_FACE( '', ( #83, #84 ), #85, .F. );
#41 = PRESENTATION_STYLE_ASSIGNMENT( ( #86 ) );
#42 = ADVANCED_FACE( '', ( #87, #88 ), #89, .F. );
#43 = PRESENTATION_STYLE_ASSIGNMENT( ( #90 ) );
#44 = ADVANCED_FACE( '', ( #91, #92 ), #93, .F. );
#45 = PRESENTATION_STYLE_ASSIGNMENT( ( #94 ) );
#46 = ADVANCED_FACE( '', ( #95, #96 ), #97, .F. );
#47 = PRESENTATION_STYLE_ASSIGNMENT( ( #98 ) );
#48 = ADVANCED_FACE( '', ( #99, #100 ), #101, .T. );
#49 = PRESENTATION_STYLE_ASSIGNMENT( ( #102 ) );
#50 = ADVANCED_FACE( '', ( #103, #104 ), #105, .F. );
#51 = PRESENTATION_STYLE_ASSIGNMENT( ( #106 ) );
#52 = ADVANCED_FACE( '', ( #107, #108 ), #109, .F. );
#53 = PRODUCT( '_K0159.43210', '_K0159.43210', 'PART-_K0159.43210-DESC', ( #110 ) );
#54 = PRODUCT_DEFINITION( 'NONE', 'NONE', #111, #2 );
#55 = MANIFOLD_SOLID_BREP( '_K0159.43210', #112 );
#56 = AXIS2_PLACEMENT_3D( '', #113, #114, #115 );
#59 = LENGTH_MEASURE_WITH_UNIT( LENGTH_MEASURE( 1.00000000000000 ), #116 );
#62 = DIMENSIONAL_EXPONENTS( 1.00000000000000, 0.000000000000000, 0.000000000000000, 0.000000000000000, 0.000000000000000, 0.000000000000000, 0.000000000000000 );
#64 = DIMENSIONAL_EXPONENTS( 0.000000000000000, 0.000000000000000, 0.000000000000000, 0.000000000000000, 0.000000000000000, 0.000000000000000, 0.000000000000000 );
#70 = SURFACE_STYLE_USAGE( .BOTH., #117 );
#71 = FACE_BOUND( '', #118, .T. );
#72 = FACE_OUTER_BOUND( '', #119, .T. );
#73 = SPHERICAL_SURFACE( '', #120, 15.8965517241000 );
#74 = SURFACE_STYLE_USAGE( .BOTH., #121 );
#75 = FACE_BOUND( '', #122, .T. );
#76 = FACE_OUTER_BOUND( '', #123, .T. );
#77 = PLANE( '', #124 );
#78 = SURFACE_STYLE_USAGE( .BOTH., #125 );
#79 = FACE_OUTER_BOUND( '', #126, .T. );
#80 = FACE_OUTER_BOUND( '', #127, .T. );
#81 = CYLINDRICAL_SURFACE( '', #128, 2.00000000000000 );
#82 = SURFACE_STYLE_USAGE( .BOTH., #129 );
#83 = FACE_OUTER_BOUND( '', #130, .T. );
#84 = FACE_OUTER_BOUND( '', #131, .T. );
#85 = CYLINDRICAL_SURFACE( '', #132, 5.00000000000000 );
#86 = SURFACE_STYLE_USAGE( .BOTH., #133 );
#87 = FACE_OUTER_BOUND( '', #134, .T. );
#88 = FACE_OUTER_BOUND( '', #135, .T. );
#89 = CYLINDRICAL_SURFACE( '', #136, 6.00000000000000 );
#90 = SURFACE_STYLE_USAGE( .BOTH., #137 );
#91 = FACE_BOUND( '', #138, .T. );
#92 = FACE_OUTER_BOUND( '', #139, .T. );
#93 = CONICAL_SURFACE( '', #140, 6.00000000000000, 0.785398163400000 );
#94 = SURFACE_STYLE_USAGE( .BOTH., #141 );
#95 = FACE_OUTER_BOUND( '', #142, .T. );
#96 = FACE_BOUND( '', #143, .T. );
#97 = CONICAL_SURFACE( '', #144, 5.00000000000000, 0.785398163400000 );
#98 = SURFACE_STYLE_USAGE( .BOTH., #145 );
#99 = FACE_OUTER_BOUND( '', #146, .T. );
#100 = FACE_BOUND( '', #147, .T. );
#101 = PLANE( '', #148 );
#102 = SURFACE_STYLE_USAGE( .BOTH., #149 );
#103 = FACE_BOUND( '', #150, .T. );
#104 = FACE_OUTER_BOUND( '', #151, .T. );
#105 = SPHERICAL_SURFACE( '', #152, 2.00000000000000 );
#106 = SURFACE_STYLE_USAGE( .BOTH., #153 );
#107 = FACE_OUTER_BOUND( '', #154, .T. );
#108 = FACE_OUTER_BOUND( '', #155, .T. );
#109 = CYLINDRICAL_SURFACE( '', #156, 6.00000000000000 );
#110 = PRODUCT_CONTEXT( '', #20, 'mechanical' );
#111 = PRODUCT_DEFINITION_FORMATION_WITH_SPECIFIED_SOURCE( ' ', 'NONE', #53, .NOT_KNOWN. );
#112 = CLOSED_SHELL( '', ( #36, #50, #34, #38, #48, #42, #44, #40, #46, #52 ) );
#113 = CARTESIAN_POINT( '', ( 0.000000000000000, 0.000000000000000, 0.000000000000000 ) );
#114 = DIRECTION( '', ( 0.000000000000000, 0.000000000000000, 1.00000000000000 ) );
#115 = DIRECTION( '', ( 1.00000000000000, 0.000000000000000, 0.000000000000000 ) );
#116 =  ( LENGTH_UNIT(  )NAMED_UNIT( #62 )SI_UNIT( .MILLI., .METRE. ) );
#117 = SURFACE_SIDE_STYLE( '', ( #158 ) );
#118 = VERTEX_LOOP( '', #159 );
#119 = EDGE_LOOP( '', ( #160 ) );
#120 = AXIS2_PLACEMENT_3D( '', #161, #162, #163 );
#121 = SURFACE_SIDE_STYLE( '', ( #164 ) );
#122 = EDGE_LOOP( '', ( #165 ) );
#123 = EDGE_LOOP( '', ( #166 ) );
#124 = AXIS2_PLACEMENT_3D( '', #167, #168, #169 );
#125 = SURFACE_SIDE_STYLE( '', ( #170 ) );
#126 = EDGE_LOOP( '', ( #171 ) );
#127 = EDGE_LOOP( '', ( #172 ) );
#128 = AXIS2_PLACEMENT_3D( '', #173, #174, #175 );
#129 = SURFACE_SIDE_STYLE( '', ( #176 ) );
#130 = EDGE_LOOP( '', ( #177 ) );
#131 = EDGE_LOOP( '', ( #178 ) );
#132 = AXIS2_PLACEMENT_3D( '', #179, #180, #181 );
#133 = SURFACE_SIDE_STYLE( '', ( #182 ) );
#134 = EDGE_LOOP( '', ( #183 ) );
#135 = EDGE_LOOP( '', ( #184 ) );
#136 = AXIS2_PLACEMENT_3D( '', #185, #186, #187 );
#137 = SURFACE_SIDE_STYLE( '', ( #188 ) );
#138 = EDGE_LOOP( '', ( #189 ) );
#139 = EDGE_LOOP( '', ( #190 ) );
#140 = AXIS2_PLACEMENT_3D( '', #191, #192, #193 );
#141 = SURFACE_SIDE_STYLE( '', ( #194 ) );
#142 = EDGE_LOOP( '', ( #195 ) );
#143 = EDGE_LOOP( '', ( #196 ) );
#144 = AXIS2_PLACEMENT_3D( '', #197, #198, #199 );
#145 = SURFACE_SIDE_STYLE( '', ( #200 ) );
#146 = EDGE_LOOP( '', ( #201 ) );
#147 = EDGE_LOOP( '', ( #202 ) );
#148 = AXIS2_PLACEMENT_3D( '', #203, #204, #205 );
#149 = SURFACE_SIDE_STYLE( '', ( #206 ) );
#150 = VERTEX_LOOP( '', #207 );
#151 = EDGE_LOOP( '', ( #208 ) );
#152 = AXIS2_PLACEMENT_3D( '', #209, #210, #211 );
#153 = SURFACE_SIDE_STYLE( '', ( #212 ) );
#154 = EDGE_LOOP( '', ( #213 ) );
#155 = EDGE_LOOP( '', ( #214 ) );
#156 = AXIS2_PLACEMENT_3D( '', #215, #216, #217 );
#158 = SURFACE_STYLE_FILL_AREA( #218 );
#159 = VERTEX_POINT( '', #219 );
#160 = ORIENTED_EDGE( '', *, *, #220, .F. );
#161 = CARTESIAN_POINT( '', ( 3.46944695195361E-15, 13.1034482758621, 0.000000000000000 ) );
#162 = DIRECTION( '', ( 0.000000000000000, -1.00000000000000, 0.000000000000000 ) );
#163 = DIRECTION( '', ( 1.00000000000000, 0.000000000000000, 0.000000000000000 ) );
#164 = SURFACE_STYLE_FILL_AREA( #221 );
#165 = ORIENTED_EDGE( '', *, *, #222, .F. );
#166 = ORIENTED_EDGE( '', *, *, #220, .T. );
#167 = CARTESIAN_POINT( '', ( 9.00000000000000, -5.20417042793042E-15, 0.000000000000000 ) );
#168 = DIRECTION( '', ( 0.000000000000000, 1.00000000000000, 0.000000000000000 ) );
#169 = DIRECTION( '', ( 0.000000000000000, -0.000000000000000, 1.00000000000000 ) );
#170 = SURFACE_STYLE_FILL_AREA( #223 );
#171 = ORIENTED_EDGE( '', *, *, #224, .T. );
#172 = ORIENTED_EDGE( '', *, *, #225, .F. );
#173 = CARTESIAN_POINT( '', ( 0.000000000000000, 0.000000000000000, 0.000000000000000 ) );
#174 = DIRECTION( '', ( -0.000000000000000, 1.00000000000000, 0.000000000000000 ) );
#175 = DIRECTION( '', ( 0.000000000000000, 0.000000000000000, -1.00000000000000 ) );
#176 = SURFACE_STYLE_FILL_AREA( #226 );
#177 = ORIENTED_EDGE( '', *, *, #227, .T. );
#178 = ORIENTED_EDGE( '', *, *, #228, .F. );
#179 = CARTESIAN_POINT( '', ( 0.000000000000000, 0.000000000000000, 0.000000000000000 ) );
#180 = DIRECTION( '', ( -0.000000000000000, 1.00000000000000, 0.000000000000000 ) );
#181 = DIRECTION( '', ( 0.000000000000000, 0.000000000000000, -1.00000000000000 ) );
#182 = SURFACE_STYLE_FILL_AREA( #229 );
#183 = ORIENTED_EDGE( '', *, *, #230, .T. );
#184 = ORIENTED_EDGE( '', *, *, #231, .F. );
#185 = CARTESIAN_POINT( '', ( 0.000000000000000, 0.000000000000000, 0.000000000000000 ) );
#186 = DIRECTION( '', ( -0.000000000000000, 1.00000000000000, 0.000000000000000 ) );
#187 = DIRECTION( '', ( 0.000000000000000, 0.000000000000000, -1.00000000000000 ) );
#188 = SURFACE_STYLE_FILL_AREA( #232 );
#189 = ORIENTED_EDGE( '', *, *, #228, .T. );
#190 = ORIENTED_EDGE( '', *, *, #230, .F. );
#191 = CARTESIAN_POINT( '', ( 0.000000000000000, 17.0000000000000, 0.000000000000000 ) );
#192 = DIRECTION( '', ( -0.000000000000000, 1.00000000000000, 0.000000000000000 ) );
#193 = DIRECTION( '', ( 0.000000000000000, -0.000000000000000, 1.00000000000000 ) );
#194 = SURFACE_STYLE_FILL_AREA( #233 );
#195 = ORIENTED_EDGE( '', *, *, #234, .T. );
#196 = ORIENTED_EDGE( '', *, *, #227, .F. );
#197 = CARTESIAN_POINT( '', ( 0.000000000000000, 4.00000000000000, 0.000000000000000 ) );
#198 = DIRECTION( '', ( -0.000000000000000, -1.00000000000000, -0.000000000000000 ) );
#199 = DIRECTION( '', ( 0.000000000000000, 0.000000000000000, -1.00000000000000 ) );
#200 = SURFACE_STYLE_FILL_AREA( #235 );
#201 = ORIENTED_EDGE( '', *, *, #231, .T. );
#202 = ORIENTED_EDGE( '', *, *, #224, .F. );
#203 = CARTESIAN_POINT( '', ( 2.00000000000000, 20.0000000000000, 0.000000000000000 ) );
#204 = DIRECTION( '', ( 0.000000000000000, -1.00000000000000, -0.000000000000000 ) );
#205 = DIRECTION( '', ( 0.000000000000000, 0.000000000000000, -1.00000000000000 ) );
#206 = SURFACE_STYLE_FILL_AREA( #236 );
#207 = VERTEX_POINT( '', #237 );
#208 = ORIENTED_EDGE( '', *, *, #225, .T. );
#209 = CARTESIAN_POINT( '', ( 1.73472347597681E-15, 24.0000000000000, 0.000000000000000 ) );
#210 = DIRECTION( '', ( 0.000000000000000, -1.00000000000000, 0.000000000000000 ) );
#211 = DIRECTION( '', ( 1.00000000000000, 0.000000000000000, 0.000000000000000 ) );
#212 = SURFACE_STYLE_FILL_AREA( #238 );
#213 = ORIENTED_EDGE( '', *, *, #222, .T. );
#214 = ORIENTED_EDGE( '', *, *, #234, .F. );
#215 = CARTESIAN_POINT( '', ( 0.000000000000000, 0.000000000000000, 0.000000000000000 ) );
#216 = DIRECTION( '', ( -0.000000000000000, 1.00000000000000, 0.000000000000000 ) );
#217 = DIRECTION( '', ( 0.000000000000000, 0.000000000000000, -1.00000000000000 ) );
#218 = FILL_AREA_STYLE( '', ( #239 ) );
#219 = CARTESIAN_POINT( '', ( 4.44283001127591E-15, 29.0000000000000, 0.000000000000000 ) );
#220 = EDGE_CURVE( '', #240, #240, #241, .T. );
#221 = FILL_AREA_STYLE( '', ( #242 ) );
#222 = EDGE_CURVE( '', #243, #243, #244, .T. );
#223 = FILL_AREA_STYLE( '', ( #245 ) );
#224 = EDGE_CURVE( '', #246, #246, #247, .T. );
#225 = EDGE_CURVE( '', #248, #248, #249, .T. );
#226 = FILL_AREA_STYLE( '', ( #250 ) );
#227 = EDGE_CURVE( '', #251, #251, #252, .T. );
#228 = EDGE_CURVE( '', #253, #253, #254, .T. );
#229 = FILL_AREA_STYLE( '', ( #255 ) );
#230 = EDGE_CURVE( '', #256, #256, #257, .T. );
#231 = EDGE_CURVE( '', #258, #258, #259, .T. );
#232 = FILL_AREA_STYLE( '', ( #260 ) );
#233 = FILL_AREA_STYLE( '', ( #261 ) );
#234 = EDGE_CURVE( '', #262, #262, #263, .T. );
#235 = FILL_AREA_STYLE( '', ( #264 ) );
#236 = FILL_AREA_STYLE( '', ( #265 ) );
#237 = CARTESIAN_POINT( '', ( 1.85718815589154E-15, 26.0000000000000, 0.000000000000000 ) );
#238 = FILL_AREA_STYLE( '', ( #266 ) );
#239 = FILL_AREA_STYLE_COLOUR( '', #267 );
#240 = VERTEX_POINT( '', #268 );
#241 = CIRCLE( '', #269, 9.00000000000000 );
#242 = FILL_AREA_STYLE_COLOUR( '', #270 );
#243 = VERTEX_POINT( '', #271 );
#244 = CIRCLE( '', #272, 6.00000000000000 );
#245 = FILL_AREA_STYLE_COLOUR( '', #273 );
#246 = VERTEX_POINT( '', #274 );
#247 = CIRCLE( '', #275, 2.00000000000000 );
#248 = VERTEX_POINT( '', #276 );
#249 = CIRCLE( '', #277, 2.00000000000000 );
#250 = FILL_AREA_STYLE_COLOUR( '', #278 );
#251 = VERTEX_POINT( '', #279 );
#252 = CIRCLE( '', #280, 5.00000000000000 );
#253 = VERTEX_POINT( '', #281 );
#254 = CIRCLE( '', #282, 5.00000000000000 );
#255 = FILL_AREA_STYLE_COLOUR( '', #283 );
#256 = VERTEX_POINT( '', #284 );
#257 = CIRCLE( '', #285, 6.00000000000000 );
#258 = VERTEX_POINT( '', #286 );
#259 = CIRCLE( '', #287, 6.00000000000000 );
#260 = FILL_AREA_STYLE_COLOUR( '', #288 );
#261 = FILL_AREA_STYLE_COLOUR( '', #289 );
#262 = VERTEX_POINT( '', #290 );
#263 = CIRCLE( '', #291, 6.00000000000000 );
#264 = FILL_AREA_STYLE_COLOUR( '', #292 );
#265 = FILL_AREA_STYLE_COLOUR( '', #293 );
#266 = FILL_AREA_STYLE_COLOUR( '', #294 );
#267 = COLOUR_RGB( '', 0.689999997600000, 0.689999997600000, 0.689999997600000 );
#268 = CARTESIAN_POINT( '', ( 0.000000000000000, -1.04083408558608E-14, -8.99999999999999 ) );
#269 = AXIS2_PLACEMENT_3D( '', #295, #296, #297 );
#270 = COLOUR_RGB( '', 0.689999997600000, 0.689999997600000, 0.689999997600000 );
#271 = CARTESIAN_POINT( '', ( 0.000000000000000, 0.000000000000000, -6.00000000000000 ) );
#272 = AXIS2_PLACEMENT_3D( '', #298, #299, #300 );
#273 = COLOUR_RGB( '', 0.689999997600000, 0.689999997600000, 0.689999997600000 );
#274 = CARTESIAN_POINT( '', ( 0.000000000000000, 20.0000000000000, -2.00000000000000 ) );
#275 = AXIS2_PLACEMENT_3D( '', #301, #302, #303 );
#276 = CARTESIAN_POINT( '', ( 0.000000000000000, 24.0000000000000, -2.00000000000000 ) );
#277 = AXIS2_PLACEMENT_3D( '', #304, #305, #306 );
#278 = COLOUR_RGB( '', 0.689999997600000, 0.689999997600000, 0.689999997600000 );
#279 = CARTESIAN_POINT( '', ( 0.000000000000000, 4.00000000000000, -5.00000000000000 ) );
#280 = AXIS2_PLACEMENT_3D( '', #307, #308, #309 );
#281 = CARTESIAN_POINT( '', ( 0.000000000000000, 16.0000000000000, -5.00000000000000 ) );
#282 = AXIS2_PLACEMENT_3D( '', #310, #311, #312 );
#283 = COLOUR_RGB( '', 0.689999997600000, 0.689999997600000, 0.689999997600000 );
#284 = CARTESIAN_POINT( '', ( 0.000000000000000, 17.0000000000000, -6.00000000000000 ) );
#285 = AXIS2_PLACEMENT_3D( '', #313, #314, #315 );
#286 = CARTESIAN_POINT( '', ( 0.000000000000000, 20.0000000000000, -6.00000000000000 ) );
#287 = AXIS2_PLACEMENT_3D( '', #316, #317, #318 );
#288 = COLOUR_RGB( '', 0.689999997600000, 0.689999997600000, 0.689999997600000 );
#289 = COLOUR_RGB( '', 0.689999997600000, 0.689999997600000, 0.689999997600000 );
#290 = CARTESIAN_POINT( '', ( 0.000000000000000, 3.00000000000000, -6.00000000000000 ) );
#291 = AXIS2_PLACEMENT_3D( '', #319, #320, #321 );
#292 = COLOUR_RGB( '', 0.689999997600000, 0.689999997600000, 0.689999997600000 );
#293 = COLOUR_RGB( '', 0.689999997600000, 0.689999997600000, 0.689999997600000 );
#294 = COLOUR_RGB( '', 0.689999997600000, 0.689999997600000, 0.689999997600000 );
#295 = CARTESIAN_POINT( '', ( 0.000000000000000, -1.04083408558608E-14, 0.000000000000000 ) );
#296 = DIRECTION( '', ( 0.000000000000000, -1.00000000000000, -0.000000000000000 ) );
#297 = DIRECTION( '', ( 0.000000000000000, 0.000000000000000, -1.00000000000000 ) );
#298 = CARTESIAN_POINT( '', ( 0.000000000000000, 0.000000000000000, 0.000000000000000 ) );
#299 = DIRECTION( '', ( 0.000000000000000, -1.00000000000000, -0.000000000000000 ) );
#300 = DIRECTION( '', ( 0.000000000000000, 0.000000000000000, -1.00000000000000 ) );
#301 = CARTESIAN_POINT( '', ( 0.000000000000000, 20.0000000000000, 0.000000000000000 ) );
#302 = DIRECTION( '', ( 0.000000000000000, -1.00000000000000, -0.000000000000000 ) );
#303 = DIRECTION( '', ( 0.000000000000000, 0.000000000000000, -1.00000000000000 ) );
#304 = CARTESIAN_POINT( '', ( 0.000000000000000, 24.0000000000000, 0.000000000000000 ) );
#305 = DIRECTION( '', ( 0.000000000000000, -1.00000000000000, -0.000000000000000 ) );
#306 = DIRECTION( '', ( 0.000000000000000, 0.000000000000000, -1.00000000000000 ) );
#307 = CARTESIAN_POINT( '', ( 0.000000000000000, 4.00000000000000, 0.000000000000000 ) );
#308 = DIRECTION( '', ( 0.000000000000000, -1.00000000000000, -0.000000000000000 ) );
#309 = DIRECTION( '', ( 0.000000000000000, 0.000000000000000, -1.00000000000000 ) );
#310 = CARTESIAN_POINT( '', ( 0.000000000000000, 16.0000000000000, 0.000000000000000 ) );
#311 = DIRECTION( '', ( 0.000000000000000, -1.00000000000000, -0.000000000000000 ) );
#312 = DIRECTION( '', ( 0.000000000000000, 0.000000000000000, -1.00000000000000 ) );
#313 = CARTESIAN_POINT( '', ( 0.000000000000000, 17.0000000000000, 0.000000000000000 ) );
#314 = DIRECTION( '', ( 0.000000000000000, -1.00000000000000, -0.000000000000000 ) );
#315 = DIRECTION( '', ( 0.000000000000000, 0.000000000000000, -1.00000000000000 ) );
#316 = CARTESIAN_POINT( '', ( 0.000000000000000, 20.0000000000000, 0.000000000000000 ) );
#317 = DIRECTION( '', ( 0.000000000000000, -1.00000000000000, -0.000000000000000 ) );
#318 = DIRECTION( '', ( 0.000000000000000, 0.000000000000000, -1.00000000000000 ) );
#319 = CARTESIAN_POINT( '', ( 0.000000000000000, 3.00000000000000, 0.000000000000000 ) );
#320 = DIRECTION( '', ( 0.000000000000000, -1.00000000000000, -0.000000000000000 ) );
#321 = DIRECTION( '', ( 0.000000000000000, 0.000000000000000, -1.00000000000000 ) );
ENDSEC;
END-ISO-10303-21;
