ISO-10303-21;
HEADER;
FILE_DESCRIPTION( ( 'STEP AP214' ), '1' );
FILE_NAME( '//goodhand-server/Shared Folders/GoodHand Data/Kipp CAD/K0139/K0139.05.stp', '2020-11-25T12:20:44', ( '' ), ( '' ), ' ', 'PARTsolutions', ' ' );
FILE_SCHEMA( ( 'AUTOMOTIVE_DESIGN { 1 0 10303 214 1 1 1 1 }' ) );
ENDSEC;
DATA;
#1 = MECHANICAL_DESIGN_GEOMETRIC_PRESENTATION_REPRESENTATION( ' ', ( #10, #11, #12, #13, #14, #15, #16, #17, #18, #19, #20, #21 ), #6 );
#2 = PRODUCT_DEFINITION_CONTEXT( '', #22, 'design' );
#3 = APPLICATION_PROTOCOL_DEFINITION( 'international standard', 'automotive_design', 2001, #22 );
#4 = PRODUCT_CATEGORY_RELATIONSHIP( 'NONE', 'NONE', #23, #24 );
#5 = SHAPE_DEFINITION_REPRESENTATION( #25, #26 );
#6 =  ( GEOMETRIC_REPRESENTATION_CONTEXT( 3 )GLOBAL_UNCERTAINTY_ASSIGNED_CONTEXT( ( #29 ) )GLOBAL_UNIT_ASSIGNED_CONTEXT( ( #31, #32, #33 ) )REPRESENTATION_CONTEXT( 'NONE', 'WORKSPACE' ) );
#10 = STYLED_ITEM( '', ( #35 ), #36 );
#11 = STYLED_ITEM( '', ( #37 ), #38 );
#12 = STYLED_ITEM( '', ( #39 ), #40 );
#13 = STYLED_ITEM( '', ( #41 ), #42 );
#14 = STYLED_ITEM( '', ( #43 ), #44 );
#15 = STYLED_ITEM( '', ( #45 ), #46 );
#16 = STYLED_ITEM( '', ( #47 ), #48 );
#17 = STYLED_ITEM( '', ( #49 ), #50 );
#18 = STYLED_ITEM( '', ( #51 ), #52 );
#19 = STYLED_ITEM( '', ( #53 ), #54 );
#20 = STYLED_ITEM( '', ( #55 ), #56 );
#21 = STYLED_ITEM( '', ( #57 ), #58 );
#22 = APPLICATION_CONTEXT( 'core data for automotive mechanical design processes' );
#23 = PRODUCT_CATEGORY( 'part', 'NONE' );
#24 = PRODUCT_RELATED_PRODUCT_CATEGORY( 'detail', ' ', ( #59 ) );
#25 = PRODUCT_DEFINITION_SHAPE( 'NONE', 'NONE', #60 );
#26 = ADVANCED_BREP_SHAPE_REPRESENTATION( '_K0139.05', ( #61, #62 ), #6 );
#29 = UNCERTAINTY_MEASURE_WITH_UNIT( LENGTH_MEASURE( 0.00100000000000000 ), #31, '', '' );
#31 =  ( CONVERSION_BASED_UNIT( 'MILLIMETRE', #65 )LENGTH_UNIT(  )NAMED_UNIT( #68 ) );
#32 =  ( NAMED_UNIT( #70 )PLANE_ANGLE_UNIT(  )SI_UNIT( $, .RADIAN. ) );
#33 =  ( NAMED_UNIT( #70 )SI_UNIT( $, .STERADIAN. )SOLID_ANGLE_UNIT(  ) );
#35 = PRESENTATION_STYLE_ASSIGNMENT( ( #76 ) );
#36 = ADVANCED_FACE( '', ( #77, #78 ), #79, .T. );
#37 = PRESENTATION_STYLE_ASSIGNMENT( ( #80 ) );
#38 = ADVANCED_FACE( '', ( #81 ), #82, .F. );
#39 = PRESENTATION_STYLE_ASSIGNMENT( ( #83 ) );
#40 = ADVANCED_FACE( '', ( #84, #85 ), #86, .T. );
#41 = PRESENTATION_STYLE_ASSIGNMENT( ( #87 ) );
#42 = ADVANCED_FACE( '', ( #88, #89 ), #90, .T. );
#43 = PRESENTATION_STYLE_ASSIGNMENT( ( #91 ) );
#44 = ADVANCED_FACE( '', ( #92, #93 ), #94, .T. );
#45 = PRESENTATION_STYLE_ASSIGNMENT( ( #95 ) );
#46 = ADVANCED_FACE( '', ( #96, #97 ), #98, .F. );
#47 = PRESENTATION_STYLE_ASSIGNMENT( ( #99 ) );
#48 = ADVANCED_FACE( '', ( #100 ), #101, .F. );
#49 = PRESENTATION_STYLE_ASSIGNMENT( ( #102 ) );
#50 = ADVANCED_FACE( '', ( #103, #104 ), #105, .T. );
#51 = PRESENTATION_STYLE_ASSIGNMENT( ( #106 ) );
#52 = ADVANCED_FACE( '', ( #107, #108 ), #109, .F. );
#53 = PRESENTATION_STYLE_ASSIGNMENT( ( #110 ) );
#54 = ADVANCED_FACE( '', ( #111, #112 ), #113, .T. );
#55 = PRESENTATION_STYLE_ASSIGNMENT( ( #114 ) );
#56 = ADVANCED_FACE( '', ( #115, #116 ), #117, .T. );
#57 = PRESENTATION_STYLE_ASSIGNMENT( ( #118 ) );
#58 = ADVANCED_FACE( '', ( #119, #120 ), #121, .T. );
#59 = PRODUCT( '_K0139.05', '_K0139.05', 'PART-_K0139.05-DESC', ( #122 ) );
#60 = PRODUCT_DEFINITION( 'NONE', 'NONE', #123, #2 );
#61 = MANIFOLD_SOLID_BREP( '_K0139.05', #124 );
#62 = AXIS2_PLACEMENT_3D( '', #125, #126, #127 );
#65 = LENGTH_MEASURE_WITH_UNIT( LENGTH_MEASURE( 1.00000000000000 ), #128 );
#68 = DIMENSIONAL_EXPONENTS( 1.00000000000000, 0.000000000000000, 0.000000000000000, 0.000000000000000, 0.000000000000000, 0.000000000000000, 0.000000000000000 );
#70 = DIMENSIONAL_EXPONENTS( 0.000000000000000, 0.000000000000000, 0.000000000000000, 0.000000000000000, 0.000000000000000, 0.000000000000000, 0.000000000000000 );
#76 = SURFACE_STYLE_USAGE( .BOTH., #129 );
#77 = FACE_BOUND( '', #130, .T. );
#78 = FACE_OUTER_BOUND( '', #131, .T. );
#79 = PLANE( '', #132 );
#80 = SURFACE_STYLE_USAGE( .BOTH., #133 );
#81 = FACE_OUTER_BOUND( '', #134, .T. );
#82 = CYLINDRICAL_SURFACE( '', #135, 2.06700000000000 );
#83 = SURFACE_STYLE_USAGE( .BOTH., #136 );
#84 = FACE_BOUND( '', #137, .T. );
#85 = FACE_OUTER_BOUND( '', #138, .T. );
#86 = CONICAL_SURFACE( '', #139, 10.0000000000000, 0.785398163400000 );
#87 = SURFACE_STYLE_USAGE( .BOTH., #140 );
#88 = FACE_OUTER_BOUND( '', #141, .T. );
#89 = FACE_OUTER_BOUND( '', #142, .T. );
#90 = CYLINDRICAL_SURFACE( '', #143, 10.0000000000000 );
#91 = SURFACE_STYLE_USAGE( .BOTH., #144 );
#92 = FACE_OUTER_BOUND( '', #145, .T. );
#93 = FACE_BOUND( '', #146, .T. );
#94 = PLANE( '', #147 );
#95 = SURFACE_STYLE_USAGE( .BOTH., #148 );
#96 = FACE_OUTER_BOUND( '', #149, .T. );
#97 = FACE_OUTER_BOUND( '', #150, .T. );
#98 = CYLINDRICAL_SURFACE( '', #151, 2.60000000000000 );
#99 = SURFACE_STYLE_USAGE( .BOTH., #152 );
#100 = FACE_OUTER_BOUND( '', #153, .T. );
#101 = CYLINDRICAL_SURFACE( '', #154, 2.06700000000000 );
#102 = SURFACE_STYLE_USAGE( .BOTH., #155 );
#103 = FACE_OUTER_BOUND( '', #156, .T. );
#104 = FACE_BOUND( '', #157, .T. );
#105 = PLANE( '', #158 );
#106 = SURFACE_STYLE_USAGE( .BOTH., #159 );
#107 = FACE_OUTER_BOUND( '', #160, .T. );
#108 = FACE_OUTER_BOUND( '', #161, .T. );
#109 = TOROIDAL_SURFACE( '', #162, 7.50000000000000, 0.500000000000000 );
#110 = SURFACE_STYLE_USAGE( .BOTH., #163 );
#111 = FACE_OUTER_BOUND( '', #164, .T. );
#112 = FACE_OUTER_BOUND( '', #165, .T. );
#113 = CYLINDRICAL_SURFACE( '', #166, 7.00000000000000 );
#114 = SURFACE_STYLE_USAGE( .BOTH., #167 );
#115 = FACE_OUTER_BOUND( '', #168, .T. );
#116 = FACE_BOUND( '', #169, .T. );
#117 = CONICAL_SURFACE( '', #170, 6.50000000000000, 0.785398163400000 );
#118 = SURFACE_STYLE_USAGE( .BOTH., #171 );
#119 = FACE_OUTER_BOUND( '', #172, .T. );
#120 = FACE_BOUND( '', #173, .T. );
#121 = CONICAL_SURFACE( '', #174, 9.50000000000000, 0.785398163400000 );
#122 = PRODUCT_CONTEXT( '', #22, 'mechanical' );
#123 = PRODUCT_DEFINITION_FORMATION_WITH_SPECIFIED_SOURCE( ' ', 'NONE', #59, .NOT_KNOWN. );
#124 = CLOSED_SHELL( '', ( #46, #40, #42, #58, #50, #52, #54, #56, #44, #36, #48, #38 ) );
#125 = CARTESIAN_POINT( '', ( 0.000000000000000, 0.000000000000000, 0.000000000000000 ) );
#126 = DIRECTION( '', ( 0.000000000000000, 0.000000000000000, 1.00000000000000 ) );
#127 = DIRECTION( '', ( 1.00000000000000, 0.000000000000000, 0.000000000000000 ) );
#128 =  ( LENGTH_UNIT(  )NAMED_UNIT( #68 )SI_UNIT( .MILLI., .METRE. ) );
#129 = SURFACE_SIDE_STYLE( '', ( #176 ) );
#130 = EDGE_LOOP( '', ( #177, #178 ) );
#131 = EDGE_LOOP( '', ( #179 ) );
#132 = AXIS2_PLACEMENT_3D( '', #180, #181, #182 );
#133 = SURFACE_SIDE_STYLE( '', ( #183 ) );
#134 = EDGE_LOOP( '', ( #184, #185 ) );
#135 = AXIS2_PLACEMENT_3D( '', #186, #187, #188 );
#136 = SURFACE_SIDE_STYLE( '', ( #189 ) );
#137 = EDGE_LOOP( '', ( #190 ) );
#138 = EDGE_LOOP( '', ( #191 ) );
#139 = AXIS2_PLACEMENT_3D( '', #192, #193, #194 );
#140 = SURFACE_SIDE_STYLE( '', ( #195 ) );
#141 = EDGE_LOOP( '', ( #196 ) );
#142 = EDGE_LOOP( '', ( #197 ) );
#143 = AXIS2_PLACEMENT_3D( '', #198, #199, #200 );
#144 = SURFACE_SIDE_STYLE( '', ( #201 ) );
#145 = EDGE_LOOP( '', ( #202 ) );
#146 = EDGE_LOOP( '', ( #203, #204 ) );
#147 = AXIS2_PLACEMENT_3D( '', #205, #206, #207 );
#148 = SURFACE_SIDE_STYLE( '', ( #208 ) );
#149 = EDGE_LOOP( '', ( #209, #210 ) );
#150 = EDGE_LOOP( '', ( #211, #212 ) );
#151 = AXIS2_PLACEMENT_3D( '', #213, #214, #215 );
#152 = SURFACE_SIDE_STYLE( '', ( #216 ) );
#153 = EDGE_LOOP( '', ( #217, #218 ) );
#154 = AXIS2_PLACEMENT_3D( '', #219, #220, #221 );
#155 = SURFACE_SIDE_STYLE( '', ( #222 ) );
#156 = EDGE_LOOP( '', ( #223 ) );
#157 = EDGE_LOOP( '', ( #224 ) );
#158 = AXIS2_PLACEMENT_3D( '', #225, #226, #227 );
#159 = SURFACE_SIDE_STYLE( '', ( #228 ) );
#160 = EDGE_LOOP( '', ( #229 ) );
#161 = EDGE_LOOP( '', ( #230 ) );
#162 = AXIS2_PLACEMENT_3D( '', #231, #232, #233 );
#163 = SURFACE_SIDE_STYLE( '', ( #234 ) );
#164 = EDGE_LOOP( '', ( #235 ) );
#165 = EDGE_LOOP( '', ( #236 ) );
#166 = AXIS2_PLACEMENT_3D( '', #237, #238, #239 );
#167 = SURFACE_SIDE_STYLE( '', ( #240 ) );
#168 = EDGE_LOOP( '', ( #241 ) );
#169 = EDGE_LOOP( '', ( #242 ) );
#170 = AXIS2_PLACEMENT_3D( '', #243, #244, #245 );
#171 = SURFACE_SIDE_STYLE( '', ( #246 ) );
#172 = EDGE_LOOP( '', ( #247 ) );
#173 = EDGE_LOOP( '', ( #248 ) );
#174 = AXIS2_PLACEMENT_3D( '', #249, #250, #251 );
#176 = SURFACE_STYLE_FILL_AREA( #252 );
#177 = ORIENTED_EDGE( '', *, *, #253, .T. );
#178 = ORIENTED_EDGE( '', *, *, #254, .T. );
#179 = ORIENTED_EDGE( '', *, *, #255, .F. );
#180 = CARTESIAN_POINT( '', ( 0.000000000000000, 9.50000000000000, 0.000000000000000 ) );
#181 = DIRECTION( '', ( -1.00000000000000, 0.000000000000000, 0.000000000000000 ) );
#182 = DIRECTION( '', ( 0.000000000000000, 0.000000000000000, 1.00000000000000 ) );
#183 = SURFACE_STYLE_FILL_AREA( #256 );
#184 = ORIENTED_EDGE( '', *, *, #257, .T. );
#185 = ORIENTED_EDGE( '', *, *, #258, .T. );
#186 = CARTESIAN_POINT( '', ( 12.0000000000000, 0.000000000000000, 0.000000000000000 ) );
#187 = DIRECTION( '', ( -1.00000000000000, -0.000000000000000, 0.000000000000000 ) );
#188 = DIRECTION( '', ( -0.000000000000000, 0.000000000000000, -1.00000000000000 ) );
#189 = SURFACE_STYLE_FILL_AREA( #259 );
#190 = ORIENTED_EDGE( '', *, *, #255, .T. );
#191 = ORIENTED_EDGE( '', *, *, #260, .F. );
#192 = CARTESIAN_POINT( '', ( 0.500000000000000, 0.000000000000000, 0.000000000000000 ) );
#193 = DIRECTION( '', ( 1.00000000000000, -0.000000000000000, -0.000000000000000 ) );
#194 = DIRECTION( '', ( -0.000000000000000, 0.000000000000000, -1.00000000000000 ) );
#195 = SURFACE_STYLE_FILL_AREA( #261 );
#196 = ORIENTED_EDGE( '', *, *, #260, .T. );
#197 = ORIENTED_EDGE( '', *, *, #262, .F. );
#198 = CARTESIAN_POINT( '', ( 12.0000000000000, 0.000000000000000, 0.000000000000000 ) );
#199 = DIRECTION( '', ( -1.00000000000000, -0.000000000000000, 0.000000000000000 ) );
#200 = DIRECTION( '', ( -0.000000000000000, 0.000000000000000, -1.00000000000000 ) );
#201 = SURFACE_STYLE_FILL_AREA( #263 );
#202 = ORIENTED_EDGE( '', *, *, #264, .T. );
#203 = ORIENTED_EDGE( '', *, *, #265, .T. );
#204 = ORIENTED_EDGE( '', *, *, #257, .F. );
#205 = CARTESIAN_POINT( '', ( 12.0000000000000, 2.06700000000000, 0.000000000000000 ) );
#206 = DIRECTION( '', ( 1.00000000000000, 0.000000000000000, -0.000000000000000 ) );
#207 = DIRECTION( '', ( -0.000000000000000, 0.000000000000000, -1.00000000000000 ) );
#208 = SURFACE_STYLE_FILL_AREA( #266 );
#209 = ORIENTED_EDGE( '', *, *, #258, .F. );
#210 = ORIENTED_EDGE( '', *, *, #265, .F. );
#211 = ORIENTED_EDGE( '', *, *, #267, .F. );
#212 = ORIENTED_EDGE( '', *, *, #253, .F. );
#213 = CARTESIAN_POINT( '', ( 30.0000000000000, 6.43078061834695, 0.000000000000000 ) );
#214 = DIRECTION( '', ( -0.965925826289068, -0.258819045102521, 0.000000000000000 ) );
#215 = DIRECTION( '', ( -0.258819045102521, 0.965925826289068, 0.000000000000000 ) );
#216 = SURFACE_STYLE_FILL_AREA( #268 );
#217 = ORIENTED_EDGE( '', *, *, #254, .F. );
#218 = ORIENTED_EDGE( '', *, *, #267, .T. );
#219 = CARTESIAN_POINT( '', ( 12.0000000000000, 0.000000000000000, 0.000000000000000 ) );
#220 = DIRECTION( '', ( -1.00000000000000, -0.000000000000000, 0.000000000000000 ) );
#221 = DIRECTION( '', ( -0.000000000000000, 0.000000000000000, -1.00000000000000 ) );
#222 = SURFACE_STYLE_FILL_AREA( #269 );
#223 = ORIENTED_EDGE( '', *, *, #270, .T. );
#224 = ORIENTED_EDGE( '', *, *, #271, .F. );
#225 = CARTESIAN_POINT( '', ( 8.00000000000000, 7.50000000000000, 0.000000000000000 ) );
#226 = DIRECTION( '', ( 1.00000000000000, 0.000000000000000, -0.000000000000000 ) );
#227 = DIRECTION( '', ( -0.000000000000000, 0.000000000000000, -1.00000000000000 ) );
#228 = SURFACE_STYLE_FILL_AREA( #272 );
#229 = ORIENTED_EDGE( '', *, *, #273, .F. );
#230 = ORIENTED_EDGE( '', *, *, #271, .T. );
#231 = CARTESIAN_POINT( '', ( 8.50000000000000, 0.000000000000000, 0.000000000000000 ) );
#232 = DIRECTION( '', ( 1.00000000000000, 0.000000000000000, -0.000000000000000 ) );
#233 = DIRECTION( '', ( -0.000000000000000, 0.000000000000000, -1.00000000000000 ) );
#234 = SURFACE_STYLE_FILL_AREA( #274 );
#235 = ORIENTED_EDGE( '', *, *, #273, .T. );
#236 = ORIENTED_EDGE( '', *, *, #275, .F. );
#237 = CARTESIAN_POINT( '', ( 12.0000000000000, 0.000000000000000, 0.000000000000000 ) );
#238 = DIRECTION( '', ( -1.00000000000000, -0.000000000000000, 0.000000000000000 ) );
#239 = DIRECTION( '', ( -0.000000000000000, 0.000000000000000, -1.00000000000000 ) );
#240 = SURFACE_STYLE_FILL_AREA( #276 );
#241 = ORIENTED_EDGE( '', *, *, #275, .T. );
#242 = ORIENTED_EDGE( '', *, *, #264, .F. );
#243 = CARTESIAN_POINT( '', ( 12.0000000000000, 0.000000000000000, 0.000000000000000 ) );
#244 = DIRECTION( '', ( -1.00000000000000, 0.000000000000000, -0.000000000000000 ) );
#245 = DIRECTION( '', ( 0.000000000000000, 0.000000000000000, 1.00000000000000 ) );
#246 = SURFACE_STYLE_FILL_AREA( #277 );
#247 = ORIENTED_EDGE( '', *, *, #262, .T. );
#248 = ORIENTED_EDGE( '', *, *, #270, .F. );
#249 = CARTESIAN_POINT( '', ( 8.00000000000000, 0.000000000000000, 0.000000000000000 ) );
#250 = DIRECTION( '', ( -1.00000000000000, 0.000000000000000, -0.000000000000000 ) );
#251 = DIRECTION( '', ( 0.000000000000000, 0.000000000000000, 1.00000000000000 ) );
#252 = FILL_AREA_STYLE( '', ( #278 ) );
#253 = EDGE_CURVE( '', #279, #280, #281, .F. );
#254 = EDGE_CURVE( '', #280, #279, #282, .T. );
#255 = EDGE_CURVE( '', #283, #283, #284, .T. );
#256 = FILL_AREA_STYLE( '', ( #285 ) );
#257 = EDGE_CURVE( '', #286, #287, #288, .T. );
#258 = EDGE_CURVE( '', #287, #286, #289, .T. );
#259 = FILL_AREA_STYLE( '', ( #290 ) );
#260 = EDGE_CURVE( '', #291, #291, #292, .T. );
#261 = FILL_AREA_STYLE( '', ( #293 ) );
#262 = EDGE_CURVE( '', #294, #294, #295, .T. );
#263 = FILL_AREA_STYLE( '', ( #296 ) );
#264 = EDGE_CURVE( '', #297, #297, #298, .T. );
#265 = EDGE_CURVE( '', #286, #287, #299, .F. );
#266 = FILL_AREA_STYLE( '', ( #300 ) );
#267 = EDGE_CURVE( '', #280, #279, #301, .T. );
#268 = FILL_AREA_STYLE( '', ( #302 ) );
#269 = FILL_AREA_STYLE( '', ( #303 ) );
#270 = EDGE_CURVE( '', #304, #304, #305, .T. );
#271 = EDGE_CURVE( '', #306, #306, #307, .T. );
#272 = FILL_AREA_STYLE( '', ( #308 ) );
#273 = EDGE_CURVE( '', #309, #309, #310, .T. );
#274 = FILL_AREA_STYLE( '', ( #311 ) );
#275 = EDGE_CURVE( '', #312, #312, #313, .T. );
#276 = FILL_AREA_STYLE( '', ( #314 ) );
#277 = FILL_AREA_STYLE( '', ( #315 ) );
#278 = FILL_AREA_STYLE_COLOUR( '', #316 );
#279 = VERTEX_POINT( '', #317 );
#280 = VERTEX_POINT( '', #318 );
#281 = ELLIPSE( '', #319, 2.69171806910000, 2.60000000000000 );
#282 = CIRCLE( '', #320, 2.06700000000000 );
#283 = VERTEX_POINT( '', #321 );
#284 = CIRCLE( '', #322, 9.50000000000000 );
#285 = FILL_AREA_STYLE_COLOUR( '', #323 );
#286 = VERTEX_POINT( '', #324 );
#287 = VERTEX_POINT( '', #325 );
#288 = CIRCLE( '', #326, 2.06700000000000 );
#289 = B_SPLINE_CURVE_WITH_KNOTS( '', 3, ( #327, #328, #329, #330, #331, #332, #333, #334, #335, #336, #337, #338, #339, #340, #341, #342, #343, #344, #345, #346, #347, #348, #349, #350, #351, #352, #353, #354, #355, #356, #357, #358, #359, #360, #361, #362 ), .UNSPECIFIED., .F., .F., ( 4, 2, 2, 2, 2, 2, 2, 2, 2, 2, 2, 2, 2, 2, 2, 2, 2, 4 ), ( 5.08219768352580E-20, 0.00132869497909330, 0.00199304246863995, 0.00265738995818660, 0.00332173744773325, 0.00398608493727990, 0.00431825868205323, 0.00465043242682655, 0.00498260617159987, 0.00531477991637320, 0.00597912740591984, 0.00631130115069317, 0.00664347489546649, 0.00730782238501314, 0.00797216987455979, 0.00863651736410643, 0.00930086485365308, 0.0106295598327464 ), .UNSPECIFIED. );
#290 = FILL_AREA_STYLE_COLOUR( '', #363 );
#291 = VERTEX_POINT( '', #364 );
#292 = CIRCLE( '', #365, 10.0000000000000 );
#293 = FILL_AREA_STYLE_COLOUR( '', #366 );
#294 = VERTEX_POINT( '', #367 );
#295 = CIRCLE( '', #368, 10.0000000000000 );
#296 = FILL_AREA_STYLE_COLOUR( '', #369 );
#297 = VERTEX_POINT( '', #370 );
#298 = CIRCLE( '', #371, 6.50000000000000 );
#299 = ELLIPSE( '', #372, 2.69171806910000, 2.60000000000000 );
#300 = FILL_AREA_STYLE_COLOUR( '', #373 );
#301 = B_SPLINE_CURVE_WITH_KNOTS( '', 3, ( #374, #375, #376, #377, #378, #379, #380, #381, #382, #383, #384, #385, #386, #387, #388, #389, #390, #391, #392, #393, #394, #395, #396, #397, #398, #399, #400, #401, #402, #403, #404, #405, #406, #407, #408, #409 ), .UNSPECIFIED., .F., .F., ( 4, 2, 2, 2, 2, 2, 2, 2, 2, 2, 2, 2, 2, 2, 2, 2, 2, 4 ), ( 0.000000000000000, 0.00132869497909331, 0.00199304246863996, 0.00265738995818661, 0.00332173744773326, 0.00398608493727992, 0.00431825868205324, 0.00465043242682657, 0.00498260617159990, 0.00531477991637322, 0.00597912740591988, 0.00631130115069320, 0.00664347489546653, 0.00730782238501318, 0.00797216987455984, 0.00863651736410649, 0.00930086485365315, 0.0106295598327465 ), .UNSPECIFIED. );
#302 = FILL_AREA_STYLE_COLOUR( '', #410 );
#303 = FILL_AREA_STYLE_COLOUR( '', #411 );
#304 = VERTEX_POINT( '', #412 );
#305 = CIRCLE( '', #413, 9.50000000000000 );
#306 = VERTEX_POINT( '', #414 );
#307 = CIRCLE( '', #415, 7.50000000000000 );
#308 = FILL_AREA_STYLE_COLOUR( '', #416 );
#309 = VERTEX_POINT( '', #417 );
#310 = CIRCLE( '', #418, 7.00000000000000 );
#311 = FILL_AREA_STYLE_COLOUR( '', #419 );
#312 = VERTEX_POINT( '', #420 );
#313 = CIRCLE( '', #421, 7.00000000000000 );
#314 = FILL_AREA_STYLE_COLOUR( '', #422 );
#315 = FILL_AREA_STYLE_COLOUR( '', #423 );
#316 = COLOUR_RGB( '', 0.689999997600000, 0.689999997600000, 0.689999997600000 );
#317 = CARTESIAN_POINT( '', ( 0.000000000000000, 0.0253370906108188, 2.06684470433542 ) );
#318 = CARTESIAN_POINT( '', ( 0.000000000000000, 0.0253370906108188, -2.06684470433542 ) );
#319 = AXIS2_PLACEMENT_3D( '', #424, #425, #426 );
#320 = AXIS2_PLACEMENT_3D( '', #427, #428, #429 );
#321 = CARTESIAN_POINT( '', ( 0.000000000000000, 0.000000000000000, -9.50000000000000 ) );
#322 = AXIS2_PLACEMENT_3D( '', #430, #431, #432 );
#323 = COLOUR_RGB( '', 0.689999997600000, 0.689999997600000, 0.689999997600000 );
#324 = CARTESIAN_POINT( '', ( 12.0000000000000, -0.0253370906108190, 2.06684470433542 ) );
#325 = CARTESIAN_POINT( '', ( 12.0000000000000, -0.0253370906108190, -2.06684470433542 ) );
#326 = AXIS2_PLACEMENT_3D( '', #433, #434, #435 );
#327 = CARTESIAN_POINT( '', ( 12.0000000000000, -0.0253370906108184, -2.06684470433542 ) );
#328 = CARTESIAN_POINT( '', ( 11.5717041536198, -0.142039294788941, -2.06541407226348 ) );
#329 = CARTESIAN_POINT( '', ( 11.1476617292322, -0.270339420010434, -2.05511467131032 ) );
#330 = CARTESIAN_POINT( '', ( 10.5248420703692, -0.498246902256445, -2.00755117069366 ) );
#331 = CARTESIAN_POINT( '', ( 10.3187156261716, -0.580645397626682, -1.98605451537747 ) );
#332 = CARTESIAN_POINT( '', ( 9.91869651156805, -0.760837159386398, -1.92423710408388 ) );
#333 = CARTESIAN_POINT( '', ( 9.72459355620572, -0.858681011207895, -1.88417566879274 ) );
#334 = CARTESIAN_POINT( '', ( 9.35423112493308, -1.07491034747154, -1.76975104881398 ) );
#335 = CARTESIAN_POINT( '', ( 9.17891084285586, -1.19357729665132, -1.69504077895412 ) );
#336 = CARTESIAN_POINT( '', ( 8.87071460147587, -1.43886703953502, -1.49246495702197 ) );
#337 = CARTESIAN_POINT( '', ( 8.73671603942075, -1.56699458224628, -1.36211149452276 ) );
#338 = CARTESIAN_POINT( '', ( 8.58043557125835, -1.73789880837359, -1.12328955213191 ) );
#339 = CARTESIAN_POINT( '', ( 8.53473477208718, -1.79215770323030, -1.03513536766800 ) );
#340 = CARTESIAN_POINT( '', ( 8.45887691144241, -1.88712440176816, -0.849762293171462 ) );
#341 = CARTESIAN_POINT( '', ( 8.42813779387700, -1.92840595111104, -0.751997124671977 ) );
#342 = CARTESIAN_POINT( '', ( 8.37907522925779, -1.99650898271278, -0.546077897137929 ) );
#343 = CARTESIAN_POINT( '', ( 8.36092715618914, -2.02308799422896, -0.437863564393360 ) );
#344 = CARTESIAN_POINT( '', ( 8.33725780444939, -2.05815329928700, -0.220487029211821 ) );
#345 = CARTESIAN_POINT( '', ( 8.33141342264835, -2.06710016777372, -0.110158295175389 ) );
#346 = CARTESIAN_POINT( '', ( 8.33161354193286, -2.06679714366547, 0.225907904599697 ) );
#347 = CARTESIAN_POINT( '', ( 8.35493827324449, -2.02994465055599, 0.446249297510826 ) );
#348 = CARTESIAN_POINT( '', ( 8.42924086026283, -1.92690995250643, 0.755869178426206 ) );
#349 = CARTESIAN_POINT( '', ( 8.46022357295698, -1.88536238388204, 0.853658032280329 ) );
#350 = CARTESIAN_POINT( '', ( 8.53646848851796, -1.79006652681673, 1.03874211631396 ) );
#351 = CARTESIAN_POINT( '', ( 8.58233498666227, -1.73570790219769, 1.12667477952263 ) );
#352 = CARTESIAN_POINT( '', ( 8.73941421666147, -1.56427864814963, 1.36523889235500 ) );
#353 = CARTESIAN_POINT( '', ( 8.87402067866209, -1.43594546441385, 1.49522383414805 ) );
#354 = CARTESIAN_POINT( '', ( 9.18243239598385, -1.19107134542811, 1.69675653559230 ) );
#355 = CARTESIAN_POINT( '', ( 9.35767637491177, -1.07270400980242, 1.77107238927207 ) );
#356 = CARTESIAN_POINT( '', ( 9.72819250689501, -0.856778464217658, 1.88502571970276 ) );
#357 = CARTESIAN_POINT( '', ( 9.92185129154453, -0.759335835396064, 1.92480545418626 ) );
#358 = CARTESIAN_POINT( '', ( 10.3202092329234, -0.580053761175515, 1.98620355994242 ) );
#359 = CARTESIAN_POINT( '', ( 10.5254642285555, -0.498004218460036, 2.00761140305608 ) );
#360 = CARTESIAN_POINT( '', ( 11.1484265011860, -0.270089677641015, 2.05514757503468 ) );
#361 = CARTESIAN_POINT( '', ( 11.5721820700007, -0.141909071964195, 2.06541566864267 ) );
#362 = CARTESIAN_POINT( '', ( 12.0000000000001, -0.0253370906110701, 2.06684470433561 ) );
#363 = COLOUR_RGB( '', 0.689999997600000, 0.689999997600000, 0.689999997600000 );
#364 = CARTESIAN_POINT( '', ( 0.500000000000000, 0.000000000000000, -10.0000000000000 ) );
#365 = AXIS2_PLACEMENT_3D( '', #436, #437, #438 );
#366 = COLOUR_RGB( '', 0.689999997600000, 0.689999997600000, 0.689999997600000 );
#367 = CARTESIAN_POINT( '', ( 7.50000000000000, 0.000000000000000, -10.0000000000000 ) );
#368 = AXIS2_PLACEMENT_3D( '', #439, #440, #441 );
#369 = COLOUR_RGB( '', 0.689999997600000, 0.689999997600000, 0.689999997600000 );
#370 = CARTESIAN_POINT( '', ( 12.0000000000000, 0.000000000000000, -6.50000000000000 ) );
#371 = AXIS2_PLACEMENT_3D( '', #442, #443, #444 );
#372 = AXIS2_PLACEMENT_3D( '', #445, #446, #447 );
#373 = COLOUR_RGB( '', 0.689999997600000, 0.689999997600000, 0.689999997600000 );
#374 = CARTESIAN_POINT( '', ( 0.000000000000000, 0.0253370906108188, -2.06684470433542 ) );
#375 = CARTESIAN_POINT( '', ( 0.428295846380246, 0.142039294788939, -2.06541407226348 ) );
#376 = CARTESIAN_POINT( '', ( 0.852338270767847, 0.270339420010437, -2.05511467131032 ) );
#377 = CARTESIAN_POINT( '', ( 1.47515792963086, 0.498246902256443, -2.00755117069366 ) );
#378 = CARTESIAN_POINT( '', ( 1.68128437382837, 0.580645397626685, -1.98605451537747 ) );
#379 = CARTESIAN_POINT( '', ( 2.08130348843197, 0.760837159386397, -1.92423710408388 ) );
#380 = CARTESIAN_POINT( '', ( 2.27540644379430, 0.858681011207902, -1.88417566879274 ) );
#381 = CARTESIAN_POINT( '', ( 2.64576887506694, 1.07491034747154, -1.76975104881398 ) );
#382 = CARTESIAN_POINT( '', ( 2.82108915714416, 1.19357729665132, -1.69504077895412 ) );
#383 = CARTESIAN_POINT( '', ( 3.12928539852415, 1.43886703953502, -1.49246495702197 ) );
#384 = CARTESIAN_POINT( '', ( 3.26328396057925, 1.56699458224629, -1.36211149452275 ) );
#385 = CARTESIAN_POINT( '', ( 3.41956442874166, 1.73789880837360, -1.12328955213190 ) );
#386 = CARTESIAN_POINT( '', ( 3.46526522791283, 1.79215770323031, -1.03513536766799 ) );
#387 = CARTESIAN_POINT( '', ( 3.54112308855759, 1.88712440176817, -0.849762293171457 ) );
#388 = CARTESIAN_POINT( '', ( 3.57186220612301, 1.92840595111104, -0.751997124671972 ) );
#389 = CARTESIAN_POINT( '', ( 3.62092477074222, 1.99650898271278, -0.546077897137924 ) );
#390 = CARTESIAN_POINT( '', ( 3.63907284381087, 2.02308799422896, -0.437863564393355 ) );
#391 = CARTESIAN_POINT( '', ( 3.66274219555061, 2.05815329928700, -0.220487029211819 ) );
#392 = CARTESIAN_POINT( '', ( 3.66858657735166, 2.06710016777372, -0.110158295175387 ) );
#393 = CARTESIAN_POINT( '', ( 3.66838645806715, 2.06679714366547, 0.225907904599698 ) );
#394 = CARTESIAN_POINT( '', ( 3.64506172675551, 2.02994465055599, 0.446249297510825 ) );
#395 = CARTESIAN_POINT( '', ( 3.57075913973718, 1.92690995250643, 0.755869178426202 ) );
#396 = CARTESIAN_POINT( '', ( 3.53977642704302, 1.88536238388204, 0.853658032280323 ) );
#397 = CARTESIAN_POINT( '', ( 3.46353151148204, 1.79006652681673, 1.03874211631395 ) );
#398 = CARTESIAN_POINT( '', ( 3.41766501333774, 1.73570790219770, 1.12667477952263 ) );
#399 = CARTESIAN_POINT( '', ( 3.26058578333853, 1.56427864814963, 1.36523889235500 ) );
#400 = CARTESIAN_POINT( '', ( 3.12597932133793, 1.43594546441386, 1.49522383414805 ) );
#401 = CARTESIAN_POINT( '', ( 2.81756760401616, 1.19107134542812, 1.69675653559230 ) );
#402 = CARTESIAN_POINT( '', ( 2.64232362508824, 1.07270400980243, 1.77107238927207 ) );
#403 = CARTESIAN_POINT( '', ( 2.27180749310500, 0.856778464217664, 1.88502571970276 ) );
#404 = CARTESIAN_POINT( '', ( 2.07814870845549, 0.759335835396065, 1.92480545418626 ) );
#405 = CARTESIAN_POINT( '', ( 1.67979076707658, 0.580053761175519, 1.98620355994242 ) );
#406 = CARTESIAN_POINT( '', ( 1.47453577144455, 0.498004218460033, 2.00761140305608 ) );
#407 = CARTESIAN_POINT( '', ( 0.851573498814050, 0.270089677641018, 2.05514757503468 ) );
#408 = CARTESIAN_POINT( '', ( 0.427817929999313, 0.141909071964191, 2.06541566864267 ) );
#409 = CARTESIAN_POINT( '', ( -7.64613810237598E-14, 0.0253370906110689, 2.06684470433561 ) );
#410 = COLOUR_RGB( '', 0.689999997600000, 0.689999997600000, 0.689999997600000 );
#411 = COLOUR_RGB( '', 0.689999997600000, 0.689999997600000, 0.689999997600000 );
#412 = CARTESIAN_POINT( '', ( 8.00000000000000, 0.000000000000000, -9.50000000000000 ) );
#413 = AXIS2_PLACEMENT_3D( '', #448, #449, #450 );
#414 = CARTESIAN_POINT( '', ( 8.00000000000000, 0.000000000000000, -7.50000000000000 ) );
#415 = AXIS2_PLACEMENT_3D( '', #451, #452, #453 );
#416 = COLOUR_RGB( '', 0.689999997600000, 0.689999997600000, 0.689999997600000 );
#417 = CARTESIAN_POINT( '', ( 8.50000000000000, 0.000000000000000, -7.00000000000000 ) );
#418 = AXIS2_PLACEMENT_3D( '', #454, #455, #456 );
#419 = COLOUR_RGB( '', 0.689999997600000, 0.689999997600000, 0.689999997600000 );
#420 = CARTESIAN_POINT( '', ( 11.5000000000000, 0.000000000000000, -7.00000000000000 ) );
#421 = AXIS2_PLACEMENT_3D( '', #457, #458, #459 );
#422 = COLOUR_RGB( '', 0.689999997600000, 0.689999997600000, 0.689999997600000 );
#423 = COLOUR_RGB( '', 0.689999997600000, 0.689999997600000, 0.689999997600000 );
#424 = CARTESIAN_POINT( '', ( 0.000000000000000, -1.60769515458674, 0.000000000000000 ) );
#425 = DIRECTION( '', ( -1.00000000000000, 0.000000000000000, 0.000000000000000 ) );
#426 = DIRECTION( '', ( 0.000000000000000, 1.00000000000000, 0.000000000000000 ) );
#427 = CARTESIAN_POINT( '', ( 0.000000000000000, 0.000000000000000, 0.000000000000000 ) );
#428 = DIRECTION( '', ( 1.00000000000000, 0.000000000000000, -0.000000000000000 ) );
#429 = DIRECTION( '', ( -0.000000000000000, 0.000000000000000, -1.00000000000000 ) );
#430 = CARTESIAN_POINT( '', ( 0.000000000000000, 0.000000000000000, 0.000000000000000 ) );
#431 = DIRECTION( '', ( 1.00000000000000, 0.000000000000000, -0.000000000000000 ) );
#432 = DIRECTION( '', ( -0.000000000000000, 0.000000000000000, -1.00000000000000 ) );
#433 = CARTESIAN_POINT( '', ( 12.0000000000000, 0.000000000000000, 0.000000000000000 ) );
#434 = DIRECTION( '', ( 1.00000000000000, 0.000000000000000, -0.000000000000000 ) );
#435 = DIRECTION( '', ( -0.000000000000000, 0.000000000000000, -1.00000000000000 ) );
#436 = CARTESIAN_POINT( '', ( 0.500000000000000, 0.000000000000000, 0.000000000000000 ) );
#437 = DIRECTION( '', ( 1.00000000000000, 0.000000000000000, -0.000000000000000 ) );
#438 = DIRECTION( '', ( -0.000000000000000, 0.000000000000000, -1.00000000000000 ) );
#439 = CARTESIAN_POINT( '', ( 7.50000000000000, 0.000000000000000, 0.000000000000000 ) );
#440 = DIRECTION( '', ( 1.00000000000000, 0.000000000000000, -0.000000000000000 ) );
#441 = DIRECTION( '', ( -0.000000000000000, 0.000000000000000, -1.00000000000000 ) );
#442 = CARTESIAN_POINT( '', ( 12.0000000000000, 0.000000000000000, 0.000000000000000 ) );
#443 = DIRECTION( '', ( 1.00000000000000, 0.000000000000000, -0.000000000000000 ) );
#444 = DIRECTION( '', ( -0.000000000000000, 0.000000000000000, -1.00000000000000 ) );
#445 = CARTESIAN_POINT( '', ( 12.0000000000000, 1.60769515458674, 0.000000000000000 ) );
#446 = DIRECTION( '', ( 1.00000000000000, 0.000000000000000, -0.000000000000000 ) );
#447 = DIRECTION( '', ( 0.000000000000000, 1.00000000000000, 0.000000000000000 ) );
#448 = CARTESIAN_POINT( '', ( 8.00000000000000, 0.000000000000000, 0.000000000000000 ) );
#449 = DIRECTION( '', ( 1.00000000000000, 0.000000000000000, -0.000000000000000 ) );
#450 = DIRECTION( '', ( -0.000000000000000, 0.000000000000000, -1.00000000000000 ) );
#451 = CARTESIAN_POINT( '', ( 8.00000000000000, 0.000000000000000, 0.000000000000000 ) );
#452 = DIRECTION( '', ( 1.00000000000000, 0.000000000000000, -0.000000000000000 ) );
#453 = DIRECTION( '', ( -0.000000000000000, 0.000000000000000, -1.00000000000000 ) );
#454 = CARTESIAN_POINT( '', ( 8.50000000000000, 0.000000000000000, 0.000000000000000 ) );
#455 = DIRECTION( '', ( 1.00000000000000, 0.000000000000000, -0.000000000000000 ) );
#456 = DIRECTION( '', ( -0.000000000000000, 0.000000000000000, -1.00000000000000 ) );
#457 = CARTESIAN_POINT( '', ( 11.5000000000000, 0.000000000000000, 0.000000000000000 ) );
#458 = DIRECTION( '', ( 1.00000000000000, 0.000000000000000, -0.000000000000000 ) );
#459 = DIRECTION( '', ( -0.000000000000000, 0.000000000000000, -1.00000000000000 ) );
ENDSEC;
END-ISO-10303-21;
