ISO-10303-21;
HEADER;
FILE_DESCRIPTION( ( 'STEP AP214' ), '1' );
FILE_NAME( '//goodhand-server/Shared Folders/GoodHand Data/Kipp CAD/K0393/K0393.06.stp', '2020-12-07T10:24:06', ( '' ), ( '' ), ' ', 'PARTsolutions', ' ' );
FILE_SCHEMA( ( 'AUTOMOTIVE_DESIGN { 1 0 10303 214 1 1 1 1 }' ) );
ENDSEC;
DATA;
#1 = MECHANICAL_DESIGN_GEOMETRIC_PRESENTATION_REPRESENTATION( ' ', ( #10, #11, #12, #13, #14, #15, #16, #17, #18, #19, #20, #21, #22, #23, #24 ), #6 );
#2 = PRODUCT_DEFINITION_CONTEXT( '', #25, 'design' );
#3 = APPLICATION_PROTOCOL_DEFINITION( 'international standard', 'automotive_design', 2001, #25 );
#4 = PRODUCT_CATEGORY_RELATIONSHIP( 'NONE', 'NONE', #26, #27 );
#5 = SHAPE_DEFINITION_REPRESENTATION( #28, #29 );
#6 =  ( GEOMETRIC_REPRESENTATION_CONTEXT( 3 )GLOBAL_UNCERTAINTY_ASSIGNED_CONTEXT( ( #32 ) )GLOBAL_UNIT_ASSIGNED_CONTEXT( ( #34, #35, #36 ) )REPRESENTATION_CONTEXT( 'NONE', 'WORKSPACE' ) );
#10 = STYLED_ITEM( '', ( #38 ), #39 );
#11 = STYLED_ITEM( '', ( #40 ), #41 );
#12 = STYLED_ITEM( '', ( #42 ), #43 );
#13 = STYLED_ITEM( '', ( #44 ), #45 );
#14 = STYLED_ITEM( '', ( #46 ), #47 );
#15 = STYLED_ITEM( '', ( #48 ), #49 );
#16 = STYLED_ITEM( '', ( #50 ), #51 );
#17 = STYLED_ITEM( '', ( #52 ), #53 );
#18 = STYLED_ITEM( '', ( #54 ), #55 );
#19 = STYLED_ITEM( '', ( #56 ), #57 );
#20 = STYLED_ITEM( '', ( #58 ), #59 );
#21 = STYLED_ITEM( '', ( #60 ), #61 );
#22 = STYLED_ITEM( '', ( #62 ), #63 );
#23 = STYLED_ITEM( '', ( #64 ), #65 );
#24 = STYLED_ITEM( '', ( #66 ), #67 );
#25 = APPLICATION_CONTEXT( 'core data for automotive mechanical design processes' );
#26 = PRODUCT_CATEGORY( 'part', 'NONE' );
#27 = PRODUCT_RELATED_PRODUCT_CATEGORY( 'detail', ' ', ( #68 ) );
#28 = PRODUCT_DEFINITION_SHAPE( 'NONE', 'NONE', #69 );
#29 = ADVANCED_BREP_SHAPE_REPRESENTATION( '_K0393.06', ( #70, #71 ), #6 );
#32 = UNCERTAINTY_MEASURE_WITH_UNIT( LENGTH_MEASURE( 0.00100000000000000 ), #34, '', '' );
#34 =  ( CONVERSION_BASED_UNIT( 'MILLIMETRE', #74 )LENGTH_UNIT(  )NAMED_UNIT( #77 ) );
#35 =  ( NAMED_UNIT( #79 )PLANE_ANGLE_UNIT(  )SI_UNIT( $, .RADIAN. ) );
#36 =  ( NAMED_UNIT( #79 )SI_UNIT( $, .STERADIAN. )SOLID_ANGLE_UNIT(  ) );
#38 = PRESENTATION_STYLE_ASSIGNMENT( ( #85 ) );
#39 = ADVANCED_FACE( '', ( #86, #87 ), #88, .F. );
#40 = PRESENTATION_STYLE_ASSIGNMENT( ( #89 ) );
#41 = ADVANCED_FACE( '', ( #90, #91 ), #92, .T. );
#42 = PRESENTATION_STYLE_ASSIGNMENT( ( #93 ) );
#43 = ADVANCED_FACE( '', ( #94, #95 ), #96, .F. );
#44 = PRESENTATION_STYLE_ASSIGNMENT( ( #97 ) );
#45 = ADVANCED_FACE( '', ( #98, #99 ), #100, .T. );
#46 = PRESENTATION_STYLE_ASSIGNMENT( ( #101 ) );
#47 = ADVANCED_FACE( '', ( #102, #103 ), #104, .F. );
#48 = PRESENTATION_STYLE_ASSIGNMENT( ( #105 ) );
#49 = ADVANCED_FACE( '', ( #106, #107 ), #108, .F. );
#50 = PRESENTATION_STYLE_ASSIGNMENT( ( #109 ) );
#51 = ADVANCED_FACE( '', ( #110, #111 ), #112, .T. );
#52 = PRESENTATION_STYLE_ASSIGNMENT( ( #113 ) );
#53 = ADVANCED_FACE( '', ( #114, #115 ), #116, .T. );
#54 = PRESENTATION_STYLE_ASSIGNMENT( ( #117 ) );
#55 = ADVANCED_FACE( '', ( #118, #119 ), #120, .F. );
#56 = PRESENTATION_STYLE_ASSIGNMENT( ( #121 ) );
#57 = ADVANCED_FACE( '', ( #122, #123 ), #124, .F. );
#58 = PRESENTATION_STYLE_ASSIGNMENT( ( #125 ) );
#59 = ADVANCED_FACE( '', ( #126, #127 ), #128, .T. );
#60 = PRESENTATION_STYLE_ASSIGNMENT( ( #129 ) );
#61 = ADVANCED_FACE( '', ( #130 ), #131, .F. );
#62 = PRESENTATION_STYLE_ASSIGNMENT( ( #132 ) );
#63 = ADVANCED_FACE( '', ( #133, #134 ), #135, .T. );
#64 = PRESENTATION_STYLE_ASSIGNMENT( ( #136 ) );
#65 = ADVANCED_FACE( '', ( #137, #138 ), #139, .F. );
#66 = PRESENTATION_STYLE_ASSIGNMENT( ( #140 ) );
#67 = ADVANCED_FACE( '', ( #141, #142 ), #143, .F. );
#68 = PRODUCT( '_K0393.06', '_K0393.06', 'PART-_K0393.06-DESC', ( #144 ) );
#69 = PRODUCT_DEFINITION( 'NONE', 'NONE', #145, #2 );
#70 = MANIFOLD_SOLID_BREP( '_K0393.06', #146 );
#71 = AXIS2_PLACEMENT_3D( '', #147, #148, #149 );
#74 = LENGTH_MEASURE_WITH_UNIT( LENGTH_MEASURE( 1.00000000000000 ), #150 );
#77 = DIMENSIONAL_EXPONENTS( 1.00000000000000, 0.000000000000000, 0.000000000000000, 0.000000000000000, 0.000000000000000, 0.000000000000000, 0.000000000000000 );
#79 = DIMENSIONAL_EXPONENTS( 0.000000000000000, 0.000000000000000, 0.000000000000000, 0.000000000000000, 0.000000000000000, 0.000000000000000, 0.000000000000000 );
#85 = SURFACE_STYLE_USAGE( .BOTH., #151 );
#86 = FACE_OUTER_BOUND( '', #152, .T. );
#87 = FACE_BOUND( '', #153, .T. );
#88 = PLANE( '', #154 );
#89 = SURFACE_STYLE_USAGE( .BOTH., #155 );
#90 = FACE_OUTER_BOUND( '', #156, .T. );
#91 = FACE_BOUND( '', #157, .T. );
#92 = CONICAL_SURFACE( '', #158, 4.30000000000000, 1.13245976690000 );
#93 = SURFACE_STYLE_USAGE( .BOTH., #159 );
#94 = FACE_OUTER_BOUND( '', #160, .T. );
#95 = FACE_OUTER_BOUND( '', #161, .T. );
#96 = CYLINDRICAL_SURFACE( '', #162, 2.50000000000000 );
#97 = SURFACE_STYLE_USAGE( .BOTH., #163 );
#98 = FACE_BOUND( '', #164, .T. );
#99 = FACE_OUTER_BOUND( '', #165, .T. );
#100 = PLANE( '', #166 );
#101 = SURFACE_STYLE_USAGE( .BOTH., #167 );
#102 = FACE_BOUND( '', #168, .T. );
#103 = FACE_OUTER_BOUND( '', #169, .T. );
#104 = CONICAL_SURFACE( '', #170, 2.20000000000000, 1.22173047640000 );
#105 = SURFACE_STYLE_USAGE( .BOTH., #171 );
#106 = FACE_BOUND( '', #172, .T. );
#107 = FACE_OUTER_BOUND( '', #173, .T. );
#108 = CONICAL_SURFACE( '', #174, 2.50000000000000, 0.785398163400000 );
#109 = SURFACE_STYLE_USAGE( .BOTH., #175 );
#110 = FACE_OUTER_BOUND( '', #176, .T. );
#111 = FACE_OUTER_BOUND( '', #177, .T. );
#112 = CYLINDRICAL_SURFACE( '', #178, 4.30000000000000 );
#113 = SURFACE_STYLE_USAGE( .BOTH., #179 );
#114 = FACE_OUTER_BOUND( '', #180, .T. );
#115 = FACE_BOUND( '', #181, .T. );
#116 = CONICAL_SURFACE( '', #182, 3.94644660940000, 0.785398163400000 );
#117 = SURFACE_STYLE_USAGE( .BOTH., #183 );
#118 = FACE_OUTER_BOUND( '', #184, .T. );
#119 = FACE_OUTER_BOUND( '', #185, .T. );
#120 = CYLINDRICAL_SURFACE( '', #186, 2.20000000000000 );
#121 = SURFACE_STYLE_USAGE( .BOTH., #187 );
#122 = FACE_BOUND( '', #188, .T. );
#123 = FACE_OUTER_BOUND( '', #189, .T. );
#124 = PLANE( '', #190 );
#125 = SURFACE_STYLE_USAGE( .BOTH., #191 );
#126 = FACE_OUTER_BOUND( '', #192, .T. );
#127 = FACE_OUTER_BOUND( '', #193, .T. );
#128 = CYLINDRICAL_SURFACE( '', #194, 7.50000000000000 );
#129 = SURFACE_STYLE_USAGE( .BOTH., #195 );
#130 = FACE_OUTER_BOUND( '', #196, .T. );
#131 = PLANE( '', #197 );
#132 = SURFACE_STYLE_USAGE( .BOTH., #198 );
#133 = FACE_BOUND( '', #199, .T. );
#134 = FACE_OUTER_BOUND( '', #200, .T. );
#135 = CONICAL_SURFACE( '', #201, 7.50000000000000, 0.785398163400000 );
#136 = SURFACE_STYLE_USAGE( .BOTH., #202 );
#137 = FACE_OUTER_BOUND( '', #203, .T. );
#138 = FACE_BOUND( '', #204, .T. );
#139 = CONICAL_SURFACE( '', #205, 2.20000000000000, 0.785398163400000 );
#140 = SURFACE_STYLE_USAGE( .BOTH., #206 );
#141 = FACE_OUTER_BOUND( '', #207, .T. );
#142 = FACE_OUTER_BOUND( '', #208, .T. );
#143 = CYLINDRICAL_SURFACE( '', #209, 2.40000000000000 );
#144 = PRODUCT_CONTEXT( '', #25, 'mechanical' );
#145 = PRODUCT_DEFINITION_FORMATION_WITH_SPECIFIED_SOURCE( ' ', 'NONE', #68, .NOT_KNOWN. );
#146 = CLOSED_SHELL( '', ( #47, #53, #39, #49, #55, #61, #43, #57, #63, #59, #41, #51, #65, #67, #45 ) );
#147 = CARTESIAN_POINT( '', ( 0.000000000000000, 0.000000000000000, 0.000000000000000 ) );
#148 = DIRECTION( '', ( 0.000000000000000, 0.000000000000000, 1.00000000000000 ) );
#149 = DIRECTION( '', ( 1.00000000000000, 0.000000000000000, 0.000000000000000 ) );
#150 =  ( LENGTH_UNIT(  )NAMED_UNIT( #77 )SI_UNIT( .MILLI., .METRE. ) );
#151 = SURFACE_SIDE_STYLE( '', ( #211 ) );
#152 = EDGE_LOOP( '', ( #212 ) );
#153 = EDGE_LOOP( '', ( #213 ) );
#154 = AXIS2_PLACEMENT_3D( '', #214, #215, #216 );
#155 = SURFACE_SIDE_STYLE( '', ( #217 ) );
#156 = EDGE_LOOP( '', ( #218 ) );
#157 = EDGE_LOOP( '', ( #219 ) );
#158 = AXIS2_PLACEMENT_3D( '', #220, #221, #222 );
#159 = SURFACE_SIDE_STYLE( '', ( #223 ) );
#160 = EDGE_LOOP( '', ( #224 ) );
#161 = EDGE_LOOP( '', ( #225 ) );
#162 = AXIS2_PLACEMENT_3D( '', #226, #227, #228 );
#163 = SURFACE_SIDE_STYLE( '', ( #229 ) );
#164 = EDGE_LOOP( '', ( #230 ) );
#165 = EDGE_LOOP( '', ( #231 ) );
#166 = AXIS2_PLACEMENT_3D( '', #232, #233, #234 );
#167 = SURFACE_SIDE_STYLE( '', ( #235 ) );
#168 = VERTEX_LOOP( '', #236 );
#169 = EDGE_LOOP( '', ( #237 ) );
#170 = AXIS2_PLACEMENT_3D( '', #238, #239, #240 );
#171 = SURFACE_SIDE_STYLE( '', ( #241 ) );
#172 = EDGE_LOOP( '', ( #242 ) );
#173 = EDGE_LOOP( '', ( #243 ) );
#174 = AXIS2_PLACEMENT_3D( '', #244, #245, #246 );
#175 = SURFACE_SIDE_STYLE( '', ( #247 ) );
#176 = EDGE_LOOP( '', ( #248 ) );
#177 = EDGE_LOOP( '', ( #249 ) );
#178 = AXIS2_PLACEMENT_3D( '', #250, #251, #252 );
#179 = SURFACE_SIDE_STYLE( '', ( #253 ) );
#180 = EDGE_LOOP( '', ( #254 ) );
#181 = EDGE_LOOP( '', ( #255 ) );
#182 = AXIS2_PLACEMENT_3D( '', #256, #257, #258 );
#183 = SURFACE_SIDE_STYLE( '', ( #259 ) );
#184 = EDGE_LOOP( '', ( #260 ) );
#185 = EDGE_LOOP( '', ( #261 ) );
#186 = AXIS2_PLACEMENT_3D( '', #262, #263, #264 );
#187 = SURFACE_SIDE_STYLE( '', ( #265 ) );
#188 = EDGE_LOOP( '', ( #266 ) );
#189 = EDGE_LOOP( '', ( #267 ) );
#190 = AXIS2_PLACEMENT_3D( '', #268, #269, #270 );
#191 = SURFACE_SIDE_STYLE( '', ( #271 ) );
#192 = EDGE_LOOP( '', ( #272 ) );
#193 = EDGE_LOOP( '', ( #273 ) );
#194 = AXIS2_PLACEMENT_3D( '', #274, #275, #276 );
#195 = SURFACE_SIDE_STYLE( '', ( #277 ) );
#196 = EDGE_LOOP( '', ( #278 ) );
#197 = AXIS2_PLACEMENT_3D( '', #279, #280, #281 );
#198 = SURFACE_SIDE_STYLE( '', ( #282 ) );
#199 = EDGE_LOOP( '', ( #283 ) );
#200 = EDGE_LOOP( '', ( #284 ) );
#201 = AXIS2_PLACEMENT_3D( '', #285, #286, #287 );
#202 = SURFACE_SIDE_STYLE( '', ( #288 ) );
#203 = EDGE_LOOP( '', ( #289 ) );
#204 = EDGE_LOOP( '', ( #290 ) );
#205 = AXIS2_PLACEMENT_3D( '', #291, #292, #293 );
#206 = SURFACE_SIDE_STYLE( '', ( #294 ) );
#207 = EDGE_LOOP( '', ( #295 ) );
#208 = EDGE_LOOP( '', ( #296 ) );
#209 = AXIS2_PLACEMENT_3D( '', #297, #298, #299 );
#211 = SURFACE_STYLE_FILL_AREA( #300 );
#212 = ORIENTED_EDGE( '', *, *, #301, .F. );
#213 = ORIENTED_EDGE( '', *, *, #302, .T. );
#214 = CARTESIAN_POINT( '', ( 0.000000000000000, 0.000000000000000, 0.000000000000000 ) );
#215 = DIRECTION( '', ( 0.000000000000000, -1.00000000000000, -0.000000000000000 ) );
#216 = DIRECTION( '', ( 0.000000000000000, 0.000000000000000, -1.00000000000000 ) );
#217 = SURFACE_STYLE_FILL_AREA( #303 );
#218 = ORIENTED_EDGE( '', *, *, #304, .F. );
#219 = ORIENTED_EDGE( '', *, *, #305, .T. );
#220 = CARTESIAN_POINT( '', ( 0.000000000000000, -3.60000000000000, 0.000000000000000 ) );
#221 = DIRECTION( '', ( -0.000000000000000, -1.00000000000000, -0.000000000000000 ) );
#222 = DIRECTION( '', ( 0.000000000000000, 0.000000000000000, -1.00000000000000 ) );
#223 = SURFACE_STYLE_FILL_AREA( #306 );
#224 = ORIENTED_EDGE( '', *, *, #307, .F. );
#225 = ORIENTED_EDGE( '', *, *, #308, .T. );
#226 = CARTESIAN_POINT( '', ( 0.000000000000000, -7.10000000000000, 0.000000000000000 ) );
#227 = DIRECTION( '', ( -0.000000000000000, 1.00000000000000, 0.000000000000000 ) );
#228 = DIRECTION( '', ( 0.000000000000000, 0.000000000000000, -1.00000000000000 ) );
#229 = SURFACE_STYLE_FILL_AREA( #309 );
#230 = ORIENTED_EDGE( '', *, *, #310, .T. );
#231 = ORIENTED_EDGE( '', *, *, #311, .F. );
#232 = CARTESIAN_POINT( '', ( 2.40000000000000, -3.20000000000000, 0.000000000000000 ) );
#233 = DIRECTION( '', ( 0.000000000000000, 1.00000000000000, 0.000000000000000 ) );
#234 = DIRECTION( '', ( 0.000000000000000, -0.000000000000000, 1.00000000000000 ) );
#235 = SURFACE_STYLE_FILL_AREA( #312 );
#236 = VERTEX_POINT( '', #313 );
#237 = ORIENTED_EDGE( '', *, *, #310, .F. );
#238 = CARTESIAN_POINT( '', ( 0.000000000000000, -3.20000000000000, 0.000000000000000 ) );
#239 = DIRECTION( '', ( -0.000000000000000, 1.00000000000000, 0.000000000000000 ) );
#240 = DIRECTION( '', ( 0.000000000000000, -0.000000000000000, 1.00000000000000 ) );
#241 = SURFACE_STYLE_FILL_AREA( #314 );
#242 = ORIENTED_EDGE( '', *, *, #315, .T. );
#243 = ORIENTED_EDGE( '', *, *, #302, .F. );
#244 = CARTESIAN_POINT( '', ( 0.000000000000000, 0.000000000000000, 0.000000000000000 ) );
#245 = DIRECTION( '', ( -0.000000000000000, 1.00000000000000, 0.000000000000000 ) );
#246 = DIRECTION( '', ( 0.000000000000000, -0.000000000000000, 1.00000000000000 ) );
#247 = SURFACE_STYLE_FILL_AREA( #316 );
#248 = ORIENTED_EDGE( '', *, *, #305, .F. );
#249 = ORIENTED_EDGE( '', *, *, #317, .T. );
#250 = CARTESIAN_POINT( '', ( 0.000000000000000, -7.10000000000000, 0.000000000000000 ) );
#251 = DIRECTION( '', ( -0.000000000000000, 1.00000000000000, 0.000000000000000 ) );
#252 = DIRECTION( '', ( 0.000000000000000, 0.000000000000000, -1.00000000000000 ) );
#253 = SURFACE_STYLE_FILL_AREA( #318 );
#254 = ORIENTED_EDGE( '', *, *, #317, .F. );
#255 = ORIENTED_EDGE( '', *, *, #301, .T. );
#256 = CARTESIAN_POINT( '', ( 0.000000000000000, 0.000000000000000, 0.000000000000000 ) );
#257 = DIRECTION( '', ( -0.000000000000000, -1.00000000000000, -0.000000000000000 ) );
#258 = DIRECTION( '', ( 0.000000000000000, 0.000000000000000, -1.00000000000000 ) );
#259 = SURFACE_STYLE_FILL_AREA( #319 );
#260 = ORIENTED_EDGE( '', *, *, #320, .T. );
#261 = ORIENTED_EDGE( '', *, *, #315, .F. );
#262 = CARTESIAN_POINT( '', ( 0.000000000000000, -4.00073451538564, 0.000000000000000 ) );
#263 = DIRECTION( '', ( -0.000000000000000, 1.00000000000000, 0.000000000000000 ) );
#264 = DIRECTION( '', ( 0.000000000000000, 0.000000000000000, -1.00000000000000 ) );
#265 = SURFACE_STYLE_FILL_AREA( #321 );
#266 = ORIENTED_EDGE( '', *, *, #308, .F. );
#267 = ORIENTED_EDGE( '', *, *, #322, .T. );
#268 = CARTESIAN_POINT( '', ( 7.14644660940672, -7.60000000000000, 0.000000000000000 ) );
#269 = DIRECTION( '', ( 0.000000000000000, 1.00000000000000, 0.000000000000000 ) );
#270 = DIRECTION( '', ( 0.000000000000000, -0.000000000000000, 1.00000000000000 ) );
#271 = SURFACE_STYLE_FILL_AREA( #323 );
#272 = ORIENTED_EDGE( '', *, *, #324, .F. );
#273 = ORIENTED_EDGE( '', *, *, #304, .T. );
#274 = CARTESIAN_POINT( '', ( 0.000000000000000, -7.10000000000000, 0.000000000000000 ) );
#275 = DIRECTION( '', ( -0.000000000000000, 1.00000000000000, 0.000000000000000 ) );
#276 = DIRECTION( '', ( 0.000000000000000, 0.000000000000000, -1.00000000000000 ) );
#277 = SURFACE_STYLE_FILL_AREA( #325 );
#278 = ORIENTED_EDGE( '', *, *, #307, .T. );
#279 = CARTESIAN_POINT( '', ( 2.50000000000000, -7.10000000000000, 0.000000000000000 ) );
#280 = DIRECTION( '', ( 0.000000000000000, 1.00000000000000, 0.000000000000000 ) );
#281 = DIRECTION( '', ( 0.000000000000000, -0.000000000000000, 1.00000000000000 ) );
#282 = SURFACE_STYLE_FILL_AREA( #326 );
#283 = ORIENTED_EDGE( '', *, *, #322, .F. );
#284 = ORIENTED_EDGE( '', *, *, #324, .T. );
#285 = CARTESIAN_POINT( '', ( 0.000000000000000, -7.24644660940673, 0.000000000000000 ) );
#286 = DIRECTION( '', ( -0.000000000000000, 1.00000000000000, 0.000000000000000 ) );
#287 = DIRECTION( '', ( 0.000000000000000, -0.000000000000000, 1.00000000000000 ) );
#288 = SURFACE_STYLE_FILL_AREA( #327 );
#289 = ORIENTED_EDGE( '', *, *, #328, .T. );
#290 = ORIENTED_EDGE( '', *, *, #320, .F. );
#291 = CARTESIAN_POINT( '', ( 0.000000000000000, -0.599999999999997, 0.000000000000000 ) );
#292 = DIRECTION( '', ( -0.000000000000000, -1.00000000000000, -0.000000000000000 ) );
#293 = DIRECTION( '', ( 0.000000000000000, 0.000000000000000, -1.00000000000000 ) );
#294 = SURFACE_STYLE_FILL_AREA( #329 );
#295 = ORIENTED_EDGE( '', *, *, #311, .T. );
#296 = ORIENTED_EDGE( '', *, *, #328, .F. );
#297 = CARTESIAN_POINT( '', ( 0.000000000000000, -4.00073451538564, 0.000000000000000 ) );
#298 = DIRECTION( '', ( -0.000000000000000, 1.00000000000000, 0.000000000000000 ) );
#299 = DIRECTION( '', ( 0.000000000000000, 0.000000000000000, -1.00000000000000 ) );
#300 = FILL_AREA_STYLE( '', ( #330 ) );
#301 = EDGE_CURVE( '', #331, #331, #332, .T. );
#302 = EDGE_CURVE( '', #333, #333, #334, .T. );
#303 = FILL_AREA_STYLE( '', ( #335 ) );
#304 = EDGE_CURVE( '', #336, #336, #337, .T. );
#305 = EDGE_CURVE( '', #338, #338, #339, .T. );
#306 = FILL_AREA_STYLE( '', ( #340 ) );
#307 = EDGE_CURVE( '', #341, #341, #342, .T. );
#308 = EDGE_CURVE( '', #343, #343, #344, .T. );
#309 = FILL_AREA_STYLE( '', ( #345 ) );
#310 = EDGE_CURVE( '', #346, #346, #347, .T. );
#311 = EDGE_CURVE( '', #348, #348, #349, .T. );
#312 = FILL_AREA_STYLE( '', ( #350 ) );
#313 = CARTESIAN_POINT( '', ( 0.000000000000000, -4.00073451538564, 0.000000000000000 ) );
#314 = FILL_AREA_STYLE( '', ( #351 ) );
#315 = EDGE_CURVE( '', #352, #352, #353, .T. );
#316 = FILL_AREA_STYLE( '', ( #354 ) );
#317 = EDGE_CURVE( '', #355, #355, #356, .T. );
#318 = FILL_AREA_STYLE( '', ( #357 ) );
#319 = FILL_AREA_STYLE( '', ( #358 ) );
#320 = EDGE_CURVE( '', #359, #359, #360, .T. );
#321 = FILL_AREA_STYLE( '', ( #361 ) );
#322 = EDGE_CURVE( '', #362, #362, #363, .T. );
#323 = FILL_AREA_STYLE( '', ( #364 ) );
#324 = EDGE_CURVE( '', #365, #365, #366, .T. );
#325 = FILL_AREA_STYLE( '', ( #367 ) );
#326 = FILL_AREA_STYLE( '', ( #368 ) );
#327 = FILL_AREA_STYLE( '', ( #369 ) );
#328 = EDGE_CURVE( '', #370, #370, #371, .T. );
#329 = FILL_AREA_STYLE( '', ( #372 ) );
#330 = FILL_AREA_STYLE_COLOUR( '', #373 );
#331 = VERTEX_POINT( '', #374 );
#332 = CIRCLE( '', #375, 3.94644660940000 );
#333 = VERTEX_POINT( '', #376 );
#334 = CIRCLE( '', #377, 2.50000000000000 );
#335 = FILL_AREA_STYLE_COLOUR( '', #378 );
#336 = VERTEX_POINT( '', #379 );
#337 = CIRCLE( '', #380, 7.50000000000000 );
#338 = VERTEX_POINT( '', #381 );
#339 = CIRCLE( '', #382, 4.30000000000000 );
#340 = FILL_AREA_STYLE_COLOUR( '', #383 );
#341 = VERTEX_POINT( '', #384 );
#342 = CIRCLE( '', #385, 2.50000000000000 );
#343 = VERTEX_POINT( '', #386 );
#344 = CIRCLE( '', #387, 2.50000000000000 );
#345 = FILL_AREA_STYLE_COLOUR( '', #388 );
#346 = VERTEX_POINT( '', #389 );
#347 = CIRCLE( '', #390, 2.20000000000000 );
#348 = VERTEX_POINT( '', #391 );
#349 = CIRCLE( '', #392, 2.40000000000000 );
#350 = FILL_AREA_STYLE_COLOUR( '', #393 );
#351 = FILL_AREA_STYLE_COLOUR( '', #394 );
#352 = VERTEX_POINT( '', #395 );
#353 = CIRCLE( '', #396, 2.20000000000000 );
#354 = FILL_AREA_STYLE_COLOUR( '', #397 );
#355 = VERTEX_POINT( '', #398 );
#356 = CIRCLE( '', #399, 4.30000000000000 );
#357 = FILL_AREA_STYLE_COLOUR( '', #400 );
#358 = FILL_AREA_STYLE_COLOUR( '', #401 );
#359 = VERTEX_POINT( '', #402 );
#360 = CIRCLE( '', #403, 2.20000000000000 );
#361 = FILL_AREA_STYLE_COLOUR( '', #404 );
#362 = VERTEX_POINT( '', #405 );
#363 = CIRCLE( '', #406, 7.14644660940000 );
#364 = FILL_AREA_STYLE_COLOUR( '', #407 );
#365 = VERTEX_POINT( '', #408 );
#366 = CIRCLE( '', #409, 7.50000000000000 );
#367 = FILL_AREA_STYLE_COLOUR( '', #410 );
#368 = FILL_AREA_STYLE_COLOUR( '', #411 );
#369 = FILL_AREA_STYLE_COLOUR( '', #412 );
#370 = VERTEX_POINT( '', #413 );
#371 = CIRCLE( '', #414, 2.40000000000000 );
#372 = FILL_AREA_STYLE_COLOUR( '', #415 );
#373 = COLOUR_RGB( '', 0.689999997600000, 0.689999997600000, 0.689999997600000 );
#374 = CARTESIAN_POINT( '', ( 0.000000000000000, 0.000000000000000, -3.94644660940673 ) );
#375 = AXIS2_PLACEMENT_3D( '', #416, #417, #418 );
#376 = CARTESIAN_POINT( '', ( 0.000000000000000, 0.000000000000000, -2.50000000000000 ) );
#377 = AXIS2_PLACEMENT_3D( '', #419, #420, #421 );
#378 = COLOUR_RGB( '', 0.689999997600000, 0.689999997600000, 0.689999997600000 );
#379 = CARTESIAN_POINT( '', ( 0.000000000000000, -5.10000000000000, -7.49999999999999 ) );
#380 = AXIS2_PLACEMENT_3D( '', #422, #423, #424 );
#381 = CARTESIAN_POINT( '', ( 0.000000000000000, -3.60000000000000, -4.30000000000000 ) );
#382 = AXIS2_PLACEMENT_3D( '', #425, #426, #427 );
#383 = COLOUR_RGB( '', 0.689999997600000, 0.689999997600000, 0.689999997600000 );
#384 = CARTESIAN_POINT( '', ( 0.000000000000000, -7.10000000000000, -2.50000000000000 ) );
#385 = AXIS2_PLACEMENT_3D( '', #428, #429, #430 );
#386 = CARTESIAN_POINT( '', ( 0.000000000000000, -7.60000000000000, -2.50000000000000 ) );
#387 = AXIS2_PLACEMENT_3D( '', #431, #432, #433 );
#388 = COLOUR_RGB( '', 0.689999997600000, 0.689999997600000, 0.689999997600000 );
#389 = CARTESIAN_POINT( '', ( 0.000000000000000, -3.20000000000000, -2.20000000000000 ) );
#390 = AXIS2_PLACEMENT_3D( '', #434, #435, #436 );
#391 = CARTESIAN_POINT( '', ( 0.000000000000000, -3.20000000000000, -2.40000000000000 ) );
#392 = AXIS2_PLACEMENT_3D( '', #437, #438, #439 );
#393 = COLOUR_RGB( '', 0.689999997600000, 0.689999997600000, 0.689999997600000 );
#394 = COLOUR_RGB( '', 0.689999997600000, 0.689999997600000, 0.689999997600000 );
#395 = CARTESIAN_POINT( '', ( 0.000000000000000, -0.300000000000000, -2.20000000000000 ) );
#396 = AXIS2_PLACEMENT_3D( '', #440, #441, #442 );
#397 = COLOUR_RGB( '', 0.689999997600000, 0.689999997600000, 0.689999997600000 );
#398 = CARTESIAN_POINT( '', ( 0.000000000000000, -0.353553390593273, -4.30000000000000 ) );
#399 = AXIS2_PLACEMENT_3D( '', #443, #444, #445 );
#400 = COLOUR_RGB( '', 0.689999997600000, 0.689999997600000, 0.689999997600000 );
#401 = COLOUR_RGB( '', 0.689999997600000, 0.689999997600000, 0.689999997600000 );
#402 = CARTESIAN_POINT( '', ( 0.000000000000000, -0.599999999999997, -2.20000000000000 ) );
#403 = AXIS2_PLACEMENT_3D( '', #446, #447, #448 );
#404 = COLOUR_RGB( '', 0.689999997600000, 0.689999997600000, 0.689999997600000 );
#405 = CARTESIAN_POINT( '', ( 0.000000000000000, -7.60000000000000, -7.14644660940672 ) );
#406 = AXIS2_PLACEMENT_3D( '', #449, #450, #451 );
#407 = COLOUR_RGB( '', 0.689999997600000, 0.689999997600000, 0.689999997600000 );
#408 = CARTESIAN_POINT( '', ( 0.000000000000000, -7.24644660940673, -7.49999999999999 ) );
#409 = AXIS2_PLACEMENT_3D( '', #452, #453, #454 );
#410 = COLOUR_RGB( '', 0.689999997600000, 0.689999997600000, 0.689999997600000 );
#411 = COLOUR_RGB( '', 0.689999997600000, 0.689999997600000, 0.689999997600000 );
#412 = COLOUR_RGB( '', 0.689999997600000, 0.689999997600000, 0.689999997600000 );
#413 = CARTESIAN_POINT( '', ( 0.000000000000000, -0.799999999999997, -2.40000000000000 ) );
#414 = AXIS2_PLACEMENT_3D( '', #455, #456, #457 );
#415 = COLOUR_RGB( '', 0.689999997600000, 0.689999997600000, 0.689999997600000 );
#416 = CARTESIAN_POINT( '', ( 0.000000000000000, 0.000000000000000, 0.000000000000000 ) );
#417 = DIRECTION( '', ( 0.000000000000000, -1.00000000000000, -0.000000000000000 ) );
#418 = DIRECTION( '', ( 0.000000000000000, 0.000000000000000, -1.00000000000000 ) );
#419 = CARTESIAN_POINT( '', ( 0.000000000000000, 0.000000000000000, 0.000000000000000 ) );
#420 = DIRECTION( '', ( 0.000000000000000, -1.00000000000000, -0.000000000000000 ) );
#421 = DIRECTION( '', ( 0.000000000000000, 0.000000000000000, -1.00000000000000 ) );
#422 = CARTESIAN_POINT( '', ( 0.000000000000000, -5.10000000000000, 0.000000000000000 ) );
#423 = DIRECTION( '', ( 0.000000000000000, -1.00000000000000, -0.000000000000000 ) );
#424 = DIRECTION( '', ( 0.000000000000000, 0.000000000000000, -1.00000000000000 ) );
#425 = CARTESIAN_POINT( '', ( 0.000000000000000, -3.60000000000000, 0.000000000000000 ) );
#426 = DIRECTION( '', ( 0.000000000000000, -1.00000000000000, -0.000000000000000 ) );
#427 = DIRECTION( '', ( 0.000000000000000, 0.000000000000000, -1.00000000000000 ) );
#428 = CARTESIAN_POINT( '', ( 0.000000000000000, -7.10000000000000, 0.000000000000000 ) );
#429 = DIRECTION( '', ( 0.000000000000000, -1.00000000000000, -0.000000000000000 ) );
#430 = DIRECTION( '', ( 0.000000000000000, 0.000000000000000, -1.00000000000000 ) );
#431 = CARTESIAN_POINT( '', ( 0.000000000000000, -7.60000000000000, 0.000000000000000 ) );
#432 = DIRECTION( '', ( 0.000000000000000, -1.00000000000000, -0.000000000000000 ) );
#433 = DIRECTION( '', ( 0.000000000000000, 0.000000000000000, -1.00000000000000 ) );
#434 = CARTESIAN_POINT( '', ( 0.000000000000000, -3.20000000000000, 0.000000000000000 ) );
#435 = DIRECTION( '', ( 0.000000000000000, -1.00000000000000, -0.000000000000000 ) );
#436 = DIRECTION( '', ( 0.000000000000000, 0.000000000000000, -1.00000000000000 ) );
#437 = CARTESIAN_POINT( '', ( 0.000000000000000, -3.20000000000000, 0.000000000000000 ) );
#438 = DIRECTION( '', ( 0.000000000000000, -1.00000000000000, -0.000000000000000 ) );
#439 = DIRECTION( '', ( 0.000000000000000, 0.000000000000000, -1.00000000000000 ) );
#440 = CARTESIAN_POINT( '', ( 0.000000000000000, -0.300000000000000, 0.000000000000000 ) );
#441 = DIRECTION( '', ( 0.000000000000000, -1.00000000000000, -0.000000000000000 ) );
#442 = DIRECTION( '', ( 0.000000000000000, 0.000000000000000, -1.00000000000000 ) );
#443 = CARTESIAN_POINT( '', ( 0.000000000000000, -0.353553390593273, 0.000000000000000 ) );
#444 = DIRECTION( '', ( 0.000000000000000, -1.00000000000000, -0.000000000000000 ) );
#445 = DIRECTION( '', ( 0.000000000000000, 0.000000000000000, -1.00000000000000 ) );
#446 = CARTESIAN_POINT( '', ( 0.000000000000000, -0.599999999999997, 0.000000000000000 ) );
#447 = DIRECTION( '', ( 0.000000000000000, -1.00000000000000, -0.000000000000000 ) );
#448 = DIRECTION( '', ( 0.000000000000000, 0.000000000000000, -1.00000000000000 ) );
#449 = CARTESIAN_POINT( '', ( 0.000000000000000, -7.60000000000000, 0.000000000000000 ) );
#450 = DIRECTION( '', ( 0.000000000000000, -1.00000000000000, -0.000000000000000 ) );
#451 = DIRECTION( '', ( 0.000000000000000, 0.000000000000000, -1.00000000000000 ) );
#452 = CARTESIAN_POINT( '', ( 0.000000000000000, -7.24644660940673, 0.000000000000000 ) );
#453 = DIRECTION( '', ( 0.000000000000000, -1.00000000000000, -0.000000000000000 ) );
#454 = DIRECTION( '', ( 0.000000000000000, 0.000000000000000, -1.00000000000000 ) );
#455 = CARTESIAN_POINT( '', ( 0.000000000000000, -0.799999999999997, 0.000000000000000 ) );
#456 = DIRECTION( '', ( 0.000000000000000, -1.00000000000000, -0.000000000000000 ) );
#457 = DIRECTION( '', ( 0.000000000000000, 0.000000000000000, -1.00000000000000 ) );
ENDSEC;
END-ISO-10303-21;
