ISO-10303-21;
HEADER;
FILE_DESCRIPTION( ( 'STEP AP214' ), '1' );
FILE_NAME( '//goodhand-server/Shared Folders/GoodHand Data/Kipp CAD/K0170/K0170.208009.stp', '2020-11-26T10:50:31', ( '' ), ( '' ), ' ', 'PARTsolutions', ' ' );
FILE_SCHEMA( ( 'AUTOMOTIVE_DESIGN { 1 0 10303 214 1 1 1 1 }' ) );
ENDSEC;
DATA;
#1 = MECHANICAL_DESIGN_GEOMETRIC_PRESENTATION_REPRESENTATION( ' ', ( #10, #11, #12, #13, #14, #15, #16, #17, #18, #19, #20, #21, #22 ), #6 );
#2 = PRODUCT_DEFINITION_CONTEXT( '', #23, 'design' );
#3 = APPLICATION_PROTOCOL_DEFINITION( 'international standard', 'automotive_design', 2001, #23 );
#4 = PRODUCT_CATEGORY_RELATIONSHIP( 'NONE', 'NONE', #24, #25 );
#5 = SHAPE_DEFINITION_REPRESENTATION( #26, #27 );
#6 =  ( GEOMETRIC_REPRESENTATION_CONTEXT( 3 )GLOBAL_UNCERTAINTY_ASSIGNED_CONTEXT( ( #30 ) )GLOBAL_UNIT_ASSIGNED_CONTEXT( ( #32, #33, #34 ) )REPRESENTATION_CONTEXT( 'NONE', 'WORKSPACE' ) );
#10 = STYLED_ITEM( '', ( #36 ), #37 );
#11 = STYLED_ITEM( '', ( #38 ), #39 );
#12 = STYLED_ITEM( '', ( #40 ), #41 );
#13 = STYLED_ITEM( '', ( #42 ), #43 );
#14 = STYLED_ITEM( '', ( #44 ), #45 );
#15 = STYLED_ITEM( '', ( #46 ), #47 );
#16 = STYLED_ITEM( '', ( #48 ), #49 );
#17 = STYLED_ITEM( '', ( #50 ), #51 );
#18 = STYLED_ITEM( '', ( #52 ), #53 );
#19 = STYLED_ITEM( '', ( #54 ), #55 );
#20 = STYLED_ITEM( '', ( #56 ), #57 );
#21 = STYLED_ITEM( '', ( #58 ), #59 );
#22 = STYLED_ITEM( '', ( #60 ), #61 );
#23 = APPLICATION_CONTEXT( 'core data for automotive mechanical design processes' );
#24 = PRODUCT_CATEGORY( 'part', 'NONE' );
#25 = PRODUCT_RELATED_PRODUCT_CATEGORY( 'detail', ' ', ( #62 ) );
#26 = PRODUCT_DEFINITION_SHAPE( 'NONE', 'NONE', #63 );
#27 = ADVANCED_BREP_SHAPE_REPRESENTATION( '_K0170.208009', ( #64, #65 ), #6 );
#30 = UNCERTAINTY_MEASURE_WITH_UNIT( LENGTH_MEASURE( 0.00100000000000000 ), #32, '', '' );
#32 =  ( CONVERSION_BASED_UNIT( 'MILLIMETRE', #68 )LENGTH_UNIT(  )NAMED_UNIT( #71 ) );
#33 =  ( NAMED_UNIT( #73 )PLANE_ANGLE_UNIT(  )SI_UNIT( $, .RADIAN. ) );
#34 =  ( NAMED_UNIT( #73 )SI_UNIT( $, .STERADIAN. )SOLID_ANGLE_UNIT(  ) );
#36 = PRESENTATION_STYLE_ASSIGNMENT( ( #79 ) );
#37 = ADVANCED_FACE( '', ( #80 ), #81, .T. );
#38 = PRESENTATION_STYLE_ASSIGNMENT( ( #82 ) );
#39 = ADVANCED_FACE( '', ( #83 ), #84, .F. );
#40 = PRESENTATION_STYLE_ASSIGNMENT( ( #85 ) );
#41 = ADVANCED_FACE( '', ( #86, #87 ), #88, .T. );
#42 = PRESENTATION_STYLE_ASSIGNMENT( ( #89 ) );
#43 = ADVANCED_FACE( '', ( #90 ), #91, .F. );
#44 = PRESENTATION_STYLE_ASSIGNMENT( ( #92 ) );
#45 = ADVANCED_FACE( '', ( #93, #94 ), #95, .T. );
#46 = PRESENTATION_STYLE_ASSIGNMENT( ( #96 ) );
#47 = ADVANCED_FACE( '', ( #97, #98 ), #99, .T. );
#48 = PRESENTATION_STYLE_ASSIGNMENT( ( #100 ) );
#49 = ADVANCED_FACE( '', ( #101, #102 ), #103, .T. );
#50 = PRESENTATION_STYLE_ASSIGNMENT( ( #104 ) );
#51 = ADVANCED_FACE( '', ( #105 ), #106, .F. );
#52 = PRESENTATION_STYLE_ASSIGNMENT( ( #107 ) );
#53 = ADVANCED_FACE( '', ( #108, #109 ), #110, .F. );
#54 = PRESENTATION_STYLE_ASSIGNMENT( ( #111 ) );
#55 = ADVANCED_FACE( '', ( #112, #113 ), #114, .T. );
#56 = PRESENTATION_STYLE_ASSIGNMENT( ( #115 ) );
#57 = ADVANCED_FACE( '', ( #116, #117 ), #118, .T. );
#58 = PRESENTATION_STYLE_ASSIGNMENT( ( #119 ) );
#59 = ADVANCED_FACE( '', ( #120 ), #121, .T. );
#60 = PRESENTATION_STYLE_ASSIGNMENT( ( #122 ) );
#61 = ADVANCED_FACE( '', ( #123, #124 ), #125, .T. );
#62 = PRODUCT( '_K0170.208009', '_K0170.208009', 'PART-_K0170.208009-DESC', ( #126 ) );
#63 = PRODUCT_DEFINITION( 'NONE', 'NONE', #127, #2 );
#64 = MANIFOLD_SOLID_BREP( '_K0170.208009', #128 );
#65 = AXIS2_PLACEMENT_3D( '', #129, #130, #131 );
#68 = LENGTH_MEASURE_WITH_UNIT( LENGTH_MEASURE( 1.00000000000000 ), #132 );
#71 = DIMENSIONAL_EXPONENTS( 1.00000000000000, 0.000000000000000, 0.000000000000000, 0.000000000000000, 0.000000000000000, 0.000000000000000, 0.000000000000000 );
#73 = DIMENSIONAL_EXPONENTS( 0.000000000000000, 0.000000000000000, 0.000000000000000, 0.000000000000000, 0.000000000000000, 0.000000000000000, 0.000000000000000 );
#79 = SURFACE_STYLE_USAGE( .BOTH., #133 );
#80 = FACE_OUTER_BOUND( '', #134, .T. );
#81 = PLANE( '', #135 );
#82 = SURFACE_STYLE_USAGE( .BOTH., #136 );
#83 = FACE_OUTER_BOUND( '', #137, .T. );
#84 = PLANE( '', #138 );
#85 = SURFACE_STYLE_USAGE( .BOTH., #139 );
#86 = FACE_OUTER_BOUND( '', #140, .T. );
#87 = FACE_OUTER_BOUND( '', #141, .T. );
#88 = CYLINDRICAL_SURFACE( '', #142, 9.00000000000000 );
#89 = SURFACE_STYLE_USAGE( .BOTH., #143 );
#90 = FACE_OUTER_BOUND( '', #144, .T. );
#91 = PLANE( '', #145 );
#92 = SURFACE_STYLE_USAGE( .BOTH., #146 );
#93 = FACE_OUTER_BOUND( '', #147, .T. );
#94 = FACE_OUTER_BOUND( '', #148, .T. );
#95 = CYLINDRICAL_SURFACE( '', #149, 11.5000000000000 );
#96 = SURFACE_STYLE_USAGE( .BOTH., #150 );
#97 = FACE_OUTER_BOUND( '', #151, .T. );
#98 = FACE_BOUND( '', #152, .T. );
#99 = CONICAL_SURFACE( '', #153, 3.23300000000000, 0.785398163400000 );
#100 = SURFACE_STYLE_USAGE( .BOTH., #154 );
#101 = FACE_OUTER_BOUND( '', #155, .T. );
#102 = FACE_BOUND( '', #156, .T. );
#103 = CONICAL_SURFACE( '', #157, 9.00000000000000, 0.0794502389000000 );
#104 = SURFACE_STYLE_USAGE( .BOTH., #158 );
#105 = FACE_OUTER_BOUND( '', #159, .T. );
#106 = PLANE( '', #160 );
#107 = SURFACE_STYLE_USAGE( .BOTH., #161 );
#108 = FACE_OUTER_BOUND( '', #162, .T. );
#109 = FACE_BOUND( '', #163, .T. );
#110 = PLANE( '', #164 );
#111 = SURFACE_STYLE_USAGE( .BOTH., #165 );
#112 = FACE_OUTER_BOUND( '', #166, .T. );
#113 = FACE_OUTER_BOUND( '', #167, .T. );
#114 = TOROIDAL_SURFACE( '', #168, 8.50000000000000, 3.00000000000000 );
#115 = SURFACE_STYLE_USAGE( .BOTH., #169 );
#116 = FACE_OUTER_BOUND( '', #170, .T. );
#117 = FACE_BOUND( '', #171, .T. );
#118 = ( BOUNDED_SURFACE(  )B_SPLINE_SURFACE( 3, 3, ( ( #174, #175, #176, #177, #178, #179, #180 ), ( #181, #182, #183, #184, #185, #186, #187 ), ( #188, #189, #190, #191, #192, #193, #194 ), ( #195, #196, #197, #198, #199, #200, #201 ) ), .UNSPECIFIED., .F., .T., .F. )B_SPLINE_SURFACE_WITH_KNOTS( ( 4, 4 ), ( 4, 3, 4 ), ( 0.000000000000000, 6.28318530717959 ), ( 1.25591055740434, 1.39716026198008, 1.53840996655582 ), .UNSPECIFIED. )GEOMETRIC_REPRESENTATION_ITEM(  )RATIONAL_B_SPLINE_SURFACE( ( ( 1.00000000000000, 0.333333333333333, 0.333333333333333, 1.00000000000000, 0.333333333333333, 0.333333333333333, 1.00000000000000 ), ( 0.993360556899082, 0.331120185633027, 0.331120185633027, 0.993360556899082, 0.331120185633027, 0.331120185633027, 0.993360556899082 ), ( 0.993360556899082, 0.331120185633027, 0.331120185633027, 0.993360556899082, 0.331120185633027, 0.331120185633027, 0.993360556899082 ), ( 1.00000000000000, 0.333333333333333, 0.333333333333333, 1.00000000000000, 0.333333333333333, 0.333333333333333, 1.00000000000000 ) ) )REPRESENTATION_ITEM( '' )SURFACE(  ) );
#119 = SURFACE_STYLE_USAGE( .BOTH., #207 );
#120 = FACE_OUTER_BOUND( '', #208, .T. );
#121 = PLANE( '', #209 );
#122 = SURFACE_STYLE_USAGE( .BOTH., #210 );
#123 = FACE_OUTER_BOUND( '', #211, .T. );
#124 = FACE_OUTER_BOUND( '', #212, .T. );
#125 = CYLINDRICAL_SURFACE( '', #213, 4.00000000000000 );
#126 = PRODUCT_CONTEXT( '', #23, 'mechanical' );
#127 = PRODUCT_DEFINITION_FORMATION_WITH_SPECIFIED_SOURCE( ' ', 'NONE', #62, .NOT_KNOWN. );
#128 = CLOSED_SHELL( '', ( #51, #59, #37, #53, #41, #61, #47, #43, #49, #45, #55, #57, #39 ) );
#129 = CARTESIAN_POINT( '', ( 0.000000000000000, 0.000000000000000, 0.000000000000000 ) );
#130 = DIRECTION( '', ( 0.000000000000000, 0.000000000000000, 1.00000000000000 ) );
#131 = DIRECTION( '', ( 1.00000000000000, 0.000000000000000, 0.000000000000000 ) );
#132 =  ( LENGTH_UNIT(  )NAMED_UNIT( #71 )SI_UNIT( .MILLI., .METRE. ) );
#133 = SURFACE_SIDE_STYLE( '', ( #215 ) );
#134 = EDGE_LOOP( '', ( #216, #217, #218, #219 ) );
#135 = AXIS2_PLACEMENT_3D( '', #220, #221, #222 );
#136 = SURFACE_SIDE_STYLE( '', ( #223 ) );
#137 = EDGE_LOOP( '', ( #224, #225 ) );
#138 = AXIS2_PLACEMENT_3D( '', #226, #227, #228 );
#139 = SURFACE_SIDE_STYLE( '', ( #229 ) );
#140 = EDGE_LOOP( '', ( #230 ) );
#141 = EDGE_LOOP( '', ( #231, #232, #233, #234, #235, #236, #237, #238 ) );
#142 = AXIS2_PLACEMENT_3D( '', #239, #240, #241 );
#143 = SURFACE_SIDE_STYLE( '', ( #242 ) );
#144 = EDGE_LOOP( '', ( #243 ) );
#145 = AXIS2_PLACEMENT_3D( '', #244, #245, #246 );
#146 = SURFACE_SIDE_STYLE( '', ( #247 ) );
#147 = EDGE_LOOP( '', ( #248 ) );
#148 = EDGE_LOOP( '', ( #249 ) );
#149 = AXIS2_PLACEMENT_3D( '', #250, #251, #252 );
#150 = SURFACE_SIDE_STYLE( '', ( #253 ) );
#151 = EDGE_LOOP( '', ( #254 ) );
#152 = EDGE_LOOP( '', ( #255 ) );
#153 = AXIS2_PLACEMENT_3D( '', #256, #257, #258 );
#154 = SURFACE_SIDE_STYLE( '', ( #259 ) );
#155 = EDGE_LOOP( '', ( #260 ) );
#156 = EDGE_LOOP( '', ( #261 ) );
#157 = AXIS2_PLACEMENT_3D( '', #262, #263, #264 );
#158 = SURFACE_SIDE_STYLE( '', ( #265 ) );
#159 = EDGE_LOOP( '', ( #266, #267 ) );
#160 = AXIS2_PLACEMENT_3D( '', #268, #269, #270 );
#161 = SURFACE_SIDE_STYLE( '', ( #271 ) );
#162 = EDGE_LOOP( '', ( #272, #273, #274, #275 ) );
#163 = EDGE_LOOP( '', ( #276 ) );
#164 = AXIS2_PLACEMENT_3D( '', #277, #278, #279 );
#165 = SURFACE_SIDE_STYLE( '', ( #280 ) );
#166 = EDGE_LOOP( '', ( #281 ) );
#167 = EDGE_LOOP( '', ( #282 ) );
#168 = AXIS2_PLACEMENT_3D( '', #283, #284, #285 );
#169 = SURFACE_SIDE_STYLE( '', ( #286 ) );
#170 = EDGE_LOOP( '', ( #287 ) );
#171 = VERTEX_LOOP( '', #288 );
#174 = CARTESIAN_POINT( '', ( 68.0000000000000, 0.000000000000000, 2.16840434497101E-16 ) );
#175 = CARTESIAN_POINT( '', ( 68.0000000000000, -4.33680868994202E-16, 2.16840434497101E-16 ) );
#176 = CARTESIAN_POINT( '', ( 68.0000000000000, -4.33680868994202E-16, -2.16840434497101E-16 ) );
#177 = CARTESIAN_POINT( '', ( 68.0000000000000, 0.000000000000000, -2.16840434497101E-16 ) );
#178 = CARTESIAN_POINT( '', ( 68.0000000000000, 4.33680868994202E-16, -2.16840434497101E-16 ) );
#179 = CARTESIAN_POINT( '', ( 68.0000000000000, 4.33680868994202E-16, 2.16840434497101E-16 ) );
#180 = CARTESIAN_POINT( '', ( 68.0000000000000, 0.000000000000000, 2.16840434497101E-16 ) );
#181 = CARTESIAN_POINT( '', ( 67.8959817803656, 0.000000000000000, -3.21066797588164 ) );
#182 = CARTESIAN_POINT( '', ( 67.8959817803656, 6.42133595176329, -3.21066797588164 ) );
#183 = CARTESIAN_POINT( '', ( 67.8959817803656, 6.42133595176329, 3.21066797588164 ) );
#184 = CARTESIAN_POINT( '', ( 67.8959817803656, 0.000000000000000, 3.21066797588164 ) );
#185 = CARTESIAN_POINT( '', ( 67.8959817803656, -6.42133595176329, 3.21066797588164 ) );
#186 = CARTESIAN_POINT( '', ( 67.8959817803656, -6.42133595176329, -3.21066797588164 ) );
#187 = CARTESIAN_POINT( '', ( 67.8959817803656, 0.000000000000000, -3.21066797588164 ) );
#188 = CARTESIAN_POINT( '', ( 67.3410001074975, 0.000000000000000, -6.37471664556868 ) );
#189 = CARTESIAN_POINT( '', ( 67.3410001074975, 12.7494332911374, -6.37471664556868 ) );
#190 = CARTESIAN_POINT( '', ( 67.3410001074975, 12.7494332911374, 6.37471664556868 ) );
#191 = CARTESIAN_POINT( '', ( 67.3410001074975, 0.000000000000000, 6.37471664556868 ) );
#192 = CARTESIAN_POINT( '', ( 67.3410001074975, -12.7494332911374, 6.37471664556868 ) );
#193 = CARTESIAN_POINT( '', ( 67.3410001074975, -12.7494332911374, -6.37471664556868 ) );
#194 = CARTESIAN_POINT( '', ( 67.3410001074975, 0.000000000000000, -6.37471664556868 ) );
#195 = CARTESIAN_POINT( '', ( 66.3461092891128, 0.000000000000000, -9.42912344572836 ) );
#196 = CARTESIAN_POINT( '', ( 66.3461092891128, 18.8582468914567, -9.42912344572836 ) );
#197 = CARTESIAN_POINT( '', ( 66.3461092891128, 18.8582468914567, 9.42912344572836 ) );
#198 = CARTESIAN_POINT( '', ( 66.3461092891128, 0.000000000000000, 9.42912344572836 ) );
#199 = CARTESIAN_POINT( '', ( 66.3461092891128, -18.8582468914567, 9.42912344572836 ) );
#200 = CARTESIAN_POINT( '', ( 66.3461092891128, -18.8582468914567, -9.42912344572836 ) );
#201 = CARTESIAN_POINT( '', ( 66.3461092891128, 0.000000000000000, -9.42912344572836 ) );
#207 = SURFACE_SIDE_STYLE( '', ( #289 ) );
#208 = EDGE_LOOP( '', ( #290, #291, #292, #293 ) );
#209 = AXIS2_PLACEMENT_3D( '', #294, #295, #296 );
#210 = SURFACE_SIDE_STYLE( '', ( #297 ) );
#211 = EDGE_LOOP( '', ( #298 ) );
#212 = EDGE_LOOP( '', ( #299 ) );
#213 = AXIS2_PLACEMENT_3D( '', #300, #301, #302 );
#215 = SURFACE_STYLE_FILL_AREA( #303 );
#216 = ORIENTED_EDGE( '', *, *, #304, .T. );
#217 = ORIENTED_EDGE( '', *, *, #305, .T. );
#218 = ORIENTED_EDGE( '', *, *, #306, .T. );
#219 = ORIENTED_EDGE( '', *, *, #307, .T. );
#220 = CARTESIAN_POINT( '', ( 5.99000000000000, 8.00000000000000, 23.0000000000000 ) );
#221 = DIRECTION( '', ( -0.000000000000000, 1.00000000000000, 0.000000000000000 ) );
#222 = DIRECTION( '', ( 0.000000000000000, -0.000000000000000, 1.00000000000000 ) );
#223 = SURFACE_STYLE_FILL_AREA( #308 );
#224 = ORIENTED_EDGE( '', *, *, #309, .F. );
#225 = ORIENTED_EDGE( '', *, *, #310, .F. );
#226 = CARTESIAN_POINT( '', ( 5.99000000000000, 0.000000000000000, 0.000000000000000 ) );
#227 = DIRECTION( '', ( 1.00000000000000, 0.000000000000000, -0.000000000000000 ) );
#228 = DIRECTION( '', ( -0.000000000000000, 0.000000000000000, -1.00000000000000 ) );
#229 = SURFACE_STYLE_FILL_AREA( #311 );
#230 = ORIENTED_EDGE( '', *, *, #312, .F. );
#231 = ORIENTED_EDGE( '', *, *, #313, .F. );
#232 = ORIENTED_EDGE( '', *, *, #314, .T. );
#233 = ORIENTED_EDGE( '', *, *, #306, .F. );
#234 = ORIENTED_EDGE( '', *, *, #315, .T. );
#235 = ORIENTED_EDGE( '', *, *, #304, .F. );
#236 = ORIENTED_EDGE( '', *, *, #316, .T. );
#237 = ORIENTED_EDGE( '', *, *, #317, .F. );
#238 = ORIENTED_EDGE( '', *, *, #310, .T. );
#239 = CARTESIAN_POINT( '', ( 68.0000000000000, 0.000000000000000, 0.000000000000000 ) );
#240 = DIRECTION( '', ( -1.00000000000000, -0.000000000000000, 0.000000000000000 ) );
#241 = DIRECTION( '', ( -0.000000000000000, 0.000000000000000, -1.00000000000000 ) );
#242 = SURFACE_STYLE_FILL_AREA( #318 );
#243 = ORIENTED_EDGE( '', *, *, #319, .F. );
#244 = CARTESIAN_POINT( '', ( -9.00000000000000, 0.000000000000000, 0.000000000000000 ) );
#245 = DIRECTION( '', ( 1.00000000000000, 0.000000000000000, -0.000000000000000 ) );
#246 = DIRECTION( '', ( -0.000000000000000, 0.000000000000000, -1.00000000000000 ) );
#247 = SURFACE_STYLE_FILL_AREA( #320 );
#248 = ORIENTED_EDGE( '', *, *, #321, .F. );
#249 = ORIENTED_EDGE( '', *, *, #322, .T. );
#250 = CARTESIAN_POINT( '', ( 68.0000000000000, 0.000000000000000, 0.000000000000000 ) );
#251 = DIRECTION( '', ( -1.00000000000000, -0.000000000000000, 0.000000000000000 ) );
#252 = DIRECTION( '', ( -0.000000000000000, 0.000000000000000, -1.00000000000000 ) );
#253 = SURFACE_STYLE_FILL_AREA( #323 );
#254 = ORIENTED_EDGE( '', *, *, #324, .F. );
#255 = ORIENTED_EDGE( '', *, *, #319, .T. );
#256 = CARTESIAN_POINT( '', ( -9.00000000000001, 0.000000000000000, 0.000000000000000 ) );
#257 = DIRECTION( '', ( 1.00000000000000, -0.000000000000000, -0.000000000000000 ) );
#258 = DIRECTION( '', ( -0.000000000000000, 0.000000000000000, -1.00000000000000 ) );
#259 = SURFACE_STYLE_FILL_AREA( #325 );
#260 = ORIENTED_EDGE( '', *, *, #322, .F. );
#261 = ORIENTED_EDGE( '', *, *, #312, .T. );
#262 = CARTESIAN_POINT( '', ( 6.00000000000000, 0.000000000000000, 0.000000000000000 ) );
#263 = DIRECTION( '', ( 1.00000000000000, -0.000000000000000, -0.000000000000000 ) );
#264 = DIRECTION( '', ( -0.000000000000000, 0.000000000000000, -1.00000000000000 ) );
#265 = SURFACE_STYLE_FILL_AREA( #326 );
#266 = ORIENTED_EDGE( '', *, *, #305, .F. );
#267 = ORIENTED_EDGE( '', *, *, #315, .F. );
#268 = CARTESIAN_POINT( '', ( 5.99000000000000, 0.000000000000000, 0.000000000000000 ) );
#269 = DIRECTION( '', ( 1.00000000000000, 0.000000000000000, 0.000000000000000 ) );
#270 = DIRECTION( '', ( 0.000000000000000, 0.000000000000000, -1.00000000000000 ) );
#271 = SURFACE_STYLE_FILL_AREA( #327 );
#272 = ORIENTED_EDGE( '', *, *, #307, .F. );
#273 = ORIENTED_EDGE( '', *, *, #314, .F. );
#274 = ORIENTED_EDGE( '', *, *, #328, .F. );
#275 = ORIENTED_EDGE( '', *, *, #316, .F. );
#276 = ORIENTED_EDGE( '', *, *, #329, .T. );
#277 = CARTESIAN_POINT( '', ( 0.000000000000000, 4.00000000000000, 0.000000000000000 ) );
#278 = DIRECTION( '', ( 1.00000000000000, 0.000000000000000, -0.000000000000000 ) );
#279 = DIRECTION( '', ( -0.000000000000000, 0.000000000000000, -1.00000000000000 ) );
#280 = SURFACE_STYLE_FILL_AREA( #330 );
#281 = ORIENTED_EDGE( '', *, *, #321, .T. );
#282 = ORIENTED_EDGE( '', *, *, #331, .F. );
#283 = CARTESIAN_POINT( '', ( 63.4936139564965, 0.000000000000000, 0.000000000000000 ) );
#284 = DIRECTION( '', ( 1.00000000000000, 0.000000000000000, -0.000000000000000 ) );
#285 = DIRECTION( '', ( -0.000000000000000, 0.000000000000000, -1.00000000000000 ) );
#286 = SURFACE_STYLE_FILL_AREA( #332 );
#287 = ORIENTED_EDGE( '', *, *, #331, .T. );
#288 = VERTEX_POINT( '', #333 );
#289 = SURFACE_STYLE_FILL_AREA( #334 );
#290 = ORIENTED_EDGE( '', *, *, #313, .T. );
#291 = ORIENTED_EDGE( '', *, *, #309, .T. );
#292 = ORIENTED_EDGE( '', *, *, #317, .T. );
#293 = ORIENTED_EDGE( '', *, *, #328, .T. );
#294 = CARTESIAN_POINT( '', ( 5.99000000000000, -8.00000000000000, -23.0000000000000 ) );
#295 = DIRECTION( '', ( 0.000000000000000, -1.00000000000000, 0.000000000000000 ) );
#296 = DIRECTION( '', ( 0.000000000000000, 0.000000000000000, -1.00000000000000 ) );
#297 = SURFACE_STYLE_FILL_AREA( #335 );
#298 = ORIENTED_EDGE( '', *, *, #329, .F. );
#299 = ORIENTED_EDGE( '', *, *, #324, .T. );
#300 = CARTESIAN_POINT( '', ( 68.0000000000000, 0.000000000000000, 0.000000000000000 ) );
#301 = DIRECTION( '', ( -1.00000000000000, -0.000000000000000, 0.000000000000000 ) );
#302 = DIRECTION( '', ( -0.000000000000000, 0.000000000000000, -1.00000000000000 ) );
#303 = FILL_AREA_STYLE( '', ( #336 ) );
#304 = EDGE_CURVE( '', #337, #338, #339, .T. );
#305 = EDGE_CURVE( '', #338, #340, #341, .T. );
#306 = EDGE_CURVE( '', #340, #342, #343, .F. );
#307 = EDGE_CURVE( '', #342, #337, #344, .T. );
#308 = FILL_AREA_STYLE( '', ( #345 ) );
#309 = EDGE_CURVE( '', #346, #347, #348, .T. );
#310 = EDGE_CURVE( '', #347, #346, #349, .T. );
#311 = FILL_AREA_STYLE( '', ( #350 ) );
#312 = EDGE_CURVE( '', #351, #351, #352, .T. );
#313 = EDGE_CURVE( '', #353, #346, #354, .T. );
#314 = EDGE_CURVE( '', #353, #342, #355, .T. );
#315 = EDGE_CURVE( '', #340, #338, #356, .T. );
#316 = EDGE_CURVE( '', #337, #357, #358, .T. );
#317 = EDGE_CURVE( '', #347, #357, #359, .F. );
#318 = FILL_AREA_STYLE( '', ( #360 ) );
#319 = EDGE_CURVE( '', #361, #361, #362, .T. );
#320 = FILL_AREA_STYLE( '', ( #363 ) );
#321 = EDGE_CURVE( '', #364, #364, #365, .T. );
#322 = EDGE_CURVE( '', #366, #366, #367, .T. );
#323 = FILL_AREA_STYLE( '', ( #368 ) );
#324 = EDGE_CURVE( '', #369, #369, #370, .T. );
#325 = FILL_AREA_STYLE( '', ( #371 ) );
#326 = FILL_AREA_STYLE( '', ( #372 ) );
#327 = FILL_AREA_STYLE( '', ( #373 ) );
#328 = EDGE_CURVE( '', #357, #353, #374, .T. );
#329 = EDGE_CURVE( '', #375, #375, #376, .T. );
#330 = FILL_AREA_STYLE( '', ( #377 ) );
#331 = EDGE_CURVE( '', #378, #378, #379, .T. );
#332 = FILL_AREA_STYLE( '', ( #380 ) );
#333 = CARTESIAN_POINT( '', ( 68.0000000000000, 0.000000000000000, 0.000000000000000 ) );
#334 = FILL_AREA_STYLE( '', ( #381 ) );
#335 = FILL_AREA_STYLE( '', ( #382 ) );
#336 = FILL_AREA_STYLE_COLOUR( '', #383 );
#337 = VERTEX_POINT( '', #384 );
#338 = VERTEX_POINT( '', #385 );
#339 = LINE( '', #386, #387 );
#340 = VERTEX_POINT( '', #388 );
#341 = LINE( '', #389, #390 );
#342 = VERTEX_POINT( '', #391 );
#343 = LINE( '', #392, #393 );
#344 = LINE( '', #394, #395 );
#345 = FILL_AREA_STYLE_COLOUR( '', #396 );
#346 = VERTEX_POINT( '', #397 );
#347 = VERTEX_POINT( '', #398 );
#348 = LINE( '', #399, #400 );
#349 = CIRCLE( '', #401, 9.00000000000000 );
#350 = FILL_AREA_STYLE_COLOUR( '', #402 );
#351 = VERTEX_POINT( '', #403 );
#352 = CIRCLE( '', #404, 9.00000000000000 );
#353 = VERTEX_POINT( '', #405 );
#354 = LINE( '', #406, #407 );
#355 = CIRCLE( '', #408, 9.00000000000000 );
#356 = CIRCLE( '', #409, 9.00000000000000 );
#357 = VERTEX_POINT( '', #410 );
#358 = CIRCLE( '', #411, 9.00000000000000 );
#359 = LINE( '', #412, #413 );
#360 = FILL_AREA_STYLE_COLOUR( '', #414 );
#361 = VERTEX_POINT( '', #415 );
#362 = CIRCLE( '', #416, 3.23300000000000 );
#363 = FILL_AREA_STYLE_COLOUR( '', #417 );
#364 = VERTEX_POINT( '', #418 );
#365 = CIRCLE( '', #419, 11.5000000000000 );
#366 = VERTEX_POINT( '', #420 );
#367 = CIRCLE( '', #421, 11.5000000000000 );
#368 = FILL_AREA_STYLE_COLOUR( '', #422 );
#369 = VERTEX_POINT( '', #423 );
#370 = CIRCLE( '', #424, 4.00000000000000 );
#371 = FILL_AREA_STYLE_COLOUR( '', #425 );
#372 = FILL_AREA_STYLE_COLOUR( '', #426 );
#373 = FILL_AREA_STYLE_COLOUR( '', #427 );
#374 = LINE( '', #428, #429 );
#375 = VERTEX_POINT( '', #430 );
#376 = CIRCLE( '', #431, 4.00000000000000 );
#377 = FILL_AREA_STYLE_COLOUR( '', #432 );
#378 = VERTEX_POINT( '', #433 );
#379 = CIRCLE( '', #434, 9.42912344570000 );
#380 = FILL_AREA_STYLE_COLOUR( '', #435 );
#381 = FILL_AREA_STYLE_COLOUR( '', #436 );
#382 = FILL_AREA_STYLE_COLOUR( '', #437 );
#383 = COLOUR_RGB( '', 0.689999997600000, 0.689999997600000, 0.689999997600000 );
#384 = CARTESIAN_POINT( '', ( 0.000000000000000, 8.00000000000000, 4.12310562561766 ) );
#385 = CARTESIAN_POINT( '', ( 5.99000000000000, 8.00000000000000, 4.12310562561766 ) );
#386 = CARTESIAN_POINT( '', ( 68.0000000000000, 8.00000000000000, 4.12310562561766 ) );
#387 = VECTOR( '', #438, 1000.00000000000 );
#388 = CARTESIAN_POINT( '', ( 5.99000000000000, 8.00000000000000, -4.12310562561766 ) );
#389 = CARTESIAN_POINT( '', ( 5.99000000000000, 8.00000000000000, 23.0000000000000 ) );
#390 = VECTOR( '', #439, 1000.00000000000 );
#391 = CARTESIAN_POINT( '', ( 0.000000000000000, 8.00000000000000, -4.12310562561766 ) );
#392 = CARTESIAN_POINT( '', ( 68.0000000000000, 8.00000000000000, -4.12310562561766 ) );
#393 = VECTOR( '', #440, 1000.00000000000 );
#394 = CARTESIAN_POINT( '', ( 0.000000000000000, 8.00000000000000, 0.000000000000000 ) );
#395 = VECTOR( '', #441, 1000.00000000000 );
#396 = COLOUR_RGB( '', 0.689999997600000, 0.689999997600000, 0.689999997600000 );
#397 = CARTESIAN_POINT( '', ( 5.99000000000000, -8.00000000000000, -4.12310562561766 ) );
#398 = CARTESIAN_POINT( '', ( 5.99000000000000, -8.00000000000000, 4.12310562561766 ) );
#399 = CARTESIAN_POINT( '', ( 5.99000000000000, -8.00000000000000, -23.0000000000000 ) );
#400 = VECTOR( '', #442, 1000.00000000000 );
#401 = AXIS2_PLACEMENT_3D( '', #443, #444, #445 );
#402 = COLOUR_RGB( '', 0.689999997600000, 0.689999997600000, 0.689999997600000 );
#403 = CARTESIAN_POINT( '', ( 6.00000000000000, 0.000000000000000, -9.00000000000000 ) );
#404 = AXIS2_PLACEMENT_3D( '', #446, #447, #448 );
#405 = CARTESIAN_POINT( '', ( 0.000000000000000, -8.00000000000000, -4.12310562561766 ) );
#406 = CARTESIAN_POINT( '', ( 68.0000000000000, -8.00000000000000, -4.12310562561766 ) );
#407 = VECTOR( '', #449, 1000.00000000000 );
#408 = AXIS2_PLACEMENT_3D( '', #450, #451, #452 );
#409 = AXIS2_PLACEMENT_3D( '', #453, #454, #455 );
#410 = CARTESIAN_POINT( '', ( 0.000000000000000, -8.00000000000000, 4.12310562561766 ) );
#411 = AXIS2_PLACEMENT_3D( '', #456, #457, #458 );
#412 = CARTESIAN_POINT( '', ( 68.0000000000000, -8.00000000000000, 4.12310562561766 ) );
#413 = VECTOR( '', #459, 1000.00000000000 );
#414 = COLOUR_RGB( '', 0.689999997600000, 0.689999997600000, 0.689999997600000 );
#415 = CARTESIAN_POINT( '', ( -9.00000000000001, 0.000000000000000, -3.23300000000000 ) );
#416 = AXIS2_PLACEMENT_3D( '', #460, #461, #462 );
#417 = COLOUR_RGB( '', 0.689999997600000, 0.689999997600000, 0.689999997600000 );
#418 = CARTESIAN_POINT( '', ( 63.4936139564965, 0.000000000000000, -11.5000000000000 ) );
#419 = AXIS2_PLACEMENT_3D( '', #463, #464, #465 );
#420 = CARTESIAN_POINT( '', ( 37.4000000000000, 0.000000000000000, -11.5000000000000 ) );
#421 = AXIS2_PLACEMENT_3D( '', #466, #467, #468 );
#422 = COLOUR_RGB( '', 0.689999997600000, 0.689999997600000, 0.689999997600000 );
#423 = CARTESIAN_POINT( '', ( -8.23300000000000, 0.000000000000000, -4.00000000000000 ) );
#424 = AXIS2_PLACEMENT_3D( '', #469, #470, #471 );
#425 = COLOUR_RGB( '', 0.689999997600000, 0.689999997600000, 0.689999997600000 );
#426 = COLOUR_RGB( '', 0.689999997600000, 0.689999997600000, 0.689999997600000 );
#427 = COLOUR_RGB( '', 0.689999997600000, 0.689999997600000, 0.689999997600000 );
#428 = CARTESIAN_POINT( '', ( 0.000000000000000, -8.00000000000000, 0.000000000000000 ) );
#429 = VECTOR( '', #472, 1000.00000000000 );
#430 = CARTESIAN_POINT( '', ( 0.000000000000000, 0.000000000000000, -4.00000000000000 ) );
#431 = AXIS2_PLACEMENT_3D( '', #473, #474, #475 );
#432 = COLOUR_RGB( '', 0.689999997600000, 0.689999997600000, 0.689999997600000 );
#433 = CARTESIAN_POINT( '', ( 66.3461092891128, 0.000000000000000, -9.42912344572835 ) );
#434 = AXIS2_PLACEMENT_3D( '', #476, #477, #478 );
#435 = COLOUR_RGB( '', 0.689999997600000, 0.689999997600000, 0.689999997600000 );
#436 = COLOUR_RGB( '', 0.689999997600000, 0.689999997600000, 0.689999997600000 );
#437 = COLOUR_RGB( '', 0.689999997600000, 0.689999997600000, 0.689999997600000 );
#438 = DIRECTION( '', ( 1.00000000000000, -0.000000000000000, -0.000000000000000 ) );
#439 = DIRECTION( '', ( 0.000000000000000, 0.000000000000000, -1.00000000000000 ) );
#440 = DIRECTION( '', ( 1.00000000000000, -0.000000000000000, -0.000000000000000 ) );
#441 = DIRECTION( '', ( 0.000000000000000, 0.000000000000000, 1.00000000000000 ) );
#442 = DIRECTION( '', ( 0.000000000000000, 0.000000000000000, 1.00000000000000 ) );
#443 = CARTESIAN_POINT( '', ( 5.99000000000000, 0.000000000000000, 0.000000000000000 ) );
#444 = DIRECTION( '', ( 1.00000000000000, 0.000000000000000, -0.000000000000000 ) );
#445 = DIRECTION( '', ( -0.000000000000000, 0.000000000000000, -1.00000000000000 ) );
#446 = CARTESIAN_POINT( '', ( 6.00000000000000, 0.000000000000000, 0.000000000000000 ) );
#447 = DIRECTION( '', ( 1.00000000000000, 0.000000000000000, -0.000000000000000 ) );
#448 = DIRECTION( '', ( -0.000000000000000, 0.000000000000000, -1.00000000000000 ) );
#449 = DIRECTION( '', ( 1.00000000000000, -0.000000000000000, -0.000000000000000 ) );
#450 = CARTESIAN_POINT( '', ( 0.000000000000000, 0.000000000000000, 0.000000000000000 ) );
#451 = DIRECTION( '', ( 1.00000000000000, 0.000000000000000, -0.000000000000000 ) );
#452 = DIRECTION( '', ( -0.000000000000000, 0.000000000000000, -1.00000000000000 ) );
#453 = CARTESIAN_POINT( '', ( 5.99000000000000, 0.000000000000000, 0.000000000000000 ) );
#454 = DIRECTION( '', ( 1.00000000000000, 0.000000000000000, 0.000000000000000 ) );
#455 = DIRECTION( '', ( 0.000000000000000, 0.000000000000000, -1.00000000000000 ) );
#456 = CARTESIAN_POINT( '', ( 0.000000000000000, 0.000000000000000, 0.000000000000000 ) );
#457 = DIRECTION( '', ( 1.00000000000000, 0.000000000000000, -0.000000000000000 ) );
#458 = DIRECTION( '', ( -0.000000000000000, 0.000000000000000, -1.00000000000000 ) );
#459 = DIRECTION( '', ( 1.00000000000000, -0.000000000000000, -0.000000000000000 ) );
#460 = CARTESIAN_POINT( '', ( -9.00000000000001, 0.000000000000000, 0.000000000000000 ) );
#461 = DIRECTION( '', ( 1.00000000000000, 0.000000000000000, -0.000000000000000 ) );
#462 = DIRECTION( '', ( -0.000000000000000, 0.000000000000000, -1.00000000000000 ) );
#463 = CARTESIAN_POINT( '', ( 63.4936139564965, 0.000000000000000, 0.000000000000000 ) );
#464 = DIRECTION( '', ( 1.00000000000000, 0.000000000000000, -0.000000000000000 ) );
#465 = DIRECTION( '', ( -0.000000000000000, 0.000000000000000, -1.00000000000000 ) );
#466 = CARTESIAN_POINT( '', ( 37.4000000000000, 0.000000000000000, 0.000000000000000 ) );
#467 = DIRECTION( '', ( 1.00000000000000, 0.000000000000000, -0.000000000000000 ) );
#468 = DIRECTION( '', ( -0.000000000000000, 0.000000000000000, -1.00000000000000 ) );
#469 = CARTESIAN_POINT( '', ( -8.23300000000000, 0.000000000000000, 0.000000000000000 ) );
#470 = DIRECTION( '', ( 1.00000000000000, 0.000000000000000, -0.000000000000000 ) );
#471 = DIRECTION( '', ( -0.000000000000000, 0.000000000000000, -1.00000000000000 ) );
#472 = DIRECTION( '', ( 0.000000000000000, 0.000000000000000, -1.00000000000000 ) );
#473 = CARTESIAN_POINT( '', ( 0.000000000000000, 0.000000000000000, 0.000000000000000 ) );
#474 = DIRECTION( '', ( 1.00000000000000, 0.000000000000000, -0.000000000000000 ) );
#475 = DIRECTION( '', ( -0.000000000000000, 0.000000000000000, -1.00000000000000 ) );
#476 = CARTESIAN_POINT( '', ( 66.3461092891128, 0.000000000000000, 0.000000000000000 ) );
#477 = DIRECTION( '', ( 1.00000000000000, 0.000000000000000, -0.000000000000000 ) );
#478 = DIRECTION( '', ( -0.000000000000000, 0.000000000000000, -1.00000000000000 ) );
ENDSEC;
END-ISO-10303-21;
