ISO-10303-21;
HEADER;
FILE_DESCRIPTION( ( 'STEP AP214' ), '1' );
FILE_NAME( '//goodhand-server/Shared Folders/GoodHand Data/Kipp CAD/K0159/K0159.45012.stp', '2020-11-26T09:50:19', ( '' ), ( '' ), ' ', 'PARTsolutions', ' ' );
FILE_SCHEMA( ( 'AUTOMOTIVE_DESIGN { 1 0 10303 214 1 1 1 1 }' ) );
ENDSEC;
DATA;
#1 = MECHANICAL_DESIGN_GEOMETRIC_PRESENTATION_REPRESENTATION( ' ', ( #10, #11, #12, #13, #14, #15, #16, #17, #18, #19 ), #6 );
#2 = PRODUCT_DEFINITION_CONTEXT( '', #20, 'design' );
#3 = APPLICATION_PROTOCOL_DEFINITION( 'international standard', 'automotive_design', 2001, #20 );
#4 = PRODUCT_CATEGORY_RELATIONSHIP( 'NONE', 'NONE', #21, #22 );
#5 = SHAPE_DEFINITION_REPRESENTATION( #23, #24 );
#6 =  ( GEOMETRIC_REPRESENTATION_CONTEXT( 3 )GLOBAL_UNCERTAINTY_ASSIGNED_CONTEXT( ( #27 ) )GLOBAL_UNIT_ASSIGNED_CONTEXT( ( #29, #30, #31 ) )REPRESENTATION_CONTEXT( 'NONE', 'WORKSPACE' ) );
#10 = STYLED_ITEM( '', ( #33 ), #34 );
#11 = STYLED_ITEM( '', ( #35 ), #36 );
#12 = STYLED_ITEM( '', ( #37 ), #38 );
#13 = STYLED_ITEM( '', ( #39 ), #40 );
#14 = STYLED_ITEM( '', ( #41 ), #42 );
#15 = STYLED_ITEM( '', ( #43 ), #44 );
#16 = STYLED_ITEM( '', ( #45 ), #46 );
#17 = STYLED_ITEM( '', ( #47 ), #48 );
#18 = STYLED_ITEM( '', ( #49 ), #50 );
#19 = STYLED_ITEM( '', ( #51 ), #52 );
#20 = APPLICATION_CONTEXT( 'core data for automotive mechanical design processes' );
#21 = PRODUCT_CATEGORY( 'part', 'NONE' );
#22 = PRODUCT_RELATED_PRODUCT_CATEGORY( 'detail', ' ', ( #53 ) );
#23 = PRODUCT_DEFINITION_SHAPE( 'NONE', 'NONE', #54 );
#24 = ADVANCED_BREP_SHAPE_REPRESENTATION( '_K0159.45012', ( #55, #56 ), #6 );
#27 = UNCERTAINTY_MEASURE_WITH_UNIT( LENGTH_MEASURE( 0.00100000000000000 ), #29, '', '' );
#29 =  ( CONVERSION_BASED_UNIT( 'MILLIMETRE', #59 )LENGTH_UNIT(  )NAMED_UNIT( #62 ) );
#30 =  ( NAMED_UNIT( #64 )PLANE_ANGLE_UNIT(  )SI_UNIT( $, .RADIAN. ) );
#31 =  ( NAMED_UNIT( #64 )SI_UNIT( $, .STERADIAN. )SOLID_ANGLE_UNIT(  ) );
#33 = PRESENTATION_STYLE_ASSIGNMENT( ( #70 ) );
#34 = ADVANCED_FACE( '', ( #71, #72 ), #73, .F. );
#35 = PRESENTATION_STYLE_ASSIGNMENT( ( #74 ) );
#36 = ADVANCED_FACE( '', ( #75, #76 ), #77, .F. );
#37 = PRESENTATION_STYLE_ASSIGNMENT( ( #78 ) );
#38 = ADVANCED_FACE( '', ( #79, #80 ), #81, .F. );
#39 = PRESENTATION_STYLE_ASSIGNMENT( ( #82 ) );
#40 = ADVANCED_FACE( '', ( #83, #84 ), #85, .F. );
#41 = PRESENTATION_STYLE_ASSIGNMENT( ( #86 ) );
#42 = ADVANCED_FACE( '', ( #87, #88 ), #89, .F. );
#43 = PRESENTATION_STYLE_ASSIGNMENT( ( #90 ) );
#44 = ADVANCED_FACE( '', ( #91, #92 ), #93, .T. );
#45 = PRESENTATION_STYLE_ASSIGNMENT( ( #94 ) );
#46 = ADVANCED_FACE( '', ( #95, #96 ), #97, .F. );
#47 = PRESENTATION_STYLE_ASSIGNMENT( ( #98 ) );
#48 = ADVANCED_FACE( '', ( #99, #100 ), #101, .F. );
#49 = PRESENTATION_STYLE_ASSIGNMENT( ( #102 ) );
#50 = ADVANCED_FACE( '', ( #103, #104 ), #105, .F. );
#51 = PRESENTATION_STYLE_ASSIGNMENT( ( #106 ) );
#52 = ADVANCED_FACE( '', ( #107, #108 ), #109, .T. );
#53 = PRODUCT( '_K0159.45012', '_K0159.45012', 'PART-_K0159.45012-DESC', ( #110 ) );
#54 = PRODUCT_DEFINITION( 'NONE', 'NONE', #111, #2 );
#55 = MANIFOLD_SOLID_BREP( '_K0159.45012', #112 );
#56 = AXIS2_PLACEMENT_3D( '', #113, #114, #115 );
#59 = LENGTH_MEASURE_WITH_UNIT( LENGTH_MEASURE( 1.00000000000000 ), #116 );
#62 = DIMENSIONAL_EXPONENTS( 1.00000000000000, 0.000000000000000, 0.000000000000000, 0.000000000000000, 0.000000000000000, 0.000000000000000, 0.000000000000000 );
#64 = DIMENSIONAL_EXPONENTS( 0.000000000000000, 0.000000000000000, 0.000000000000000, 0.000000000000000, 0.000000000000000, 0.000000000000000, 0.000000000000000 );
#70 = SURFACE_STYLE_USAGE( .BOTH., #117 );
#71 = FACE_BOUND( '', #118, .T. );
#72 = FACE_OUTER_BOUND( '', #119, .T. );
#73 = PLANE( '', #120 );
#74 = SURFACE_STYLE_USAGE( .BOTH., #121 );
#75 = FACE_OUTER_BOUND( '', #122, .T. );
#76 = FACE_OUTER_BOUND( '', #123, .T. );
#77 = CYLINDRICAL_SURFACE( '', #124, 2.40000000000000 );
#78 = SURFACE_STYLE_USAGE( .BOTH., #125 );
#79 = FACE_OUTER_BOUND( '', #126, .T. );
#80 = FACE_OUTER_BOUND( '', #127, .T. );
#81 = CYLINDRICAL_SURFACE( '', #128, 7.20000000000000 );
#82 = SURFACE_STYLE_USAGE( .BOTH., #129 );
#83 = FACE_OUTER_BOUND( '', #130, .T. );
#84 = FACE_OUTER_BOUND( '', #131, .T. );
#85 = CYLINDRICAL_SURFACE( '', #132, 7.20000000000000 );
#86 = SURFACE_STYLE_USAGE( .BOTH., #133 );
#87 = FACE_BOUND( '', #134, .T. );
#88 = FACE_OUTER_BOUND( '', #135, .T. );
#89 = SPHERICAL_SURFACE( '', #136, 2.40000000000000 );
#90 = SURFACE_STYLE_USAGE( .BOTH., #137 );
#91 = FACE_OUTER_BOUND( '', #138, .T. );
#92 = FACE_BOUND( '', #139, .T. );
#93 = PLANE( '', #140 );
#94 = SURFACE_STYLE_USAGE( .BOTH., #141 );
#95 = FACE_BOUND( '', #142, .T. );
#96 = FACE_OUTER_BOUND( '', #143, .T. );
#97 = CONICAL_SURFACE( '', #144, 7.20000000000000, 0.785398163400000 );
#98 = SURFACE_STYLE_USAGE( .BOTH., #145 );
#99 = FACE_OUTER_BOUND( '', #146, .T. );
#100 = FACE_BOUND( '', #147, .T. );
#101 = CONICAL_SURFACE( '', #148, 6.00000000000000, 0.785398163400000 );
#102 = SURFACE_STYLE_USAGE( .BOTH., #149 );
#103 = FACE_OUTER_BOUND( '', #150, .T. );
#104 = FACE_OUTER_BOUND( '', #151, .T. );
#105 = CYLINDRICAL_SURFACE( '', #152, 6.00000000000000 );
#106 = SURFACE_STYLE_USAGE( .BOTH., #153 );
#107 = FACE_BOUND( '', #154, .T. );
#108 = FACE_OUTER_BOUND( '', #155, .T. );
#109 = SPHERICAL_SURFACE( '', #156, 26.0416666667000 );
#110 = PRODUCT_CONTEXT( '', #20, 'mechanical' );
#111 = PRODUCT_DEFINITION_FORMATION_WITH_SPECIFIED_SOURCE( ' ', 'NONE', #53, .NOT_KNOWN. );
#112 = CLOSED_SHELL( '', ( #34, #42, #52, #36, #44, #38, #46, #50, #48, #40 ) );
#113 = CARTESIAN_POINT( '', ( 0.000000000000000, 0.000000000000000, 0.000000000000000 ) );
#114 = DIRECTION( '', ( 0.000000000000000, 0.000000000000000, 1.00000000000000 ) );
#115 = DIRECTION( '', ( 1.00000000000000, 0.000000000000000, 0.000000000000000 ) );
#116 =  ( LENGTH_UNIT(  )NAMED_UNIT( #62 )SI_UNIT( .MILLI., .METRE. ) );
#117 = SURFACE_SIDE_STYLE( '', ( #158 ) );
#118 = EDGE_LOOP( '', ( #159 ) );
#119 = EDGE_LOOP( '', ( #160 ) );
#120 = AXIS2_PLACEMENT_3D( '', #161, #162, #163 );
#121 = SURFACE_SIDE_STYLE( '', ( #164 ) );
#122 = EDGE_LOOP( '', ( #165 ) );
#123 = EDGE_LOOP( '', ( #166 ) );
#124 = AXIS2_PLACEMENT_3D( '', #167, #168, #169 );
#125 = SURFACE_SIDE_STYLE( '', ( #170 ) );
#126 = EDGE_LOOP( '', ( #171 ) );
#127 = EDGE_LOOP( '', ( #172 ) );
#128 = AXIS2_PLACEMENT_3D( '', #173, #174, #175 );
#129 = SURFACE_SIDE_STYLE( '', ( #176 ) );
#130 = EDGE_LOOP( '', ( #177 ) );
#131 = EDGE_LOOP( '', ( #178 ) );
#132 = AXIS2_PLACEMENT_3D( '', #179, #180, #181 );
#133 = SURFACE_SIDE_STYLE( '', ( #182 ) );
#134 = VERTEX_LOOP( '', #183 );
#135 = EDGE_LOOP( '', ( #184 ) );
#136 = AXIS2_PLACEMENT_3D( '', #185, #186, #187 );
#137 = SURFACE_SIDE_STYLE( '', ( #188 ) );
#138 = EDGE_LOOP( '', ( #189 ) );
#139 = EDGE_LOOP( '', ( #190 ) );
#140 = AXIS2_PLACEMENT_3D( '', #191, #192, #193 );
#141 = SURFACE_SIDE_STYLE( '', ( #194 ) );
#142 = EDGE_LOOP( '', ( #195 ) );
#143 = EDGE_LOOP( '', ( #196 ) );
#144 = AXIS2_PLACEMENT_3D( '', #197, #198, #199 );
#145 = SURFACE_SIDE_STYLE( '', ( #200 ) );
#146 = EDGE_LOOP( '', ( #201 ) );
#147 = EDGE_LOOP( '', ( #202 ) );
#148 = AXIS2_PLACEMENT_3D( '', #203, #204, #205 );
#149 = SURFACE_SIDE_STYLE( '', ( #206 ) );
#150 = EDGE_LOOP( '', ( #207 ) );
#151 = EDGE_LOOP( '', ( #208 ) );
#152 = AXIS2_PLACEMENT_3D( '', #209, #210, #211 );
#153 = SURFACE_SIDE_STYLE( '', ( #212 ) );
#154 = VERTEX_LOOP( '', #213 );
#155 = EDGE_LOOP( '', ( #214 ) );
#156 = AXIS2_PLACEMENT_3D( '', #215, #216, #217 );
#158 = SURFACE_STYLE_FILL_AREA( #218 );
#159 = ORIENTED_EDGE( '', *, *, #219, .F. );
#160 = ORIENTED_EDGE( '', *, *, #220, .T. );
#161 = CARTESIAN_POINT( '', ( 14.0000000000000, -1.21430643318376E-14, 0.000000000000000 ) );
#162 = DIRECTION( '', ( 0.000000000000000, 1.00000000000000, 0.000000000000000 ) );
#163 = DIRECTION( '', ( 0.000000000000000, -0.000000000000000, 1.00000000000000 ) );
#164 = SURFACE_STYLE_FILL_AREA( #221 );
#165 = ORIENTED_EDGE( '', *, *, #222, .T. );
#166 = ORIENTED_EDGE( '', *, *, #223, .F. );
#167 = CARTESIAN_POINT( '', ( 0.000000000000000, 0.000000000000000, 0.000000000000000 ) );
#168 = DIRECTION( '', ( -0.000000000000000, 1.00000000000000, 0.000000000000000 ) );
#169 = DIRECTION( '', ( 0.000000000000000, 0.000000000000000, -1.00000000000000 ) );
#170 = SURFACE_STYLE_FILL_AREA( #224 );
#171 = ORIENTED_EDGE( '', *, *, #225, .T. );
#172 = ORIENTED_EDGE( '', *, *, #226, .F. );
#173 = CARTESIAN_POINT( '', ( 0.000000000000000, 0.000000000000000, 0.000000000000000 ) );
#174 = DIRECTION( '', ( -0.000000000000000, 1.00000000000000, 0.000000000000000 ) );
#175 = DIRECTION( '', ( 0.000000000000000, 0.000000000000000, -1.00000000000000 ) );
#176 = SURFACE_STYLE_FILL_AREA( #227 );
#177 = ORIENTED_EDGE( '', *, *, #219, .T. );
#178 = ORIENTED_EDGE( '', *, *, #228, .F. );
#179 = CARTESIAN_POINT( '', ( 0.000000000000000, 0.000000000000000, 0.000000000000000 ) );
#180 = DIRECTION( '', ( -0.000000000000000, 1.00000000000000, 0.000000000000000 ) );
#181 = DIRECTION( '', ( 0.000000000000000, 0.000000000000000, -1.00000000000000 ) );
#182 = SURFACE_STYLE_FILL_AREA( #229 );
#183 = VERTEX_POINT( '', #230 );
#184 = ORIENTED_EDGE( '', *, *, #223, .T. );
#185 = CARTESIAN_POINT( '', ( 7.58941520739853E-16, 24.0000000000000, 0.000000000000000 ) );
#186 = DIRECTION( '', ( 0.000000000000000, -1.00000000000000, 0.000000000000000 ) );
#187 = DIRECTION( '', ( 1.00000000000000, 0.000000000000000, 0.000000000000000 ) );
#188 = SURFACE_STYLE_FILL_AREA( #231 );
#189 = ORIENTED_EDGE( '', *, *, #226, .T. );
#190 = ORIENTED_EDGE( '', *, *, #222, .F. );
#191 = CARTESIAN_POINT( '', ( 2.40000000000000, 20.0000000000000, 0.000000000000000 ) );
#192 = DIRECTION( '', ( 0.000000000000000, -1.00000000000000, -0.000000000000000 ) );
#193 = DIRECTION( '', ( 0.000000000000000, 0.000000000000000, -1.00000000000000 ) );
#194 = SURFACE_STYLE_FILL_AREA( #232 );
#195 = ORIENTED_EDGE( '', *, *, #233, .T. );
#196 = ORIENTED_EDGE( '', *, *, #225, .F. );
#197 = CARTESIAN_POINT( '', ( 0.000000000000000, 17.2000000000000, 0.000000000000000 ) );
#198 = DIRECTION( '', ( -0.000000000000000, 1.00000000000000, 0.000000000000000 ) );
#199 = DIRECTION( '', ( 0.000000000000000, -0.000000000000000, 1.00000000000000 ) );
#200 = SURFACE_STYLE_FILL_AREA( #234 );
#201 = ORIENTED_EDGE( '', *, *, #228, .T. );
#202 = ORIENTED_EDGE( '', *, *, #235, .F. );
#203 = CARTESIAN_POINT( '', ( 0.000000000000000, 4.00000000000000, 0.000000000000000 ) );
#204 = DIRECTION( '', ( -0.000000000000000, -1.00000000000000, -0.000000000000000 ) );
#205 = DIRECTION( '', ( 0.000000000000000, 0.000000000000000, -1.00000000000000 ) );
#206 = SURFACE_STYLE_FILL_AREA( #236 );
#207 = ORIENTED_EDGE( '', *, *, #235, .T. );
#208 = ORIENTED_EDGE( '', *, *, #233, .F. );
#209 = CARTESIAN_POINT( '', ( 0.000000000000000, 0.000000000000000, 0.000000000000000 ) );
#210 = DIRECTION( '', ( -0.000000000000000, 1.00000000000000, 0.000000000000000 ) );
#211 = DIRECTION( '', ( 0.000000000000000, 0.000000000000000, -1.00000000000000 ) );
#212 = SURFACE_STYLE_FILL_AREA( #237 );
#213 = VERTEX_POINT( '', #238 );
#214 = ORIENTED_EDGE( '', *, *, #220, .F. );
#215 = CARTESIAN_POINT( '', ( 1.38777878078145E-14, 21.9583333333333, 0.000000000000000 ) );
#216 = DIRECTION( '', ( 0.000000000000000, -1.00000000000000, 0.000000000000000 ) );
#217 = DIRECTION( '', ( 1.00000000000000, 0.000000000000000, 0.000000000000000 ) );
#218 = FILL_AREA_STYLE( '', ( #239 ) );
#219 = EDGE_CURVE( '', #240, #240, #241, .T. );
#220 = EDGE_CURVE( '', #242, #242, #243, .T. );
#221 = FILL_AREA_STYLE( '', ( #244 ) );
#222 = EDGE_CURVE( '', #245, #245, #246, .T. );
#223 = EDGE_CURVE( '', #247, #247, #248, .T. );
#224 = FILL_AREA_STYLE( '', ( #249 ) );
#225 = EDGE_CURVE( '', #250, #250, #251, .T. );
#226 = EDGE_CURVE( '', #252, #252, #253, .T. );
#227 = FILL_AREA_STYLE( '', ( #254 ) );
#228 = EDGE_CURVE( '', #255, #255, #256, .T. );
#229 = FILL_AREA_STYLE( '', ( #257 ) );
#230 = CARTESIAN_POINT( '', ( 9.05899136637536E-16, 26.4000000000000, 0.000000000000000 ) );
#231 = FILL_AREA_STYLE( '', ( #258 ) );
#232 = FILL_AREA_STYLE( '', ( #259 ) );
#233 = EDGE_CURVE( '', #260, #260, #261, .T. );
#234 = FILL_AREA_STYLE( '', ( #262 ) );
#235 = EDGE_CURVE( '', #263, #263, #264, .T. );
#236 = FILL_AREA_STYLE( '', ( #265 ) );
#237 = FILL_AREA_STYLE( '', ( #266 ) );
#238 = CARTESIAN_POINT( '', ( 1.54723799942042E-14, 48.0000000000000, 0.000000000000000 ) );
#239 = FILL_AREA_STYLE_COLOUR( '', #267 );
#240 = VERTEX_POINT( '', #268 );
#241 = CIRCLE( '', #269, 7.20000000000000 );
#242 = VERTEX_POINT( '', #270 );
#243 = CIRCLE( '', #271, 14.0000000000000 );
#244 = FILL_AREA_STYLE_COLOUR( '', #272 );
#245 = VERTEX_POINT( '', #273 );
#246 = CIRCLE( '', #274, 2.40000000000000 );
#247 = VERTEX_POINT( '', #275 );
#248 = CIRCLE( '', #276, 2.40000000000000 );
#249 = FILL_AREA_STYLE_COLOUR( '', #277 );
#250 = VERTEX_POINT( '', #278 );
#251 = CIRCLE( '', #279, 7.20000000000000 );
#252 = VERTEX_POINT( '', #280 );
#253 = CIRCLE( '', #281, 7.20000000000000 );
#254 = FILL_AREA_STYLE_COLOUR( '', #282 );
#255 = VERTEX_POINT( '', #283 );
#256 = CIRCLE( '', #284, 7.20000000000000 );
#257 = FILL_AREA_STYLE_COLOUR( '', #285 );
#258 = FILL_AREA_STYLE_COLOUR( '', #286 );
#259 = FILL_AREA_STYLE_COLOUR( '', #287 );
#260 = VERTEX_POINT( '', #288 );
#261 = CIRCLE( '', #289, 6.00000000000000 );
#262 = FILL_AREA_STYLE_COLOUR( '', #290 );
#263 = VERTEX_POINT( '', #291 );
#264 = CIRCLE( '', #292, 6.00000000000000 );
#265 = FILL_AREA_STYLE_COLOUR( '', #293 );
#266 = FILL_AREA_STYLE_COLOUR( '', #294 );
#267 = COLOUR_RGB( '', 0.689999997600000, 0.689999997600000, 0.689999997600000 );
#268 = CARTESIAN_POINT( '', ( 0.000000000000000, 0.000000000000000, -7.20000000000000 ) );
#269 = AXIS2_PLACEMENT_3D( '', #295, #296, #297 );
#270 = CARTESIAN_POINT( '', ( 0.000000000000000, -2.42861286636753E-14, -14.0000000000000 ) );
#271 = AXIS2_PLACEMENT_3D( '', #298, #299, #300 );
#272 = COLOUR_RGB( '', 0.689999997600000, 0.689999997600000, 0.689999997600000 );
#273 = CARTESIAN_POINT( '', ( 0.000000000000000, 20.0000000000000, -2.40000000000000 ) );
#274 = AXIS2_PLACEMENT_3D( '', #301, #302, #303 );
#275 = CARTESIAN_POINT( '', ( 0.000000000000000, 24.0000000000000, -2.40000000000000 ) );
#276 = AXIS2_PLACEMENT_3D( '', #304, #305, #306 );
#277 = COLOUR_RGB( '', 0.689999997600000, 0.689999997600000, 0.689999997600000 );
#278 = CARTESIAN_POINT( '', ( 0.000000000000000, 17.2000000000000, -7.20000000000000 ) );
#279 = AXIS2_PLACEMENT_3D( '', #307, #308, #309 );
#280 = CARTESIAN_POINT( '', ( 0.000000000000000, 20.0000000000000, -7.20000000000000 ) );
#281 = AXIS2_PLACEMENT_3D( '', #310, #311, #312 );
#282 = COLOUR_RGB( '', 0.689999997600000, 0.689999997600000, 0.689999997600000 );
#283 = CARTESIAN_POINT( '', ( 0.000000000000000, 2.80000000000000, -7.20000000000000 ) );
#284 = AXIS2_PLACEMENT_3D( '', #313, #314, #315 );
#285 = COLOUR_RGB( '', 0.689999997600000, 0.689999997600000, 0.689999997600000 );
#286 = COLOUR_RGB( '', 0.689999997600000, 0.689999997600000, 0.689999997600000 );
#287 = COLOUR_RGB( '', 0.689999997600000, 0.689999997600000, 0.689999997600000 );
#288 = CARTESIAN_POINT( '', ( 0.000000000000000, 16.0000000000000, -6.00000000000000 ) );
#289 = AXIS2_PLACEMENT_3D( '', #316, #317, #318 );
#290 = COLOUR_RGB( '', 0.689999997600000, 0.689999997600000, 0.689999997600000 );
#291 = CARTESIAN_POINT( '', ( 0.000000000000000, 4.00000000000000, -6.00000000000000 ) );
#292 = AXIS2_PLACEMENT_3D( '', #319, #320, #321 );
#293 = COLOUR_RGB( '', 0.689999997600000, 0.689999997600000, 0.689999997600000 );
#294 = COLOUR_RGB( '', 0.689999997600000, 0.689999997600000, 0.689999997600000 );
#295 = CARTESIAN_POINT( '', ( 0.000000000000000, 0.000000000000000, 0.000000000000000 ) );
#296 = DIRECTION( '', ( 0.000000000000000, -1.00000000000000, -0.000000000000000 ) );
#297 = DIRECTION( '', ( 0.000000000000000, 0.000000000000000, -1.00000000000000 ) );
#298 = CARTESIAN_POINT( '', ( 0.000000000000000, -2.42861286636753E-14, 0.000000000000000 ) );
#299 = DIRECTION( '', ( 0.000000000000000, -1.00000000000000, -0.000000000000000 ) );
#300 = DIRECTION( '', ( 0.000000000000000, 0.000000000000000, -1.00000000000000 ) );
#301 = CARTESIAN_POINT( '', ( 0.000000000000000, 20.0000000000000, 0.000000000000000 ) );
#302 = DIRECTION( '', ( 0.000000000000000, -1.00000000000000, -0.000000000000000 ) );
#303 = DIRECTION( '', ( 0.000000000000000, 0.000000000000000, -1.00000000000000 ) );
#304 = CARTESIAN_POINT( '', ( 0.000000000000000, 24.0000000000000, 0.000000000000000 ) );
#305 = DIRECTION( '', ( 0.000000000000000, -1.00000000000000, -0.000000000000000 ) );
#306 = DIRECTION( '', ( 0.000000000000000, 0.000000000000000, -1.00000000000000 ) );
#307 = CARTESIAN_POINT( '', ( 0.000000000000000, 17.2000000000000, 0.000000000000000 ) );
#308 = DIRECTION( '', ( 0.000000000000000, -1.00000000000000, -0.000000000000000 ) );
#309 = DIRECTION( '', ( 0.000000000000000, 0.000000000000000, -1.00000000000000 ) );
#310 = CARTESIAN_POINT( '', ( 0.000000000000000, 20.0000000000000, 0.000000000000000 ) );
#311 = DIRECTION( '', ( 0.000000000000000, -1.00000000000000, -0.000000000000000 ) );
#312 = DIRECTION( '', ( 0.000000000000000, 0.000000000000000, -1.00000000000000 ) );
#313 = CARTESIAN_POINT( '', ( 0.000000000000000, 2.80000000000000, 0.000000000000000 ) );
#314 = DIRECTION( '', ( 0.000000000000000, -1.00000000000000, -0.000000000000000 ) );
#315 = DIRECTION( '', ( 0.000000000000000, 0.000000000000000, -1.00000000000000 ) );
#316 = CARTESIAN_POINT( '', ( 0.000000000000000, 16.0000000000000, 0.000000000000000 ) );
#317 = DIRECTION( '', ( 0.000000000000000, -1.00000000000000, -0.000000000000000 ) );
#318 = DIRECTION( '', ( 0.000000000000000, 0.000000000000000, -1.00000000000000 ) );
#319 = CARTESIAN_POINT( '', ( 0.000000000000000, 4.00000000000000, 0.000000000000000 ) );
#320 = DIRECTION( '', ( 0.000000000000000, -1.00000000000000, -0.000000000000000 ) );
#321 = DIRECTION( '', ( 0.000000000000000, 0.000000000000000, -1.00000000000000 ) );
ENDSEC;
END-ISO-10303-21;
