ISO-10303-21;
HEADER;
FILE_DESCRIPTION( ( 'STEP AP214' ), '1' );
FILE_NAME( '//goodhand-server/Shared Folders/GoodHand Data/Kipp CAD/K0390/K0390.10X60.stp', '2020-12-07T10:14:31', ( '' ), ( '' ), ' ', 'PARTsolutions', ' ' );
FILE_SCHEMA( ( 'AUTOMOTIVE_DESIGN { 1 0 10303 214 1 1 1 1 }' ) );
ENDSEC;
DATA;
#1 = MECHANICAL_DESIGN_GEOMETRIC_PRESENTATION_REPRESENTATION( ' ', ( #10, #11, #12, #13, #14, #15, #16, #17, #18, #19, #20, #21, #22 ), #6 );
#2 = PRODUCT_DEFINITION_CONTEXT( '', #23, 'design' );
#3 = APPLICATION_PROTOCOL_DEFINITION( 'international standard', 'automotive_design', 2001, #23 );
#4 = PRODUCT_CATEGORY_RELATIONSHIP( 'NONE', 'NONE', #24, #25 );
#5 = SHAPE_DEFINITION_REPRESENTATION( #26, #27 );
#6 =  ( GEOMETRIC_REPRESENTATION_CONTEXT( 3 )GLOBAL_UNCERTAINTY_ASSIGNED_CONTEXT( ( #30 ) )GLOBAL_UNIT_ASSIGNED_CONTEXT( ( #32, #33, #34 ) )REPRESENTATION_CONTEXT( 'NONE', 'WORKSPACE' ) );
#10 = STYLED_ITEM( '', ( #36 ), #37 );
#11 = STYLED_ITEM( '', ( #38 ), #39 );
#12 = STYLED_ITEM( '', ( #40 ), #41 );
#13 = STYLED_ITEM( '', ( #42 ), #43 );
#14 = STYLED_ITEM( '', ( #44 ), #45 );
#15 = STYLED_ITEM( '', ( #46 ), #47 );
#16 = STYLED_ITEM( '', ( #48 ), #49 );
#17 = STYLED_ITEM( '', ( #50 ), #51 );
#18 = STYLED_ITEM( '', ( #52 ), #53 );
#19 = STYLED_ITEM( '', ( #54 ), #55 );
#20 = STYLED_ITEM( '', ( #56 ), #57 );
#21 = STYLED_ITEM( '', ( #58 ), #59 );
#22 = STYLED_ITEM( '', ( #60 ), #61 );
#23 = APPLICATION_CONTEXT( 'core data for automotive mechanical design processes' );
#24 = PRODUCT_CATEGORY( 'part', 'NONE' );
#25 = PRODUCT_RELATED_PRODUCT_CATEGORY( 'detail', ' ', ( #62 ) );
#26 = PRODUCT_DEFINITION_SHAPE( 'NONE', 'NONE', #63 );
#27 = ADVANCED_BREP_SHAPE_REPRESENTATION( '_K0390.10X60', ( #64, #65 ), #6 );
#30 = UNCERTAINTY_MEASURE_WITH_UNIT( LENGTH_MEASURE( 0.00100000000000000 ), #32, '', '' );
#32 =  ( CONVERSION_BASED_UNIT( 'MILLIMETRE', #68 )LENGTH_UNIT(  )NAMED_UNIT( #71 ) );
#33 =  ( NAMED_UNIT( #73 )PLANE_ANGLE_UNIT(  )SI_UNIT( $, .RADIAN. ) );
#34 =  ( NAMED_UNIT( #73 )SI_UNIT( $, .STERADIAN. )SOLID_ANGLE_UNIT(  ) );
#36 = PRESENTATION_STYLE_ASSIGNMENT( ( #79 ) );
#37 = ADVANCED_FACE( '', ( #80, #81 ), #82, .T. );
#38 = PRESENTATION_STYLE_ASSIGNMENT( ( #83 ) );
#39 = ADVANCED_FACE( '', ( #84, #85 ), #86, .T. );
#40 = PRESENTATION_STYLE_ASSIGNMENT( ( #87 ) );
#41 = ADVANCED_FACE( '', ( #88, #89 ), #90, .T. );
#42 = PRESENTATION_STYLE_ASSIGNMENT( ( #91 ) );
#43 = ADVANCED_FACE( '', ( #92, #93 ), #94, .T. );
#44 = PRESENTATION_STYLE_ASSIGNMENT( ( #95 ) );
#45 = ADVANCED_FACE( '', ( #96 ), #97, .F. );
#46 = PRESENTATION_STYLE_ASSIGNMENT( ( #98 ) );
#47 = ADVANCED_FACE( '', ( #99, #100 ), #101, .T. );
#48 = PRESENTATION_STYLE_ASSIGNMENT( ( #102 ) );
#49 = ADVANCED_FACE( '', ( #103, #104 ), #105, .F. );
#50 = PRESENTATION_STYLE_ASSIGNMENT( ( #106 ) );
#51 = ADVANCED_FACE( '', ( #107 ), #108, .F. );
#52 = PRESENTATION_STYLE_ASSIGNMENT( ( #109 ) );
#53 = ADVANCED_FACE( '', ( #110 ), #111, .F. );
#54 = PRESENTATION_STYLE_ASSIGNMENT( ( #112 ) );
#55 = ADVANCED_FACE( '', ( #113 ), #114, .T. );
#56 = PRESENTATION_STYLE_ASSIGNMENT( ( #115 ) );
#57 = ADVANCED_FACE( '', ( #116 ), #117, .T. );
#58 = PRESENTATION_STYLE_ASSIGNMENT( ( #118 ) );
#59 = ADVANCED_FACE( '', ( #119 ), #120, .F. );
#60 = PRESENTATION_STYLE_ASSIGNMENT( ( #121 ) );
#61 = ADVANCED_FACE( '', ( #122 ), #123, .T. );
#62 = PRODUCT( '_K0390.10X60', '_K0390.10X60', 'PART-_K0390.10X60-DESC', ( #124 ) );
#63 = PRODUCT_DEFINITION( 'NONE', 'NONE', #125, #2 );
#64 = MANIFOLD_SOLID_BREP( '_K0390.10X60', #126 );
#65 = AXIS2_PLACEMENT_3D( '', #127, #128, #129 );
#68 = LENGTH_MEASURE_WITH_UNIT( LENGTH_MEASURE( 1.00000000000000 ), #130 );
#71 = DIMENSIONAL_EXPONENTS( 1.00000000000000, 0.000000000000000, 0.000000000000000, 0.000000000000000, 0.000000000000000, 0.000000000000000, 0.000000000000000 );
#73 = DIMENSIONAL_EXPONENTS( 0.000000000000000, 0.000000000000000, 0.000000000000000, 0.000000000000000, 0.000000000000000, 0.000000000000000, 0.000000000000000 );
#79 = SURFACE_STYLE_USAGE( .BOTH., #131 );
#80 = FACE_BOUND( '', #132, .T. );
#81 = FACE_OUTER_BOUND( '', #133, .T. );
#82 = CONICAL_SURFACE( '', #134, 5.00000000000000, 1.01679700410000 );
#83 = SURFACE_STYLE_USAGE( .BOTH., #135 );
#84 = FACE_OUTER_BOUND( '', #136, .T. );
#85 = FACE_OUTER_BOUND( '', #137, .T. );
#86 = CYLINDRICAL_SURFACE( '', #138, 5.00000000000000 );
#87 = SURFACE_STYLE_USAGE( .BOTH., #139 );
#88 = FACE_OUTER_BOUND( '', #140, .T. );
#89 = FACE_OUTER_BOUND( '', #141, .T. );
#90 = CYLINDRICAL_SURFACE( '', #142, 3.60000000000000 );
#91 = SURFACE_STYLE_USAGE( .BOTH., #143 );
#92 = FACE_BOUND( '', #144, .T. );
#93 = FACE_OUTER_BOUND( '', #145, .T. );
#94 = SPHERICAL_SURFACE( '', #146, 6.70960000000000 );
#95 = SURFACE_STYLE_USAGE( .BOTH., #147 );
#96 = FACE_OUTER_BOUND( '', #148, .T. );
#97 = PLANE( '', #149 );
#98 = SURFACE_STYLE_USAGE( .BOTH., #150 );
#99 = FACE_OUTER_BOUND( '', #151, .T. );
#100 = FACE_OUTER_BOUND( '', #152, .T. );
#101 = CYLINDRICAL_SURFACE( '', #153, 4.00000000000000 );
#102 = SURFACE_STYLE_USAGE( .BOTH., #154 );
#103 = FACE_OUTER_BOUND( '', #155, .T. );
#104 = FACE_BOUND( '', #156, .T. );
#105 = PLANE( '', #157 );
#106 = SURFACE_STYLE_USAGE( .BOTH., #158 );
#107 = FACE_OUTER_BOUND( '', #159, .T. );
#108 = PLANE( '', #160 );
#109 = SURFACE_STYLE_USAGE( .BOTH., #161 );
#110 = FACE_OUTER_BOUND( '', #162, .T. );
#111 = PLANE( '', #163 );
#112 = SURFACE_STYLE_USAGE( .BOTH., #164 );
#113 = FACE_OUTER_BOUND( '', #165, .T. );
#114 = CONICAL_SURFACE( '', #166, 4.08000000000000, 0.785398163400000 );
#115 = SURFACE_STYLE_USAGE( .BOTH., #167 );
#116 = FACE_OUTER_BOUND( '', #168, .T. );
#117 = PLANE( '', #169 );
#118 = SURFACE_STYLE_USAGE( .BOTH., #170 );
#119 = FACE_OUTER_BOUND( '', #171, .T. );
#120 = PLANE( '', #172 );
#121 = SURFACE_STYLE_USAGE( .BOTH., #173 );
#122 = FACE_OUTER_BOUND( '', #174, .T. );
#123 = CONICAL_SURFACE( '', #175, 4.08000000000000, 0.785398163400000 );
#124 = PRODUCT_CONTEXT( '', #23, 'mechanical' );
#125 = PRODUCT_DEFINITION_FORMATION_WITH_SPECIFIED_SOURCE( ' ', 'NONE', #62, .NOT_KNOWN. );
#126 = CLOSED_SHELL( '', ( #59, #53, #43, #47, #49, #41, #37, #39, #55, #51, #61, #45, #57 ) );
#127 = CARTESIAN_POINT( '', ( 0.000000000000000, 0.000000000000000, 0.000000000000000 ) );
#128 = DIRECTION( '', ( 0.000000000000000, 0.000000000000000, 1.00000000000000 ) );
#129 = DIRECTION( '', ( 1.00000000000000, 0.000000000000000, 0.000000000000000 ) );
#130 =  ( LENGTH_UNIT(  )NAMED_UNIT( #71 )SI_UNIT( .MILLI., .METRE. ) );
#131 = SURFACE_SIDE_STYLE( '', ( #177 ) );
#132 = EDGE_LOOP( '', ( #178 ) );
#133 = EDGE_LOOP( '', ( #179 ) );
#134 = AXIS2_PLACEMENT_3D( '', #180, #181, #182 );
#135 = SURFACE_SIDE_STYLE( '', ( #183 ) );
#136 = EDGE_LOOP( '', ( #184 ) );
#137 = EDGE_LOOP( '', ( #185, #186, #187, #188, #189, #190, #191, #192 ) );
#138 = AXIS2_PLACEMENT_3D( '', #193, #194, #195 );
#139 = SURFACE_SIDE_STYLE( '', ( #196 ) );
#140 = EDGE_LOOP( '', ( #197 ) );
#141 = EDGE_LOOP( '', ( #198 ) );
#142 = AXIS2_PLACEMENT_3D( '', #199, #200, #201 );
#143 = SURFACE_SIDE_STYLE( '', ( #202 ) );
#144 = VERTEX_LOOP( '', #203 );
#145 = EDGE_LOOP( '', ( #204 ) );
#146 = AXIS2_PLACEMENT_3D( '', #205, #206, #207 );
#147 = SURFACE_SIDE_STYLE( '', ( #208 ) );
#148 = EDGE_LOOP( '', ( #209, #210 ) );
#149 = AXIS2_PLACEMENT_3D( '', #211, #212, #213 );
#150 = SURFACE_SIDE_STYLE( '', ( #214 ) );
#151 = EDGE_LOOP( '', ( #215 ) );
#152 = EDGE_LOOP( '', ( #216 ) );
#153 = AXIS2_PLACEMENT_3D( '', #217, #218, #219 );
#154 = SURFACE_SIDE_STYLE( '', ( #220 ) );
#155 = EDGE_LOOP( '', ( #221 ) );
#156 = EDGE_LOOP( '', ( #222 ) );
#157 = AXIS2_PLACEMENT_3D( '', #223, #224, #225 );
#158 = SURFACE_SIDE_STYLE( '', ( #226 ) );
#159 = EDGE_LOOP( '', ( #227, #228 ) );
#160 = AXIS2_PLACEMENT_3D( '', #229, #230, #231 );
#161 = SURFACE_SIDE_STYLE( '', ( #232 ) );
#162 = EDGE_LOOP( '', ( #233, #234, #235, #236, #237, #238 ) );
#163 = AXIS2_PLACEMENT_3D( '', #239, #240, #241 );
#164 = SURFACE_SIDE_STYLE( '', ( #242 ) );
#165 = EDGE_LOOP( '', ( #243, #244, #245, #246 ) );
#166 = AXIS2_PLACEMENT_3D( '', #247, #248, #249 );
#167 = SURFACE_SIDE_STYLE( '', ( #250 ) );
#168 = EDGE_LOOP( '', ( #251, #252, #253, #254 ) );
#169 = AXIS2_PLACEMENT_3D( '', #255, #256, #257 );
#170 = SURFACE_SIDE_STYLE( '', ( #258 ) );
#171 = EDGE_LOOP( '', ( #259, #260, #261, #262, #263, #264 ) );
#172 = AXIS2_PLACEMENT_3D( '', #265, #266, #267 );
#173 = SURFACE_SIDE_STYLE( '', ( #268 ) );
#174 = EDGE_LOOP( '', ( #269, #270, #271, #272 ) );
#175 = AXIS2_PLACEMENT_3D( '', #273, #274, #275 );
#177 = SURFACE_STYLE_FILL_AREA( #276 );
#178 = ORIENTED_EDGE( '', *, *, #277, .F. );
#179 = ORIENTED_EDGE( '', *, *, #278, .T. );
#180 = CARTESIAN_POINT( '', ( 51.0000000000000, 2.32744789901656E-15, 0.000000000000000 ) );
#181 = DIRECTION( '', ( -1.00000000000000, 6.12323399573677E-17, -0.000000000000000 ) );
#182 = DIRECTION( '', ( -6.12323399573677E-17, -1.00000000000000, 0.000000000000000 ) );
#183 = SURFACE_STYLE_FILL_AREA( #279 );
#184 = ORIENTED_EDGE( '', *, *, #278, .F. );
#185 = ORIENTED_EDGE( '', *, *, #280, .T. );
#186 = ORIENTED_EDGE( '', *, *, #281, .T. );
#187 = ORIENTED_EDGE( '', *, *, #282, .F. );
#188 = ORIENTED_EDGE( '', *, *, #283, .T. );
#189 = ORIENTED_EDGE( '', *, *, #284, .T. );
#190 = ORIENTED_EDGE( '', *, *, #285, .T. );
#191 = ORIENTED_EDGE( '', *, *, #286, .F. );
#192 = ORIENTED_EDGE( '', *, *, #287, .T. );
#193 = CARTESIAN_POINT( '', ( 60.0000000000000, 1.77635683940025E-15, 0.000000000000000 ) );
#194 = DIRECTION( '', ( -1.00000000000000, 6.12323399573677E-17, 0.000000000000000 ) );
#195 = DIRECTION( '', ( 6.12323399573677E-17, 1.00000000000000, 0.000000000000000 ) );
#196 = SURFACE_STYLE_FILL_AREA( #288 );
#197 = ORIENTED_EDGE( '', *, *, #289, .F. );
#198 = ORIENTED_EDGE( '', *, *, #277, .T. );
#199 = CARTESIAN_POINT( '', ( 60.0000000000000, 1.77635683940025E-15, 0.000000000000000 ) );
#200 = DIRECTION( '', ( -1.00000000000000, 6.12323399573677E-17, 0.000000000000000 ) );
#201 = DIRECTION( '', ( 6.12323399573677E-17, 1.00000000000000, 0.000000000000000 ) );
#202 = SURFACE_STYLE_FILL_AREA( #290 );
#203 = VERTEX_POINT( '', #291 );
#204 = ORIENTED_EDGE( '', *, *, #292, .T. );
#205 = CARTESIAN_POINT( '', ( 53.2904000000000, 1.38777878078145E-14, 0.000000000000000 ) );
#206 = DIRECTION( '', ( 1.00000000000000, 0.000000000000000, 0.000000000000000 ) );
#207 = DIRECTION( '', ( 0.000000000000000, -1.00000000000000, 0.000000000000000 ) );
#208 = SURFACE_STYLE_FILL_AREA( #293 );
#209 = ORIENTED_EDGE( '', *, *, #294, .F. );
#210 = ORIENTED_EDGE( '', *, *, #295, .F. );
#211 = CARTESIAN_POINT( '', ( -1.24913973513030E-16, 5.45029723684231E-15, 0.000000000000000 ) );
#212 = DIRECTION( '', ( 1.00000000000000, -6.12323399573677E-17, -0.000000000000000 ) );
#213 = DIRECTION( '', ( 6.12323399573677E-17, 1.00000000000000, 0.000000000000000 ) );
#214 = SURFACE_STYLE_FILL_AREA( #296 );
#215 = ORIENTED_EDGE( '', *, *, #292, .F. );
#216 = ORIENTED_EDGE( '', *, *, #297, .T. );
#217 = CARTESIAN_POINT( '', ( 60.0000000000000, 1.77635683940025E-15, 0.000000000000000 ) );
#218 = DIRECTION( '', ( -1.00000000000000, 6.12323399573677E-17, 0.000000000000000 ) );
#219 = DIRECTION( '', ( 6.12323399573677E-17, 1.00000000000000, 0.000000000000000 ) );
#220 = SURFACE_STYLE_FILL_AREA( #298 );
#221 = ORIENTED_EDGE( '', *, *, #297, .F. );
#222 = ORIENTED_EDGE( '', *, *, #289, .T. );
#223 = CARTESIAN_POINT( '', ( 55.5000000000000, 3.60000000000000, 0.000000000000000 ) );
#224 = DIRECTION( '', ( 1.00000000000000, -6.12323399573677E-17, -0.000000000000000 ) );
#225 = DIRECTION( '', ( 6.12323399573677E-17, 1.00000000000000, 0.000000000000000 ) );
#226 = SURFACE_STYLE_FILL_AREA( #299 );
#227 = ORIENTED_EDGE( '', *, *, #300, .F. );
#228 = ORIENTED_EDGE( '', *, *, #301, .F. );
#229 = CARTESIAN_POINT( '', ( -1.24913973513030E-16, 5.45029723684231E-15, 0.000000000000000 ) );
#230 = DIRECTION( '', ( 1.00000000000000, -6.12323399573677E-17, -0.000000000000000 ) );
#231 = DIRECTION( '', ( 6.12323399573677E-17, 1.00000000000000, 0.000000000000000 ) );
#232 = SURFACE_STYLE_FILL_AREA( #302 );
#233 = ORIENTED_EDGE( '', *, *, #301, .T. );
#234 = ORIENTED_EDGE( '', *, *, #303, .F. );
#235 = ORIENTED_EDGE( '', *, *, #287, .F. );
#236 = ORIENTED_EDGE( '', *, *, #304, .F. );
#237 = ORIENTED_EDGE( '', *, *, #281, .F. );
#238 = ORIENTED_EDGE( '', *, *, #305, .F. );
#239 = CARTESIAN_POINT( '', ( 3.00000000000000, -0.899999999999995, -10.5000000000000 ) );
#240 = DIRECTION( '', ( 0.000000000000000, -1.00000000000000, 0.000000000000000 ) );
#241 = DIRECTION( '', ( 0.000000000000000, 0.000000000000000, -1.00000000000000 ) );
#242 = SURFACE_STYLE_FILL_AREA( #306 );
#243 = ORIENTED_EDGE( '', *, *, #294, .T. );
#244 = ORIENTED_EDGE( '', *, *, #307, .T. );
#245 = ORIENTED_EDGE( '', *, *, #284, .F. );
#246 = ORIENTED_EDGE( '', *, *, #308, .T. );
#247 = CARTESIAN_POINT( '', ( 0.000000000000000, 5.45029723684231E-15, 0.000000000000000 ) );
#248 = DIRECTION( '', ( 1.00000000000000, -6.12323399573677E-17, -0.000000000000000 ) );
#249 = DIRECTION( '', ( 6.12323399573677E-17, 1.00000000000000, 0.000000000000000 ) );
#250 = SURFACE_STYLE_FILL_AREA( #309 );
#251 = ORIENTED_EDGE( '', *, *, #282, .T. );
#252 = ORIENTED_EDGE( '', *, *, #304, .T. );
#253 = ORIENTED_EDGE( '', *, *, #286, .T. );
#254 = ORIENTED_EDGE( '', *, *, #310, .T. );
#255 = CARTESIAN_POINT( '', ( 3.00000000000000, 0.000000000000000, 0.000000000000000 ) );
#256 = DIRECTION( '', ( -1.00000000000000, 0.000000000000000, 0.000000000000000 ) );
#257 = DIRECTION( '', ( 0.000000000000000, 0.000000000000000, 1.00000000000000 ) );
#258 = SURFACE_STYLE_FILL_AREA( #311 );
#259 = ORIENTED_EDGE( '', *, *, #307, .F. );
#260 = ORIENTED_EDGE( '', *, *, #295, .T. );
#261 = ORIENTED_EDGE( '', *, *, #308, .F. );
#262 = ORIENTED_EDGE( '', *, *, #283, .F. );
#263 = ORIENTED_EDGE( '', *, *, #310, .F. );
#264 = ORIENTED_EDGE( '', *, *, #285, .F. );
#265 = CARTESIAN_POINT( '', ( 3.00000000000000, 0.900000000000005, 10.5000000000000 ) );
#266 = DIRECTION( '', ( 0.000000000000000, 1.00000000000000, 0.000000000000000 ) );
#267 = DIRECTION( '', ( 0.000000000000000, -0.000000000000000, 1.00000000000000 ) );
#268 = SURFACE_STYLE_FILL_AREA( #312 );
#269 = ORIENTED_EDGE( '', *, *, #280, .F. );
#270 = ORIENTED_EDGE( '', *, *, #303, .T. );
#271 = ORIENTED_EDGE( '', *, *, #300, .T. );
#272 = ORIENTED_EDGE( '', *, *, #305, .T. );
#273 = CARTESIAN_POINT( '', ( 0.000000000000000, 5.45029723684231E-15, 0.000000000000000 ) );
#274 = DIRECTION( '', ( 1.00000000000000, -6.12323399573677E-17, -0.000000000000000 ) );
#275 = DIRECTION( '', ( 6.12323399573677E-17, 1.00000000000000, 0.000000000000000 ) );
#276 = FILL_AREA_STYLE( '', ( #313 ) );
#277 = EDGE_CURVE( '', #314, #314, #315, .T. );
#278 = EDGE_CURVE( '', #316, #316, #317, .T. );
#279 = FILL_AREA_STYLE( '', ( #318 ) );
#280 = EDGE_CURVE( '', #319, #320, #321, .T. );
#281 = EDGE_CURVE( '', #320, #322, #323, .T. );
#282 = EDGE_CURVE( '', #324, #322, #325, .T. );
#283 = EDGE_CURVE( '', #324, #326, #327, .F. );
#284 = EDGE_CURVE( '', #326, #328, #329, .T. );
#285 = EDGE_CURVE( '', #328, #330, #331, .T. );
#286 = EDGE_CURVE( '', #332, #330, #333, .T. );
#287 = EDGE_CURVE( '', #332, #319, #334, .F. );
#288 = FILL_AREA_STYLE( '', ( #335 ) );
#289 = EDGE_CURVE( '', #336, #336, #337, .T. );
#290 = FILL_AREA_STYLE( '', ( #338 ) );
#291 = CARTESIAN_POINT( '', ( 60.0000000000000, 1.30560987914585E-14, 0.000000000000000 ) );
#292 = EDGE_CURVE( '', #339, #339, #340, .T. );
#293 = FILL_AREA_STYLE( '', ( #341 ) );
#294 = EDGE_CURVE( '', #342, #343, #344, .T. );
#295 = EDGE_CURVE( '', #343, #342, #345, .T. );
#296 = FILL_AREA_STYLE( '', ( #346 ) );
#297 = EDGE_CURVE( '', #347, #347, #348, .T. );
#298 = FILL_AREA_STYLE( '', ( #349 ) );
#299 = FILL_AREA_STYLE( '', ( #350 ) );
#300 = EDGE_CURVE( '', #351, #352, #353, .T. );
#301 = EDGE_CURVE( '', #352, #351, #354, .T. );
#302 = FILL_AREA_STYLE( '', ( #355 ) );
#303 = EDGE_CURVE( '', #319, #351, #356, .T. );
#304 = EDGE_CURVE( '', #322, #332, #357, .T. );
#305 = EDGE_CURVE( '', #352, #320, #358, .T. );
#306 = FILL_AREA_STYLE( '', ( #359 ) );
#307 = EDGE_CURVE( '', #343, #328, #360, .T. );
#308 = EDGE_CURVE( '', #326, #342, #361, .T. );
#309 = FILL_AREA_STYLE( '', ( #362 ) );
#310 = EDGE_CURVE( '', #330, #324, #363, .T. );
#311 = FILL_AREA_STYLE( '', ( #364 ) );
#312 = FILL_AREA_STYLE( '', ( #365 ) );
#313 = FILL_AREA_STYLE_COLOUR( '', #366 );
#314 = VERTEX_POINT( '', #367 );
#315 = CIRCLE( '', #368, 3.60000000000000 );
#316 = VERTEX_POINT( '', #369 );
#317 = CIRCLE( '', #370, 5.00000000000000 );
#318 = FILL_AREA_STYLE_COLOUR( '', #371 );
#319 = VERTEX_POINT( '', #372 );
#320 = VERTEX_POINT( '', #373 );
#321 = CIRCLE( '', #374, 5.00000000000000 );
#322 = VERTEX_POINT( '', #375 );
#323 = LINE( '', #376, #377 );
#324 = VERTEX_POINT( '', #378 );
#325 = CIRCLE( '', #379, 5.00000000000000 );
#326 = VERTEX_POINT( '', #380 );
#327 = LINE( '', #381, #382 );
#328 = VERTEX_POINT( '', #383 );
#329 = CIRCLE( '', #384, 5.00000000000000 );
#330 = VERTEX_POINT( '', #385 );
#331 = LINE( '', #386, #387 );
#332 = VERTEX_POINT( '', #388 );
#333 = CIRCLE( '', #389, 5.00000000000000 );
#334 = LINE( '', #390, #391 );
#335 = FILL_AREA_STYLE_COLOUR( '', #392 );
#336 = VERTEX_POINT( '', #393 );
#337 = CIRCLE( '', #394, 3.60000000000000 );
#338 = FILL_AREA_STYLE_COLOUR( '', #395 );
#339 = VERTEX_POINT( '', #396 );
#340 = CIRCLE( '', #397, 4.00000000000000 );
#341 = FILL_AREA_STYLE_COLOUR( '', #398 );
#342 = VERTEX_POINT( '', #399 );
#343 = VERTEX_POINT( '', #400 );
#344 = CIRCLE( '', #401, 4.08000000000000 );
#345 = LINE( '', #402, #403 );
#346 = FILL_AREA_STYLE_COLOUR( '', #404 );
#347 = VERTEX_POINT( '', #405 );
#348 = CIRCLE( '', #406, 4.00000000000000 );
#349 = FILL_AREA_STYLE_COLOUR( '', #407 );
#350 = FILL_AREA_STYLE_COLOUR( '', #408 );
#351 = VERTEX_POINT( '', #409 );
#352 = VERTEX_POINT( '', #410 );
#353 = CIRCLE( '', #411, 4.08000000000000 );
#354 = LINE( '', #412, #413 );
#355 = FILL_AREA_STYLE_COLOUR( '', #414 );
#356 = B_SPLINE_CURVE_WITH_KNOTS( '', 3, ( #415, #416, #417, #418 ), .UNSPECIFIED., .F., .F., ( 4, 4 ), ( 0.00855302721908261, 0.00986748988713592 ), .UNSPECIFIED. );
#357 = LINE( '', #419, #420 );
#358 = B_SPLINE_CURVE_WITH_KNOTS( '', 3, ( #421, #422, #423, #424 ), .UNSPECIFIED., .F., .F., ( 4, 4 ), ( 0.0201757967681981, 0.0214894077203397 ), .UNSPECIFIED. );
#359 = FILL_AREA_STYLE_COLOUR( '', #425 );
#360 = B_SPLINE_CURVE_WITH_KNOTS( '', 3, ( #426, #427, #428, #429 ), .UNSPECIFIED., .F., .F., ( 4, 4 ), ( 0.0201757967681981, 0.0214894077203397 ), .UNSPECIFIED. );
#361 = B_SPLINE_CURVE_WITH_KNOTS( '', 3, ( #430, #431, #432, #433 ), .UNSPECIFIED., .F., .F., ( 4, 4 ), ( 0.00855302721908261, 0.00986748988713592 ), .UNSPECIFIED. );
#362 = FILL_AREA_STYLE_COLOUR( '', #434 );
#363 = LINE( '', #435, #436 );
#364 = FILL_AREA_STYLE_COLOUR( '', #437 );
#365 = FILL_AREA_STYLE_COLOUR( '', #438 );
#366 = COLOUR_RGB( '', 0.689999997600000, 0.689999997600000, 0.689999997600000 );
#367 = CARTESIAN_POINT( '', ( 51.8660700000000, 3.60000000000000, 0.000000000000000 ) );
#368 = AXIS2_PLACEMENT_3D( '', #439, #440, #441 );
#369 = CARTESIAN_POINT( '', ( 51.0000000000000, 5.00000000000000, 0.000000000000000 ) );
#370 = AXIS2_PLACEMENT_3D( '', #442, #443, #444 );
#371 = COLOUR_RGB( '', 0.689999997600000, 0.689999997600000, 0.689999997600000 );
#372 = CARTESIAN_POINT( '', ( 0.920000000000004, -0.899999999999991, 4.91833305094318 ) );
#373 = CARTESIAN_POINT( '', ( 0.920000000000004, -0.899999999999991, -4.91833305094318 ) );
#374 = AXIS2_PLACEMENT_3D( '', #445, #446, #447 );
#375 = CARTESIAN_POINT( '', ( 3.00000000000000, -0.899999999999994, -4.91833305094317 ) );
#376 = CARTESIAN_POINT( '', ( 60.0000000000000, -0.899999999999995, -4.91833305094318 ) );
#377 = VECTOR( '', #448, 1000.00000000000 );
#378 = CARTESIAN_POINT( '', ( 3.00000000000000, 0.900000000000005, -4.91833305094317 ) );
#379 = AXIS2_PLACEMENT_3D( '', #449, #450, #451 );
#380 = CARTESIAN_POINT( '', ( 0.920000000000004, 0.900000000000009, -4.91833305094317 ) );
#381 = CARTESIAN_POINT( '', ( 60.0000000000000, 0.900000000000005, -4.91833305094317 ) );
#382 = VECTOR( '', #452, 1000.00000000000 );
#383 = CARTESIAN_POINT( '', ( 0.920000000000004, 0.900000000000009, 4.91833305094317 ) );
#384 = AXIS2_PLACEMENT_3D( '', #453, #454, #455 );
#385 = CARTESIAN_POINT( '', ( 3.00000000000000, 0.900000000000005, 4.91833305094317 ) );
#386 = CARTESIAN_POINT( '', ( 60.0000000000000, 0.900000000000005, 4.91833305094317 ) );
#387 = VECTOR( '', #456, 1000.00000000000 );
#388 = CARTESIAN_POINT( '', ( 3.00000000000000, -0.899999999999994, 4.91833305094317 ) );
#389 = AXIS2_PLACEMENT_3D( '', #457, #458, #459 );
#390 = CARTESIAN_POINT( '', ( 60.0000000000000, -0.899999999999995, 4.91833305094318 ) );
#391 = VECTOR( '', #460, 1000.00000000000 );
#392 = COLOUR_RGB( '', 0.689999997600000, 0.689999997600000, 0.689999997600000 );
#393 = CARTESIAN_POINT( '', ( 55.5000000000000, 3.60000000000000, 0.000000000000000 ) );
#394 = AXIS2_PLACEMENT_3D( '', #461, #462, #463 );
#395 = COLOUR_RGB( '', 0.689999997600000, 0.689999997600000, 0.689999997600000 );
#396 = CARTESIAN_POINT( '', ( 58.6773037637589, 4.00000000000000, 0.000000000000000 ) );
#397 = AXIS2_PLACEMENT_3D( '', #464, #465, #466 );
#398 = COLOUR_RGB( '', 0.689999997600000, 0.689999997600000, 0.689999997600000 );
#399 = CARTESIAN_POINT( '', ( 0.000000000000000, 0.900000000000005, -3.97949745570970 ) );
#400 = CARTESIAN_POINT( '', ( 0.000000000000000, 0.900000000000005, 3.97949745570970 ) );
#401 = AXIS2_PLACEMENT_3D( '', #467, #468, #469 );
#402 = CARTESIAN_POINT( '', ( 0.000000000000000, 0.900000000000005, 10.5000000000000 ) );
#403 = VECTOR( '', #470, 1000.00000000000 );
#404 = COLOUR_RGB( '', 0.689999997600000, 0.689999997600000, 0.689999997600000 );
#405 = CARTESIAN_POINT( '', ( 55.5000000000000, 4.00000000000000, 0.000000000000000 ) );
#406 = AXIS2_PLACEMENT_3D( '', #471, #472, #473 );
#407 = COLOUR_RGB( '', 0.689999997600000, 0.689999997600000, 0.689999997600000 );
#408 = COLOUR_RGB( '', 0.689999997600000, 0.689999997600000, 0.689999997600000 );
#409 = CARTESIAN_POINT( '', ( 0.000000000000000, -0.899999999999994, 3.97949745570970 ) );
#410 = CARTESIAN_POINT( '', ( 0.000000000000000, -0.899999999999994, -3.97949745570970 ) );
#411 = AXIS2_PLACEMENT_3D( '', #474, #475, #476 );
#412 = CARTESIAN_POINT( '', ( 0.000000000000000, -0.899999999999995, -10.5000000000000 ) );
#413 = VECTOR( '', #477, 1000.00000000000 );
#414 = COLOUR_RGB( '', 0.689999997600000, 0.689999997600000, 0.689999997600000 );
#415 = CARTESIAN_POINT( '', ( 0.920000000000000, -0.899999999999995, 4.91833305094318 ) );
#416 = CARTESIAN_POINT( '', ( 0.612739261072119, -0.899999999999995, 4.60597037059464 ) );
#417 = CARTESIAN_POINT( '', ( 0.305935608496525, -0.899999999999995, 4.29315949383336 ) );
#418 = CARTESIAN_POINT( '', ( -1.34582577845783E-15, -0.899999999999995, 3.97949745570970 ) );
#419 = CARTESIAN_POINT( '', ( 3.00000000000000, -0.899999999999995, -10.5000000000000 ) );
#420 = VECTOR( '', #478, 1000.00000000000 );
#421 = CARTESIAN_POINT( '', ( 2.89847860650126E-16, -0.899999999999995, -3.97949745570970 ) );
#422 = CARTESIAN_POINT( '', ( 0.305938770650471, -0.899999999999995, -4.29316273584777 ) );
#423 = CARTESIAN_POINT( '', ( 0.612741841782415, -0.899999999999995, -4.60597299415660 ) );
#424 = CARTESIAN_POINT( '', ( 0.920000000000001, -0.899999999999995, -4.91833305094318 ) );
#425 = COLOUR_RGB( '', 0.689999997600000, 0.689999997600000, 0.689999997600000 );
#426 = CARTESIAN_POINT( '', ( -4.68354095998620E-16, 0.900000000000005, 3.97949745570970 ) );
#427 = CARTESIAN_POINT( '', ( 0.305938770650470, 0.900000000000005, 4.29316273584777 ) );
#428 = CARTESIAN_POINT( '', ( 0.612741841782414, 0.900000000000005, 4.60597299415660 ) );
#429 = CARTESIAN_POINT( '', ( 0.920000000000000, 0.900000000000005, 4.91833305094318 ) );
#430 = CARTESIAN_POINT( '', ( 0.920000000000001, 0.900000000000005, -4.91833305094318 ) );
#431 = CARTESIAN_POINT( '', ( 0.612739261072120, 0.900000000000005, -4.60597037059464 ) );
#432 = CARTESIAN_POINT( '', ( 0.305935608496525, 0.900000000000005, -4.29315949383336 ) );
#433 = CARTESIAN_POINT( '', ( -8.43797886681952E-16, 0.900000000000005, -3.97949745570970 ) );
#434 = COLOUR_RGB( '', 0.689999997600000, 0.689999997600000, 0.689999997600000 );
#435 = CARTESIAN_POINT( '', ( 3.00000000000000, 0.900000000000005, 10.5000000000000 ) );
#436 = VECTOR( '', #479, 1000.00000000000 );
#437 = COLOUR_RGB( '', 0.689999997600000, 0.689999997600000, 0.689999997600000 );
#438 = COLOUR_RGB( '', 0.689999997600000, 0.689999997600000, 0.689999997600000 );
#439 = CARTESIAN_POINT( '', ( 51.8660700000000, 2.27441640634968E-15, 0.000000000000000 ) );
#440 = DIRECTION( '', ( 1.00000000000000, -6.12323399573677E-17, -0.000000000000000 ) );
#441 = DIRECTION( '', ( 6.12323399573677E-17, 1.00000000000000, 0.000000000000000 ) );
#442 = CARTESIAN_POINT( '', ( 51.0000000000000, 2.32744789901656E-15, 0.000000000000000 ) );
#443 = DIRECTION( '', ( 1.00000000000000, -6.12323399573677E-17, -0.000000000000000 ) );
#444 = DIRECTION( '', ( 6.12323399573677E-17, 1.00000000000000, 0.000000000000000 ) );
#445 = CARTESIAN_POINT( '', ( 0.919999999999997, 5.39396348408153E-15, 0.000000000000000 ) );
#446 = DIRECTION( '', ( 1.00000000000000, -6.12323399573677E-17, -0.000000000000000 ) );
#447 = DIRECTION( '', ( 6.12323399573677E-17, 1.00000000000000, 0.000000000000000 ) );
#448 = DIRECTION( '', ( 1.00000000000000, -6.12323399573677E-17, -0.000000000000000 ) );
#449 = CARTESIAN_POINT( '', ( 3.00000000000000, 5.26660021697021E-15, 0.000000000000000 ) );
#450 = DIRECTION( '', ( -1.00000000000000, 0.000000000000000, 0.000000000000000 ) );
#451 = DIRECTION( '', ( 0.000000000000000, 0.000000000000000, 1.00000000000000 ) );
#452 = DIRECTION( '', ( 1.00000000000000, -6.12323399573677E-17, -0.000000000000000 ) );
#453 = CARTESIAN_POINT( '', ( 0.919999999999997, 5.39396348408153E-15, 0.000000000000000 ) );
#454 = DIRECTION( '', ( 1.00000000000000, -6.12323399573677E-17, -0.000000000000000 ) );
#455 = DIRECTION( '', ( 6.12323399573677E-17, 1.00000000000000, 0.000000000000000 ) );
#456 = DIRECTION( '', ( 1.00000000000000, -6.12323399573677E-17, -0.000000000000000 ) );
#457 = CARTESIAN_POINT( '', ( 3.00000000000000, 5.26660021697021E-15, 0.000000000000000 ) );
#458 = DIRECTION( '', ( -1.00000000000000, 0.000000000000000, 0.000000000000000 ) );
#459 = DIRECTION( '', ( 0.000000000000000, 0.000000000000000, 1.00000000000000 ) );
#460 = DIRECTION( '', ( 1.00000000000000, -6.12323399573677E-17, -0.000000000000000 ) );
#461 = CARTESIAN_POINT( '', ( 55.5000000000000, 2.05190236920840E-15, 0.000000000000000 ) );
#462 = DIRECTION( '', ( 1.00000000000000, -6.12323399573677E-17, -0.000000000000000 ) );
#463 = DIRECTION( '', ( 6.12323399573677E-17, 1.00000000000000, 0.000000000000000 ) );
#464 = CARTESIAN_POINT( '', ( 58.6773037637589, 1.85734862499809E-15, 0.000000000000000 ) );
#465 = DIRECTION( '', ( 1.00000000000000, -6.12323399573677E-17, -0.000000000000000 ) );
#466 = DIRECTION( '', ( 6.12323399573677E-17, 1.00000000000000, 0.000000000000000 ) );
#467 = CARTESIAN_POINT( '', ( 0.000000000000000, 5.45029723684231E-15, 0.000000000000000 ) );
#468 = DIRECTION( '', ( 1.00000000000000, -6.12323399573677E-17, -0.000000000000000 ) );
#469 = DIRECTION( '', ( 6.12323399573677E-17, 1.00000000000000, 0.000000000000000 ) );
#470 = DIRECTION( '', ( 0.000000000000000, 0.000000000000000, -1.00000000000000 ) );
#471 = CARTESIAN_POINT( '', ( 55.5000000000000, 2.05190236920840E-15, 0.000000000000000 ) );
#472 = DIRECTION( '', ( 1.00000000000000, -6.12323399573677E-17, -0.000000000000000 ) );
#473 = DIRECTION( '', ( 6.12323399573677E-17, 1.00000000000000, 0.000000000000000 ) );
#474 = CARTESIAN_POINT( '', ( 0.000000000000000, 5.45029723684231E-15, 0.000000000000000 ) );
#475 = DIRECTION( '', ( 1.00000000000000, -6.12323399573677E-17, -0.000000000000000 ) );
#476 = DIRECTION( '', ( 6.12323399573677E-17, 1.00000000000000, 0.000000000000000 ) );
#477 = DIRECTION( '', ( 0.000000000000000, 0.000000000000000, 1.00000000000000 ) );
#478 = DIRECTION( '', ( 0.000000000000000, 0.000000000000000, 1.00000000000000 ) );
#479 = DIRECTION( '', ( 0.000000000000000, 0.000000000000000, -1.00000000000000 ) );
ENDSEC;
END-ISO-10303-21;
