ISO-10303-21;
HEADER;
FILE_DESCRIPTION( ( 'STEP AP214' ), '1' );
FILE_NAME( '//goodhand-server/Shared Folders/GoodHand Data/Kipp CAD/K0714/K0714.08.stp', '2020-12-09T12:40:37', ( '' ), ( '' ), ' ', 'PARTsolutions', ' ' );
FILE_SCHEMA( ( 'AUTOMOTIVE_DESIGN { 1 0 10303 214 1 1 1 1 }' ) );
ENDSEC;
DATA;
#1 = MECHANICAL_DESIGN_GEOMETRIC_PRESENTATION_REPRESENTATION( ' ', ( #10, #11, #12, #13, #14, #15, #16, #17, #18, #19, #20, #21 ), #6 );
#2 = PRODUCT_DEFINITION_CONTEXT( '', #22, 'design' );
#3 = APPLICATION_PROTOCOL_DEFINITION( 'international standard', 'automotive_design', 2001, #22 );
#4 = PRODUCT_CATEGORY_RELATIONSHIP( 'NONE', 'NONE', #23, #24 );
#5 = SHAPE_DEFINITION_REPRESENTATION( #25, #26 );
#6 =  ( GEOMETRIC_REPRESENTATION_CONTEXT( 3 )GLOBAL_UNCERTAINTY_ASSIGNED_CONTEXT( ( #29 ) )GLOBAL_UNIT_ASSIGNED_CONTEXT( ( #31, #32, #33 ) )REPRESENTATION_CONTEXT( 'NONE', 'WORKSPACE' ) );
#10 = STYLED_ITEM( '', ( #35 ), #36 );
#11 = STYLED_ITEM( '', ( #37 ), #38 );
#12 = STYLED_ITEM( '', ( #39 ), #40 );
#13 = STYLED_ITEM( '', ( #41 ), #42 );
#14 = STYLED_ITEM( '', ( #43 ), #44 );
#15 = STYLED_ITEM( '', ( #45 ), #46 );
#16 = STYLED_ITEM( '', ( #47 ), #48 );
#17 = STYLED_ITEM( '', ( #49 ), #50 );
#18 = STYLED_ITEM( '', ( #51 ), #52 );
#19 = STYLED_ITEM( '', ( #53 ), #54 );
#20 = STYLED_ITEM( '', ( #55 ), #56 );
#21 = STYLED_ITEM( '', ( #57 ), #58 );
#22 = APPLICATION_CONTEXT( 'core data for automotive mechanical design processes' );
#23 = PRODUCT_CATEGORY( 'part', 'NONE' );
#24 = PRODUCT_RELATED_PRODUCT_CATEGORY( 'detail', ' ', ( #59 ) );
#25 = PRODUCT_DEFINITION_SHAPE( 'NONE', 'NONE', #60 );
#26 = ADVANCED_BREP_SHAPE_REPRESENTATION( '_K0714.08', ( #61, #62 ), #6 );
#29 = UNCERTAINTY_MEASURE_WITH_UNIT( LENGTH_MEASURE( 0.00100000000000000 ), #31, '', '' );
#31 =  ( CONVERSION_BASED_UNIT( 'MILLIMETRE', #65 )LENGTH_UNIT(  )NAMED_UNIT( #68 ) );
#32 =  ( NAMED_UNIT( #70 )PLANE_ANGLE_UNIT(  )SI_UNIT( $, .RADIAN. ) );
#33 =  ( NAMED_UNIT( #70 )SI_UNIT( $, .STERADIAN. )SOLID_ANGLE_UNIT(  ) );
#35 = PRESENTATION_STYLE_ASSIGNMENT( ( #76 ) );
#36 = ADVANCED_FACE( '', ( #77 ), #78, .F. );
#37 = PRESENTATION_STYLE_ASSIGNMENT( ( #79 ) );
#38 = ADVANCED_FACE( '', ( #80 ), #81, .T. );
#39 = PRESENTATION_STYLE_ASSIGNMENT( ( #82 ) );
#40 = ADVANCED_FACE( '', ( #83 ), #84, .F. );
#41 = PRESENTATION_STYLE_ASSIGNMENT( ( #85 ) );
#42 = ADVANCED_FACE( '', ( #86 ), #87, .F. );
#43 = PRESENTATION_STYLE_ASSIGNMENT( ( #88 ) );
#44 = ADVANCED_FACE( '', ( #89 ), #90, .F. );
#45 = PRESENTATION_STYLE_ASSIGNMENT( ( #91 ) );
#46 = ADVANCED_FACE( '', ( #92 ), #93, .T. );
#47 = PRESENTATION_STYLE_ASSIGNMENT( ( #94 ) );
#48 = ADVANCED_FACE( '', ( #95 ), #96, .T. );
#49 = PRESENTATION_STYLE_ASSIGNMENT( ( #97 ) );
#50 = ADVANCED_FACE( '', ( #98 ), #99, .F. );
#51 = PRESENTATION_STYLE_ASSIGNMENT( ( #100 ) );
#52 = ADVANCED_FACE( '', ( #101 ), #102, .F. );
#53 = PRESENTATION_STYLE_ASSIGNMENT( ( #103 ) );
#54 = ADVANCED_FACE( '', ( #104 ), #105, .T. );
#55 = PRESENTATION_STYLE_ASSIGNMENT( ( #106 ) );
#56 = ADVANCED_FACE( '', ( #107 ), #108, .F. );
#57 = PRESENTATION_STYLE_ASSIGNMENT( ( #109 ) );
#58 = ADVANCED_FACE( '', ( #110 ), #111, .F. );
#59 = PRODUCT( '_K0714.08', '_K0714.08', 'PART-_K0714.08-DESC', ( #112 ) );
#60 = PRODUCT_DEFINITION( 'NONE', 'NONE', #113, #2 );
#61 = MANIFOLD_SOLID_BREP( '_K0714.08', #114 );
#62 = AXIS2_PLACEMENT_3D( '', #115, #116, #117 );
#65 = LENGTH_MEASURE_WITH_UNIT( LENGTH_MEASURE( 1.00000000000000 ), #118 );
#68 = DIMENSIONAL_EXPONENTS( 1.00000000000000, 0.000000000000000, 0.000000000000000, 0.000000000000000, 0.000000000000000, 0.000000000000000, 0.000000000000000 );
#70 = DIMENSIONAL_EXPONENTS( 0.000000000000000, 0.000000000000000, 0.000000000000000, 0.000000000000000, 0.000000000000000, 0.000000000000000, 0.000000000000000 );
#76 = SURFACE_STYLE_USAGE( .BOTH., #119 );
#77 = FACE_OUTER_BOUND( '', #120, .T. );
#78 = PLANE( '', #121 );
#79 = SURFACE_STYLE_USAGE( .BOTH., #122 );
#80 = FACE_OUTER_BOUND( '', #123, .T. );
#81 = CYLINDRICAL_SURFACE( '', #124, 3.85000000000000 );
#82 = SURFACE_STYLE_USAGE( .BOTH., #125 );
#83 = FACE_OUTER_BOUND( '', #126, .T. );
#84 = PLANE( '', #127 );
#85 = SURFACE_STYLE_USAGE( .BOTH., #128 );
#86 = FACE_OUTER_BOUND( '', #129, .T. );
#87 = CYLINDRICAL_SURFACE( '', #130, 3.50000000000000 );
#88 = SURFACE_STYLE_USAGE( .BOTH., #131 );
#89 = FACE_OUTER_BOUND( '', #132, .T. );
#90 = PLANE( '', #133 );
#91 = SURFACE_STYLE_USAGE( .BOTH., #134 );
#92 = FACE_OUTER_BOUND( '', #135, .T. );
#93 = PLANE( '', #136 );
#94 = SURFACE_STYLE_USAGE( .BOTH., #137 );
#95 = FACE_OUTER_BOUND( '', #138, .T. );
#96 = CYLINDRICAL_SURFACE( '', #139, 0.700000000000000 );
#97 = SURFACE_STYLE_USAGE( .BOTH., #140 );
#98 = FACE_OUTER_BOUND( '', #141, .T. );
#99 = PLANE( '', #142 );
#100 = SURFACE_STYLE_USAGE( .BOTH., #143 );
#101 = FACE_OUTER_BOUND( '', #144, .T. );
#102 = PLANE( '', #145 );
#103 = SURFACE_STYLE_USAGE( .BOTH., #146 );
#104 = FACE_OUTER_BOUND( '', #147, .T. );
#105 = PLANE( '', #148 );
#106 = SURFACE_STYLE_USAGE( .BOTH., #149 );
#107 = FACE_OUTER_BOUND( '', #150, .T. );
#108 = CYLINDRICAL_SURFACE( '', #151, 0.350000000000000 );
#109 = SURFACE_STYLE_USAGE( .BOTH., #152 );
#110 = FACE_OUTER_BOUND( '', #153, .T. );
#111 = PLANE( '', #154 );
#112 = PRODUCT_CONTEXT( '', #22, 'mechanical' );
#113 = PRODUCT_DEFINITION_FORMATION_WITH_SPECIFIED_SOURCE( ' ', 'NONE', #59, .NOT_KNOWN. );
#114 = CLOSED_SHELL( '', ( #40, #54, #50, #58, #44, #36, #46, #56, #38, #52, #42, #48 ) );
#115 = CARTESIAN_POINT( '', ( 0.000000000000000, 0.000000000000000, 0.000000000000000 ) );
#116 = DIRECTION( '', ( 0.000000000000000, 0.000000000000000, 1.00000000000000 ) );
#117 = DIRECTION( '', ( 1.00000000000000, 0.000000000000000, 0.000000000000000 ) );
#118 =  ( LENGTH_UNIT(  )NAMED_UNIT( #68 )SI_UNIT( .MILLI., .METRE. ) );
#119 = SURFACE_SIDE_STYLE( '', ( #156 ) );
#120 = EDGE_LOOP( '', ( #157, #158, #159, #160 ) );
#121 = AXIS2_PLACEMENT_3D( '', #161, #162, #163 );
#122 = SURFACE_SIDE_STYLE( '', ( #164 ) );
#123 = EDGE_LOOP( '', ( #165, #166, #167, #168, #169, #170 ) );
#124 = AXIS2_PLACEMENT_3D( '', #171, #172, #173 );
#125 = SURFACE_SIDE_STYLE( '', ( #174 ) );
#126 = EDGE_LOOP( '', ( #175, #176, #177, #178 ) );
#127 = AXIS2_PLACEMENT_3D( '', #179, #180, #181 );
#128 = SURFACE_SIDE_STYLE( '', ( #182 ) );
#129 = EDGE_LOOP( '', ( #183, #184, #185, #186, #187, #188 ) );
#130 = AXIS2_PLACEMENT_3D( '', #189, #190, #191 );
#131 = SURFACE_SIDE_STYLE( '', ( #192 ) );
#132 = EDGE_LOOP( '', ( #193, #194, #195, #196 ) );
#133 = AXIS2_PLACEMENT_3D( '', #197, #198, #199 );
#134 = SURFACE_SIDE_STYLE( '', ( #200 ) );
#135 = EDGE_LOOP( '', ( #201, #202, #203, #204, #205, #206, #207, #208 ) );
#136 = AXIS2_PLACEMENT_3D( '', #209, #210, #211 );
#137 = SURFACE_SIDE_STYLE( '', ( #212 ) );
#138 = EDGE_LOOP( '', ( #213, #214, #215, #216 ) );
#139 = AXIS2_PLACEMENT_3D( '', #217, #218, #219 );
#140 = SURFACE_SIDE_STYLE( '', ( #220 ) );
#141 = EDGE_LOOP( '', ( #221, #222, #223, #224, #225, #226, #227, #228 ) );
#142 = AXIS2_PLACEMENT_3D( '', #229, #230, #231 );
#143 = SURFACE_SIDE_STYLE( '', ( #232 ) );
#144 = EDGE_LOOP( '', ( #233, #234, #235, #236 ) );
#145 = AXIS2_PLACEMENT_3D( '', #237, #238, #239 );
#146 = SURFACE_SIDE_STYLE( '', ( #240 ) );
#147 = EDGE_LOOP( '', ( #241, #242, #243, #244 ) );
#148 = AXIS2_PLACEMENT_3D( '', #245, #246, #247 );
#149 = SURFACE_SIDE_STYLE( '', ( #248 ) );
#150 = EDGE_LOOP( '', ( #249, #250, #251, #252 ) );
#151 = AXIS2_PLACEMENT_3D( '', #253, #254, #255 );
#152 = SURFACE_SIDE_STYLE( '', ( #256 ) );
#153 = EDGE_LOOP( '', ( #257, #258, #259, #260 ) );
#154 = AXIS2_PLACEMENT_3D( '', #261, #262, #263 );
#156 = SURFACE_STYLE_FILL_AREA( #264 );
#157 = ORIENTED_EDGE( '', *, *, #265, .T. );
#158 = ORIENTED_EDGE( '', *, *, #266, .F. );
#159 = ORIENTED_EDGE( '', *, *, #267, .F. );
#160 = ORIENTED_EDGE( '', *, *, #268, .T. );
#161 = CARTESIAN_POINT( '', ( 0.350000000000000, -1.67854103315946, 4.20000000000000 ) );
#162 = DIRECTION( '', ( 0.000000000000000, 0.000000000000000, 1.00000000000000 ) );
#163 = DIRECTION( '', ( 1.00000000000000, 0.000000000000000, -0.000000000000000 ) );
#164 = SURFACE_STYLE_FILL_AREA( #269 );
#165 = ORIENTED_EDGE( '', *, *, #270, .T. );
#166 = ORIENTED_EDGE( '', *, *, #271, .F. );
#167 = ORIENTED_EDGE( '', *, *, #272, .F. );
#168 = ORIENTED_EDGE( '', *, *, #273, .F. );
#169 = ORIENTED_EDGE( '', *, *, #274, .F. );
#170 = ORIENTED_EDGE( '', *, *, #275, .T. );
#171 = CARTESIAN_POINT( '', ( 0.350000000000000, 1.51788304147971E-15, 1.08420217248550E-15 ) );
#172 = DIRECTION( '', ( 1.00000000000000, -0.000000000000000, -0.000000000000000 ) );
#173 = DIRECTION( '', ( 0.000000000000000, 0.000000000000000, 1.00000000000000 ) );
#174 = SURFACE_STYLE_FILL_AREA( #276 );
#175 = ORIENTED_EDGE( '', *, *, #277, .T. );
#176 = ORIENTED_EDGE( '', *, *, #278, .F. );
#177 = ORIENTED_EDGE( '', *, *, #279, .F. );
#178 = ORIENTED_EDGE( '', *, *, #273, .T. );
#179 = CARTESIAN_POINT( '', ( 12.7000000000000, -1.61392005994353, -3.49539154317680 ) );
#180 = DIRECTION( '', ( 0.000000000000000, -0.866025403784438, 0.500000000000001 ) );
#181 = DIRECTION( '', ( 0.000000000000000, -0.500000000000001, -0.866025403784438 ) );
#182 = SURFACE_STYLE_FILL_AREA( #280 );
#183 = ORIENTED_EDGE( '', *, *, #281, .F. );
#184 = ORIENTED_EDGE( '', *, *, #282, .F. );
#185 = ORIENTED_EDGE( '', *, *, #283, .T. );
#186 = ORIENTED_EDGE( '', *, *, #278, .T. );
#187 = ORIENTED_EDGE( '', *, *, #284, .T. );
#188 = ORIENTED_EDGE( '', *, *, #285, .T. );
#189 = CARTESIAN_POINT( '', ( 0.350000000000000, -6.50521303491303E-16, 6.50521303491303E-16 ) );
#190 = DIRECTION( '', ( 1.00000000000000, -0.000000000000000, -0.000000000000000 ) );
#191 = DIRECTION( '', ( 0.000000000000000, 0.000000000000000, 1.00000000000000 ) );
#192 = SURFACE_STYLE_FILL_AREA( #286 );
#193 = ORIENTED_EDGE( '', *, *, #287, .T. );
#194 = ORIENTED_EDGE( '', *, *, #288, .F. );
#195 = ORIENTED_EDGE( '', *, *, #289, .F. );
#196 = ORIENTED_EDGE( '', *, *, #290, .T. );
#197 = CARTESIAN_POINT( '', ( 0.350000000000000, -0.700000000000006, 4.55000000000000 ) );
#198 = DIRECTION( '', ( 0.000000000000000, 0.000000000000000, -1.00000000000000 ) );
#199 = DIRECTION( '', ( -1.00000000000000, 0.000000000000000, 0.000000000000000 ) );
#200 = SURFACE_STYLE_FILL_AREA( #291 );
#201 = ORIENTED_EDGE( '', *, *, #277, .F. );
#202 = ORIENTED_EDGE( '', *, *, #272, .T. );
#203 = ORIENTED_EDGE( '', *, *, #292, .F. );
#204 = ORIENTED_EDGE( '', *, *, #267, .T. );
#205 = ORIENTED_EDGE( '', *, *, #293, .T. );
#206 = ORIENTED_EDGE( '', *, *, #289, .T. );
#207 = ORIENTED_EDGE( '', *, *, #294, .T. );
#208 = ORIENTED_EDGE( '', *, *, #284, .F. );
#209 = CARTESIAN_POINT( '', ( 0.350000000000000, -1.67854103315945, 3.85000000000000 ) );
#210 = DIRECTION( '', ( 1.00000000000000, 0.000000000000000, 0.000000000000000 ) );
#211 = DIRECTION( '', ( 0.000000000000000, 0.000000000000000, -1.00000000000000 ) );
#212 = SURFACE_STYLE_FILL_AREA( #295 );
#213 = ORIENTED_EDGE( '', *, *, #296, .T. );
#214 = ORIENTED_EDGE( '', *, *, #285, .F. );
#215 = ORIENTED_EDGE( '', *, *, #294, .F. );
#216 = ORIENTED_EDGE( '', *, *, #288, .T. );
#217 = CARTESIAN_POINT( '', ( 0.350000000000000, -1.67854103315945, 3.85000000000000 ) );
#218 = DIRECTION( '', ( 1.00000000000000, -0.000000000000000, -0.000000000000000 ) );
#219 = DIRECTION( '', ( 0.000000000000000, 0.000000000000000, 1.00000000000000 ) );
#220 = SURFACE_STYLE_FILL_AREA( #297 );
#221 = ORIENTED_EDGE( '', *, *, #298, .F. );
#222 = ORIENTED_EDGE( '', *, *, #265, .F. );
#223 = ORIENTED_EDGE( '', *, *, #299, .T. );
#224 = ORIENTED_EDGE( '', *, *, #270, .F. );
#225 = ORIENTED_EDGE( '', *, *, #300, .F. );
#226 = ORIENTED_EDGE( '', *, *, #281, .T. );
#227 = ORIENTED_EDGE( '', *, *, #296, .F. );
#228 = ORIENTED_EDGE( '', *, *, #287, .F. );
#229 = CARTESIAN_POINT( '', ( 0.000000000000000, -1.67854103315945, 3.85000000000000 ) );
#230 = DIRECTION( '', ( 1.00000000000000, 0.000000000000000, 0.000000000000000 ) );
#231 = DIRECTION( '', ( 0.000000000000000, 0.000000000000000, -1.00000000000000 ) );
#232 = SURFACE_STYLE_FILL_AREA( #301 );
#233 = ORIENTED_EDGE( '', *, *, #300, .T. );
#234 = ORIENTED_EDGE( '', *, *, #275, .F. );
#235 = ORIENTED_EDGE( '', *, *, #302, .F. );
#236 = ORIENTED_EDGE( '', *, *, #282, .T. );
#237 = CARTESIAN_POINT( '', ( 0.350000000000000, -1.75000000000000, -3.03108891324554 ) );
#238 = DIRECTION( '', ( 0.000000000000000, 0.866025403784445, -0.499999999999989 ) );
#239 = DIRECTION( '', ( 0.000000000000000, 0.499999999999988, 0.866025403784445 ) );
#240 = SURFACE_STYLE_FILL_AREA( #303 );
#241 = ORIENTED_EDGE( '', *, *, #283, .F. );
#242 = ORIENTED_EDGE( '', *, *, #302, .T. );
#243 = ORIENTED_EDGE( '', *, *, #274, .T. );
#244 = ORIENTED_EDGE( '', *, *, #279, .T. );
#245 = CARTESIAN_POINT( '', ( 12.7000000000000, 2.90566182226115E-14, 4.64038529823796E-14 ) );
#246 = DIRECTION( '', ( 1.00000000000000, 0.000000000000000, 0.000000000000000 ) );
#247 = DIRECTION( '', ( 0.000000000000000, 0.000000000000000, -1.00000000000000 ) );
#248 = SURFACE_STYLE_FILL_AREA( #304 );
#249 = ORIENTED_EDGE( '', *, *, #299, .F. );
#250 = ORIENTED_EDGE( '', *, *, #268, .F. );
#251 = ORIENTED_EDGE( '', *, *, #292, .T. );
#252 = ORIENTED_EDGE( '', *, *, #271, .T. );
#253 = CARTESIAN_POINT( '', ( 0.350000000000000, -1.67854103315945, 3.85000000000000 ) );
#254 = DIRECTION( '', ( 1.00000000000000, -0.000000000000000, -0.000000000000000 ) );
#255 = DIRECTION( '', ( 0.000000000000000, 0.000000000000000, 1.00000000000000 ) );
#256 = SURFACE_STYLE_FILL_AREA( #305 );
#257 = ORIENTED_EDGE( '', *, *, #298, .T. );
#258 = ORIENTED_EDGE( '', *, *, #290, .F. );
#259 = ORIENTED_EDGE( '', *, *, #293, .F. );
#260 = ORIENTED_EDGE( '', *, *, #266, .T. );
#261 = CARTESIAN_POINT( '', ( 0.350000000000000, -0.700000000000006, 4.20000000000000 ) );
#262 = DIRECTION( '', ( 0.000000000000000, -1.00000000000000, 0.000000000000000 ) );
#263 = DIRECTION( '', ( 0.000000000000000, 0.000000000000000, -1.00000000000000 ) );
#264 = FILL_AREA_STYLE( '', ( #306 ) );
#265 = EDGE_CURVE( '', #307, #308, #309, .T. );
#266 = EDGE_CURVE( '', #310, #308, #311, .T. );
#267 = EDGE_CURVE( '', #312, #310, #313, .T. );
#268 = EDGE_CURVE( '', #312, #307, #314, .T. );
#269 = FILL_AREA_STYLE( '', ( #315 ) );
#270 = EDGE_CURVE( '', #316, #317, #318, .T. );
#271 = EDGE_CURVE( '', #319, #317, #320, .T. );
#272 = EDGE_CURVE( '', #321, #319, #322, .T. );
#273 = EDGE_CURVE( '', #323, #321, #324, .T. );
#274 = EDGE_CURVE( '', #325, #323, #326, .T. );
#275 = EDGE_CURVE( '', #325, #316, #327, .T. );
#276 = FILL_AREA_STYLE( '', ( #328 ) );
#277 = EDGE_CURVE( '', #321, #329, #330, .T. );
#278 = EDGE_CURVE( '', #331, #329, #332, .T. );
#279 = EDGE_CURVE( '', #323, #331, #333, .T. );
#280 = FILL_AREA_STYLE( '', ( #334 ) );
#281 = EDGE_CURVE( '', #335, #336, #337, .T. );
#282 = EDGE_CURVE( '', #338, #335, #339, .T. );
#283 = EDGE_CURVE( '', #338, #331, #340, .T. );
#284 = EDGE_CURVE( '', #329, #341, #342, .T. );
#285 = EDGE_CURVE( '', #341, #336, #343, .T. );
#286 = FILL_AREA_STYLE( '', ( #344 ) );
#287 = EDGE_CURVE( '', #345, #346, #347, .T. );
#288 = EDGE_CURVE( '', #348, #346, #349, .T. );
#289 = EDGE_CURVE( '', #350, #348, #351, .T. );
#290 = EDGE_CURVE( '', #350, #345, #352, .T. );
#291 = FILL_AREA_STYLE( '', ( #353 ) );
#292 = EDGE_CURVE( '', #312, #319, #354, .T. );
#293 = EDGE_CURVE( '', #310, #350, #355, .T. );
#294 = EDGE_CURVE( '', #348, #341, #356, .T. );
#295 = FILL_AREA_STYLE( '', ( #357 ) );
#296 = EDGE_CURVE( '', #346, #336, #358, .T. );
#297 = FILL_AREA_STYLE( '', ( #359 ) );
#298 = EDGE_CURVE( '', #308, #345, #360, .T. );
#299 = EDGE_CURVE( '', #307, #317, #361, .T. );
#300 = EDGE_CURVE( '', #335, #316, #362, .T. );
#301 = FILL_AREA_STYLE( '', ( #363 ) );
#302 = EDGE_CURVE( '', #338, #325, #364, .T. );
#303 = FILL_AREA_STYLE( '', ( #365 ) );
#304 = FILL_AREA_STYLE( '', ( #366 ) );
#305 = FILL_AREA_STYLE( '', ( #367 ) );
#306 = FILL_AREA_STYLE_COLOUR( '', #368 );
#307 = VERTEX_POINT( '', #369 );
#308 = VERTEX_POINT( '', #370 );
#309 = LINE( '', #371, #372 );
#310 = VERTEX_POINT( '', #373 );
#311 = LINE( '', #374, #375 );
#312 = VERTEX_POINT( '', #376 );
#313 = LINE( '', #377, #378 );
#314 = LINE( '', #379, #380 );
#315 = FILL_AREA_STYLE_COLOUR( '', #381 );
#316 = VERTEX_POINT( '', #382 );
#317 = VERTEX_POINT( '', #383 );
#318 = CIRCLE( '', #384, 3.85000000000000 );
#319 = VERTEX_POINT( '', #385 );
#320 = LINE( '', #386, #387 );
#321 = VERTEX_POINT( '', #388 );
#322 = CIRCLE( '', #389, 3.85000000000000 );
#323 = VERTEX_POINT( '', #390 );
#324 = LINE( '', #391, #392 );
#325 = VERTEX_POINT( '', #393 );
#326 = CIRCLE( '', #394, 3.85000000000000 );
#327 = LINE( '', #395, #396 );
#328 = FILL_AREA_STYLE_COLOUR( '', #397 );
#329 = VERTEX_POINT( '', #398 );
#330 = LINE( '', #399, #400 );
#331 = VERTEX_POINT( '', #401 );
#332 = LINE( '', #402, #403 );
#333 = LINE( '', #404, #405 );
#334 = FILL_AREA_STYLE_COLOUR( '', #406 );
#335 = VERTEX_POINT( '', #407 );
#336 = VERTEX_POINT( '', #408 );
#337 = CIRCLE( '', #409, 3.50000000000000 );
#338 = VERTEX_POINT( '', #410 );
#339 = LINE( '', #411, #412 );
#340 = CIRCLE( '', #413, 3.50000000000000 );
#341 = VERTEX_POINT( '', #414 );
#342 = CIRCLE( '', #415, 3.50000000000000 );
#343 = LINE( '', #416, #417 );
#344 = FILL_AREA_STYLE_COLOUR( '', #418 );
#345 = VERTEX_POINT( '', #419 );
#346 = VERTEX_POINT( '', #420 );
#347 = LINE( '', #421, #422 );
#348 = VERTEX_POINT( '', #423 );
#349 = LINE( '', #424, #425 );
#350 = VERTEX_POINT( '', #426 );
#351 = LINE( '', #427, #428 );
#352 = LINE( '', #429, #430 );
#353 = FILL_AREA_STYLE_COLOUR( '', #431 );
#354 = CIRCLE( '', #432, 0.350000000000000 );
#355 = LINE( '', #433, #434 );
#356 = CIRCLE( '', #435, 0.700000000000000 );
#357 = FILL_AREA_STYLE_COLOUR( '', #436 );
#358 = CIRCLE( '', #437, 0.700000000000000 );
#359 = FILL_AREA_STYLE_COLOUR( '', #438 );
#360 = LINE( '', #439, #440 );
#361 = CIRCLE( '', #441, 0.350000000000000 );
#362 = LINE( '', #442, #443 );
#363 = FILL_AREA_STYLE_COLOUR( '', #444 );
#364 = LINE( '', #445, #446 );
#365 = FILL_AREA_STYLE_COLOUR( '', #447 );
#366 = FILL_AREA_STYLE_COLOUR( '', #448 );
#367 = FILL_AREA_STYLE_COLOUR( '', #449 );
#368 = COLOUR_RGB( '', 0.689999997600000, 0.689999997600000, 0.689999997600000 );
#369 = CARTESIAN_POINT( '', ( 0.000000000000000, -1.67854103315946, 4.20000000000000 ) );
#370 = CARTESIAN_POINT( '', ( 0.000000000000000, -0.700000000000006, 4.20000000000000 ) );
#371 = CARTESIAN_POINT( '', ( 0.000000000000000, -1.67854103315946, 4.20000000000000 ) );
#372 = VECTOR( '', #450, 1000.00000000000 );
#373 = CARTESIAN_POINT( '', ( 0.350000000000000, -0.700000000000006, 4.20000000000000 ) );
#374 = CARTESIAN_POINT( '', ( 0.350000000000000, -0.700000000000006, 4.20000000000000 ) );
#375 = VECTOR( '', #451, 1000.00000000000 );
#376 = CARTESIAN_POINT( '', ( 0.350000000000000, -1.67854103315946, 4.20000000000000 ) );
#377 = CARTESIAN_POINT( '', ( 0.350000000000000, -1.67854103315946, 4.20000000000000 ) );
#378 = VECTOR( '', #452, 1000.00000000000 );
#379 = CARTESIAN_POINT( '', ( 0.350000000000000, -1.67854103315946, 4.20000000000000 ) );
#380 = VECTOR( '', #453, 1000.00000000000 );
#381 = COLOUR_RGB( '', 0.689999997600000, 0.689999997600000, 0.689999997600000 );
#382 = CARTESIAN_POINT( '', ( 0.000000000000000, -1.92500000000000, -3.33419780457009 ) );
#383 = CARTESIAN_POINT( '', ( 0.000000000000000, -1.53866261372950, 3.52916666666667 ) );
#384 = AXIS2_PLACEMENT_3D( '', #454, #455, #456 );
#385 = CARTESIAN_POINT( '', ( 0.350000000000000, -1.53866261372950, 3.52916666666667 ) );
#386 = CARTESIAN_POINT( '', ( 0.350000000000000, -1.53866261372950, 3.52916666666667 ) );
#387 = VECTOR( '', #457, 1000.00000000000 );
#388 = CARTESIAN_POINT( '', ( 0.350000000000000, -1.61392005994353, -3.49539154317680 ) );
#389 = AXIS2_PLACEMENT_3D( '', #458, #459, #460 );
#390 = CARTESIAN_POINT( '', ( 12.7000000000000, -1.61392005994353, -3.49539154317680 ) );
#391 = CARTESIAN_POINT( '', ( 12.7000000000000, -1.61392005994353, -3.49539154317680 ) );
#392 = VECTOR( '', #461, 1000.00000000000 );
#393 = CARTESIAN_POINT( '', ( 12.7000000000000, -1.92500000000000, -3.33419780457009 ) );
#394 = AXIS2_PLACEMENT_3D( '', #462, #463, #464 );
#395 = CARTESIAN_POINT( '', ( 0.350000000000000, -1.92500000000000, -3.33419780457009 ) );
#396 = VECTOR( '', #465, 1000.00000000000 );
#397 = COLOUR_RGB( '', 0.689999997600000, 0.689999997600000, 0.689999997600000 );
#398 = CARTESIAN_POINT( '', ( 0.350000000000000, -1.43811912361203, -3.19089538943247 ) );
#399 = CARTESIAN_POINT( '', ( 0.350000000000000, -1.61392005994353, -3.49539154317680 ) );
#400 = VECTOR( '', #466, 1000.00000000000 );
#401 = CARTESIAN_POINT( '', ( 12.7000000000000, -1.43811912361203, -3.19089538943247 ) );
#402 = CARTESIAN_POINT( '', ( 12.7000000000000, -1.43811912361203, -3.19089538943247 ) );
#403 = VECTOR( '', #467, 1000.00000000000 );
#404 = CARTESIAN_POINT( '', ( 12.7000000000000, -1.61392005994353, -3.49539154317680 ) );
#405 = VECTOR( '', #468, 1000.00000000000 );
#406 = COLOUR_RGB( '', 0.689999997600000, 0.689999997600000, 0.689999997600000 );
#407 = CARTESIAN_POINT( '', ( 0.000000000000000, -1.75000000000000, -3.03108891324553 ) );
#408 = CARTESIAN_POINT( '', ( 0.000000000000000, -1.39878419429955, 3.20833333333333 ) );
#409 = AXIS2_PLACEMENT_3D( '', #469, #470, #471 );
#410 = CARTESIAN_POINT( '', ( 12.7000000000000, -1.75000000000000, -3.03108891324554 ) );
#411 = CARTESIAN_POINT( '', ( 0.350000000000000, -1.75000000000000, -3.03108891324553 ) );
#412 = VECTOR( '', #472, 1000.00000000000 );
#413 = AXIS2_PLACEMENT_3D( '', #473, #474, #475 );
#414 = CARTESIAN_POINT( '', ( 0.350000000000000, -1.39878419429955, 3.20833333333333 ) );
#415 = AXIS2_PLACEMENT_3D( '', #476, #477, #478 );
#416 = CARTESIAN_POINT( '', ( 0.350000000000000, -1.39878419429955, 3.20833333333333 ) );
#417 = VECTOR( '', #479, 1000.00000000000 );
#418 = COLOUR_RGB( '', 0.689999997600000, 0.689999997600000, 0.689999997600000 );
#419 = CARTESIAN_POINT( '', ( 0.000000000000000, -0.700000000000006, 4.55000000000000 ) );
#420 = CARTESIAN_POINT( '', ( 0.000000000000000, -1.67854103315946, 4.55000000000000 ) );
#421 = CARTESIAN_POINT( '', ( 0.000000000000000, -0.700000000000006, 4.55000000000000 ) );
#422 = VECTOR( '', #480, 1000.00000000000 );
#423 = CARTESIAN_POINT( '', ( 0.350000000000000, -1.67854103315946, 4.55000000000000 ) );
#424 = CARTESIAN_POINT( '', ( 0.350000000000000, -1.67854103315946, 4.55000000000000 ) );
#425 = VECTOR( '', #481, 1000.00000000000 );
#426 = CARTESIAN_POINT( '', ( 0.350000000000000, -0.700000000000006, 4.55000000000000 ) );
#427 = CARTESIAN_POINT( '', ( 0.350000000000000, -0.700000000000006, 4.55000000000000 ) );
#428 = VECTOR( '', #482, 1000.00000000000 );
#429 = CARTESIAN_POINT( '', ( 0.350000000000000, -0.700000000000006, 4.55000000000000 ) );
#430 = VECTOR( '', #483, 1000.00000000000 );
#431 = COLOUR_RGB( '', 0.689999997600000, 0.689999997600000, 0.689999997600000 );
#432 = AXIS2_PLACEMENT_3D( '', #484, #485, #486 );
#433 = CARTESIAN_POINT( '', ( 0.350000000000000, -0.700000000000006, 4.20000000000000 ) );
#434 = VECTOR( '', #487, 1000.00000000000 );
#435 = AXIS2_PLACEMENT_3D( '', #488, #489, #490 );
#436 = COLOUR_RGB( '', 0.689999997600000, 0.689999997600000, 0.689999997600000 );
#437 = AXIS2_PLACEMENT_3D( '', #491, #492, #493 );
#438 = COLOUR_RGB( '', 0.689999997600000, 0.689999997600000, 0.689999997600000 );
#439 = CARTESIAN_POINT( '', ( 0.000000000000000, -0.700000000000006, 4.20000000000000 ) );
#440 = VECTOR( '', #494, 1000.00000000000 );
#441 = AXIS2_PLACEMENT_3D( '', #495, #496, #497 );
#442 = CARTESIAN_POINT( '', ( 0.000000000000000, -1.75000000000000, -3.03108891324554 ) );
#443 = VECTOR( '', #498, 1000.00000000000 );
#444 = COLOUR_RGB( '', 0.689999997600000, 0.689999997600000, 0.689999997600000 );
#445 = CARTESIAN_POINT( '', ( 12.7000000000000, -1.75000000000000, -3.03108891324554 ) );
#446 = VECTOR( '', #499, 1000.00000000000 );
#447 = COLOUR_RGB( '', 0.689999997600000, 0.689999997600000, 0.689999997600000 );
#448 = COLOUR_RGB( '', 0.689999997600000, 0.689999997600000, 0.689999997600000 );
#449 = COLOUR_RGB( '', 0.689999997600000, 0.689999997600000, 0.689999997600000 );
#450 = DIRECTION( '', ( 0.000000000000000, 1.00000000000000, 0.000000000000000 ) );
#451 = DIRECTION( '', ( -1.00000000000000, -0.000000000000000, -0.000000000000000 ) );
#452 = DIRECTION( '', ( 0.000000000000000, 1.00000000000000, 0.000000000000000 ) );
#453 = DIRECTION( '', ( -1.00000000000000, -0.000000000000000, -0.000000000000000 ) );
#454 = CARTESIAN_POINT( '', ( 0.000000000000000, 1.51788304147971E-15, 1.08420217248550E-15 ) );
#455 = DIRECTION( '', ( 1.00000000000000, 0.000000000000000, 0.000000000000000 ) );
#456 = DIRECTION( '', ( 0.000000000000000, 0.000000000000000, -1.00000000000000 ) );
#457 = DIRECTION( '', ( -1.00000000000000, -0.000000000000000, -0.000000000000000 ) );
#458 = CARTESIAN_POINT( '', ( 0.350000000000000, 1.51788304147971E-15, 1.08420217248550E-15 ) );
#459 = DIRECTION( '', ( 1.00000000000000, 0.000000000000000, 0.000000000000000 ) );
#460 = DIRECTION( '', ( 0.000000000000000, 0.000000000000000, -1.00000000000000 ) );
#461 = DIRECTION( '', ( -1.00000000000000, -0.000000000000000, -0.000000000000000 ) );
#462 = CARTESIAN_POINT( '', ( 12.7000000000000, -2.67364255734925E-13, -5.29958021910915E-13 ) );
#463 = DIRECTION( '', ( 1.00000000000000, 0.000000000000000, 0.000000000000000 ) );
#464 = DIRECTION( '', ( 0.000000000000000, 0.000000000000000, -1.00000000000000 ) );
#465 = DIRECTION( '', ( -1.00000000000000, -0.000000000000000, -0.000000000000000 ) );
#466 = DIRECTION( '', ( 0.000000000000000, 0.500000000000001, 0.866025403784438 ) );
#467 = DIRECTION( '', ( -1.00000000000000, -0.000000000000000, -0.000000000000000 ) );
#468 = DIRECTION( '', ( 0.000000000000000, 0.500000000000001, 0.866025403784438 ) );
#469 = CARTESIAN_POINT( '', ( 0.000000000000000, -6.50521303491303E-16, 6.50521303491303E-16 ) );
#470 = DIRECTION( '', ( 1.00000000000000, 0.000000000000000, 0.000000000000000 ) );
#471 = DIRECTION( '', ( 0.000000000000000, 0.000000000000000, -1.00000000000000 ) );
#472 = DIRECTION( '', ( -1.00000000000000, -0.000000000000000, -0.000000000000000 ) );
#473 = CARTESIAN_POINT( '', ( 12.7000000000000, 2.90566182226115E-14, 4.64038529823796E-14 ) );
#474 = DIRECTION( '', ( 1.00000000000000, 0.000000000000000, 0.000000000000000 ) );
#475 = DIRECTION( '', ( 0.000000000000000, 0.000000000000000, -1.00000000000000 ) );
#476 = CARTESIAN_POINT( '', ( 0.350000000000000, -6.50521303491303E-16, 6.50521303491303E-16 ) );
#477 = DIRECTION( '', ( 1.00000000000000, 0.000000000000000, 0.000000000000000 ) );
#478 = DIRECTION( '', ( 0.000000000000000, 0.000000000000000, -1.00000000000000 ) );
#479 = DIRECTION( '', ( -1.00000000000000, -0.000000000000000, -0.000000000000000 ) );
#480 = DIRECTION( '', ( 0.000000000000000, -1.00000000000000, 0.000000000000000 ) );
#481 = DIRECTION( '', ( -1.00000000000000, -0.000000000000000, -0.000000000000000 ) );
#482 = DIRECTION( '', ( 0.000000000000000, -1.00000000000000, 0.000000000000000 ) );
#483 = DIRECTION( '', ( -1.00000000000000, -0.000000000000000, -0.000000000000000 ) );
#484 = CARTESIAN_POINT( '', ( 0.350000000000000, -1.67854103315945, 3.85000000000000 ) );
#485 = DIRECTION( '', ( 1.00000000000000, 0.000000000000000, 0.000000000000000 ) );
#486 = DIRECTION( '', ( 0.000000000000000, 0.000000000000000, -1.00000000000000 ) );
#487 = DIRECTION( '', ( 0.000000000000000, 0.000000000000000, 1.00000000000000 ) );
#488 = CARTESIAN_POINT( '', ( 0.350000000000000, -1.67854103315945, 3.85000000000000 ) );
#489 = DIRECTION( '', ( 1.00000000000000, 0.000000000000000, 0.000000000000000 ) );
#490 = DIRECTION( '', ( 0.000000000000000, 0.000000000000000, -1.00000000000000 ) );
#491 = CARTESIAN_POINT( '', ( 0.000000000000000, -1.67854103315945, 3.85000000000000 ) );
#492 = DIRECTION( '', ( 1.00000000000000, 0.000000000000000, 0.000000000000000 ) );
#493 = DIRECTION( '', ( 0.000000000000000, 0.000000000000000, -1.00000000000000 ) );
#494 = DIRECTION( '', ( 0.000000000000000, 0.000000000000000, 1.00000000000000 ) );
#495 = CARTESIAN_POINT( '', ( 0.000000000000000, -1.67854103315945, 3.85000000000000 ) );
#496 = DIRECTION( '', ( 1.00000000000000, 0.000000000000000, 0.000000000000000 ) );
#497 = DIRECTION( '', ( 0.000000000000000, 0.000000000000000, -1.00000000000000 ) );
#498 = DIRECTION( '', ( 0.000000000000000, -0.499999999999989, -0.866025403784445 ) );
#499 = DIRECTION( '', ( 0.000000000000000, -0.500000000000000, -0.866025403784438 ) );
ENDSEC;
END-ISO-10303-21;
