ISO-10303-21;
HEADER;
FILE_DESCRIPTION( ( 'STEP AP214' ), '1' );
FILE_NAME( '//goodhand-server/Shared Folders/GoodHand Data/Kipp CAD/K1129/K1129.10014.stp', '2020-12-10T10:17:00', ( '' ), ( '' ), ' ', 'PARTsolutions', ' ' );
FILE_SCHEMA( ( 'AUTOMOTIVE_DESIGN { 1 0 10303 214 1 1 1 1 }' ) );
ENDSEC;
DATA;
#1 = MECHANICAL_DESIGN_GEOMETRIC_PRESENTATION_REPRESENTATION( ' ', ( #10, #11, #12, #13, #14, #15, #16, #17, #18, #19, #20, #21 ), #6 );
#2 = PRODUCT_DEFINITION_CONTEXT( '', #22, 'design' );
#3 = APPLICATION_PROTOCOL_DEFINITION( 'international standard', 'automotive_design', 2001, #22 );
#4 = PRODUCT_CATEGORY_RELATIONSHIP( 'NONE', 'NONE', #23, #24 );
#5 = SHAPE_DEFINITION_REPRESENTATION( #25, #26 );
#6 =  ( GEOMETRIC_REPRESENTATION_CONTEXT( 3 )GLOBAL_UNCERTAINTY_ASSIGNED_CONTEXT( ( #29 ) )GLOBAL_UNIT_ASSIGNED_CONTEXT( ( #31, #32, #33 ) )REPRESENTATION_CONTEXT( 'NONE', 'WORKSPACE' ) );
#10 = STYLED_ITEM( '', ( #35 ), #36 );
#11 = STYLED_ITEM( '', ( #37 ), #38 );
#12 = STYLED_ITEM( '', ( #39 ), #40 );
#13 = STYLED_ITEM( '', ( #41 ), #42 );
#14 = STYLED_ITEM( '', ( #43 ), #44 );
#15 = STYLED_ITEM( '', ( #45 ), #46 );
#16 = STYLED_ITEM( '', ( #47 ), #48 );
#17 = STYLED_ITEM( '', ( #49 ), #50 );
#18 = STYLED_ITEM( '', ( #51 ), #52 );
#19 = STYLED_ITEM( '', ( #53 ), #54 );
#20 = STYLED_ITEM( '', ( #55 ), #56 );
#21 = STYLED_ITEM( '', ( #57 ), #58 );
#22 = APPLICATION_CONTEXT( 'core data for automotive mechanical design processes' );
#23 = PRODUCT_CATEGORY( 'part', 'NONE' );
#24 = PRODUCT_RELATED_PRODUCT_CATEGORY( 'detail', ' ', ( #59 ) );
#25 = PRODUCT_DEFINITION_SHAPE( 'NONE', 'NONE', #60 );
#26 = ADVANCED_BREP_SHAPE_REPRESENTATION( '_K1129.10014', ( #61, #62 ), #6 );
#29 = UNCERTAINTY_MEASURE_WITH_UNIT( LENGTH_MEASURE( 0.00100000000000000 ), #31, '', '' );
#31 =  ( CONVERSION_BASED_UNIT( 'MILLIMETRE', #65 )LENGTH_UNIT(  )NAMED_UNIT( #68 ) );
#32 =  ( NAMED_UNIT( #70 )PLANE_ANGLE_UNIT(  )SI_UNIT( $, .RADIAN. ) );
#33 =  ( NAMED_UNIT( #70 )SI_UNIT( $, .STERADIAN. )SOLID_ANGLE_UNIT(  ) );
#35 = PRESENTATION_STYLE_ASSIGNMENT( ( #76 ) );
#36 = ADVANCED_FACE( '', ( #77, #78 ), #79, .F. );
#37 = PRESENTATION_STYLE_ASSIGNMENT( ( #80 ) );
#38 = ADVANCED_FACE( '', ( #81 ), #82, .T. );
#39 = PRESENTATION_STYLE_ASSIGNMENT( ( #83 ) );
#40 = ADVANCED_FACE( '', ( #84, #85 ), #86, .T. );
#41 = PRESENTATION_STYLE_ASSIGNMENT( ( #87 ) );
#42 = ADVANCED_FACE( '', ( #88 ), #89, .T. );
#43 = PRESENTATION_STYLE_ASSIGNMENT( ( #90 ) );
#44 = ADVANCED_FACE( '', ( #91 ), #92, .T. );
#45 = PRESENTATION_STYLE_ASSIGNMENT( ( #93 ) );
#46 = ADVANCED_FACE( '', ( #94, #95 ), #96, .T. );
#47 = PRESENTATION_STYLE_ASSIGNMENT( ( #97 ) );
#48 = ADVANCED_FACE( '', ( #98 ), #99, .T. );
#49 = PRESENTATION_STYLE_ASSIGNMENT( ( #100 ) );
#50 = ADVANCED_FACE( '', ( #101 ), #102, .T. );
#51 = PRESENTATION_STYLE_ASSIGNMENT( ( #103 ) );
#52 = ADVANCED_FACE( '', ( #104 ), #105, .F. );
#53 = PRESENTATION_STYLE_ASSIGNMENT( ( #106 ) );
#54 = ADVANCED_FACE( '', ( #107, #108 ), #109, .T. );
#55 = PRESENTATION_STYLE_ASSIGNMENT( ( #110 ) );
#56 = ADVANCED_FACE( '', ( #111 ), #112, .F. );
#57 = PRESENTATION_STYLE_ASSIGNMENT( ( #113 ) );
#58 = ADVANCED_FACE( '', ( #114 ), #115, .T. );
#59 = PRODUCT( '_K1129.10014', '_K1129.10014', 'PART-_K1129.10014-DESC', ( #116 ) );
#60 = PRODUCT_DEFINITION( 'NONE', 'NONE', #117, #2 );
#61 = MANIFOLD_SOLID_BREP( '_K1129.10014', #118 );
#62 = AXIS2_PLACEMENT_3D( '', #119, #120, #121 );
#65 = LENGTH_MEASURE_WITH_UNIT( LENGTH_MEASURE( 1.00000000000000 ), #122 );
#68 = DIMENSIONAL_EXPONENTS( 1.00000000000000, 0.000000000000000, 0.000000000000000, 0.000000000000000, 0.000000000000000, 0.000000000000000, 0.000000000000000 );
#70 = DIMENSIONAL_EXPONENTS( 0.000000000000000, 0.000000000000000, 0.000000000000000, 0.000000000000000, 0.000000000000000, 0.000000000000000, 0.000000000000000 );
#76 = SURFACE_STYLE_USAGE( .BOTH., #123 );
#77 = FACE_OUTER_BOUND( '', #124, .T. );
#78 = FACE_BOUND( '', #125, .T. );
#79 = PLANE( '', #126 );
#80 = SURFACE_STYLE_USAGE( .BOTH., #127 );
#81 = FACE_OUTER_BOUND( '', #128, .T. );
#82 = PLANE( '', #129 );
#83 = SURFACE_STYLE_USAGE( .BOTH., #130 );
#84 = FACE_BOUND( '', #131, .T. );
#85 = FACE_OUTER_BOUND( '', #132, .T. );
#86 = CONICAL_SURFACE( '', #133, 6.43707404930000, 0.801106126700000 );
#87 = SURFACE_STYLE_USAGE( .BOTH., #134 );
#88 = FACE_OUTER_BOUND( '', #135, .T. );
#89 = PLANE( '', #136 );
#90 = SURFACE_STYLE_USAGE( .BOTH., #137 );
#91 = FACE_OUTER_BOUND( '', #138, .T. );
#92 = PLANE( '', #139 );
#93 = SURFACE_STYLE_USAGE( .BOTH., #140 );
#94 = FACE_OUTER_BOUND( '', #141, .T. );
#95 = FACE_BOUND( '', #142, .T. );
#96 = CONICAL_SURFACE( '', #143, 6.23563133020000, 0.769690200100000 );
#97 = SURFACE_STYLE_USAGE( .BOTH., #144 );
#98 = FACE_OUTER_BOUND( '', #145, .T. );
#99 = PLANE( '', #146 );
#100 = SURFACE_STYLE_USAGE( .BOTH., #147 );
#101 = FACE_OUTER_BOUND( '', #148, .T. );
#102 = PLANE( '', #149 );
#103 = SURFACE_STYLE_USAGE( .BOTH., #150 );
#104 = FACE_OUTER_BOUND( '', #151, .T. );
#105 = PLANE( '', #152 );
#106 = SURFACE_STYLE_USAGE( .BOTH., #153 );
#107 = FACE_BOUND( '', #154, .T. );
#108 = FACE_OUTER_BOUND( '', #155, .T. );
#109 = CONICAL_SURFACE( '', #156, 6.71992595070000, 0.0314159265000000 );
#110 = SURFACE_STYLE_USAGE( .BOTH., #157 );
#111 = FACE_OUTER_BOUND( '', #158, .T. );
#112 = PLANE( '', #159 );
#113 = SURFACE_STYLE_USAGE( .BOTH., #160 );
#114 = FACE_OUTER_BOUND( '', #161, .T. );
#115 = PLANE( '', #162 );
#116 = PRODUCT_CONTEXT( '', #22, 'mechanical' );
#117 = PRODUCT_DEFINITION_FORMATION_WITH_SPECIFIED_SOURCE( ' ', 'NONE', #59, .NOT_KNOWN. );
#118 = CLOSED_SHELL( '', ( #46, #36, #48, #50, #38, #52, #40, #54, #44, #58, #42, #56 ) );
#119 = CARTESIAN_POINT( '', ( 0.000000000000000, 0.000000000000000, 0.000000000000000 ) );
#120 = DIRECTION( '', ( 0.000000000000000, 0.000000000000000, 1.00000000000000 ) );
#121 = DIRECTION( '', ( 1.00000000000000, 0.000000000000000, 0.000000000000000 ) );
#122 =  ( LENGTH_UNIT(  )NAMED_UNIT( #68 )SI_UNIT( .MILLI., .METRE. ) );
#123 = SURFACE_SIDE_STYLE( '', ( #164 ) );
#124 = EDGE_LOOP( '', ( #165 ) );
#125 = EDGE_LOOP( '', ( #166, #167, #168, #169, #170, #171 ) );
#126 = AXIS2_PLACEMENT_3D( '', #172, #173, #174 );
#127 = SURFACE_SIDE_STYLE( '', ( #175 ) );
#128 = EDGE_LOOP( '', ( #176, #177, #178, #179 ) );
#129 = AXIS2_PLACEMENT_3D( '', #180, #181, #182 );
#130 = SURFACE_SIDE_STYLE( '', ( #183 ) );
#131 = EDGE_LOOP( '', ( #184 ) );
#132 = EDGE_LOOP( '', ( #185 ) );
#133 = AXIS2_PLACEMENT_3D( '', #186, #187, #188 );
#134 = SURFACE_SIDE_STYLE( '', ( #189 ) );
#135 = EDGE_LOOP( '', ( #190, #191, #192, #193 ) );
#136 = AXIS2_PLACEMENT_3D( '', #194, #195, #196 );
#137 = SURFACE_SIDE_STYLE( '', ( #197 ) );
#138 = EDGE_LOOP( '', ( #198, #199, #200, #201 ) );
#139 = AXIS2_PLACEMENT_3D( '', #202, #203, #204 );
#140 = SURFACE_SIDE_STYLE( '', ( #205 ) );
#141 = EDGE_LOOP( '', ( #206 ) );
#142 = EDGE_LOOP( '', ( #207 ) );
#143 = AXIS2_PLACEMENT_3D( '', #208, #209, #210 );
#144 = SURFACE_SIDE_STYLE( '', ( #211 ) );
#145 = EDGE_LOOP( '', ( #212, #213, #214, #215 ) );
#146 = AXIS2_PLACEMENT_3D( '', #216, #217, #218 );
#147 = SURFACE_SIDE_STYLE( '', ( #219 ) );
#148 = EDGE_LOOP( '', ( #220, #221, #222, #223 ) );
#149 = AXIS2_PLACEMENT_3D( '', #224, #225, #226 );
#150 = SURFACE_SIDE_STYLE( '', ( #227 ) );
#151 = EDGE_LOOP( '', ( #228 ) );
#152 = AXIS2_PLACEMENT_3D( '', #229, #230, #231 );
#153 = SURFACE_SIDE_STYLE( '', ( #232 ) );
#154 = EDGE_LOOP( '', ( #233 ) );
#155 = EDGE_LOOP( '', ( #234 ) );
#156 = AXIS2_PLACEMENT_3D( '', #235, #236, #237 );
#157 = SURFACE_SIDE_STYLE( '', ( #238 ) );
#158 = EDGE_LOOP( '', ( #239, #240, #241, #242, #243, #244 ) );
#159 = AXIS2_PLACEMENT_3D( '', #245, #246, #247 );
#160 = SURFACE_SIDE_STYLE( '', ( #248 ) );
#161 = EDGE_LOOP( '', ( #249, #250, #251, #252 ) );
#162 = AXIS2_PLACEMENT_3D( '', #253, #254, #255 );
#164 = SURFACE_STYLE_FILL_AREA( #256 );
#165 = ORIENTED_EDGE( '', *, *, #257, .F. );
#166 = ORIENTED_EDGE( '', *, *, #258, .T. );
#167 = ORIENTED_EDGE( '', *, *, #259, .T. );
#168 = ORIENTED_EDGE( '', *, *, #260, .T. );
#169 = ORIENTED_EDGE( '', *, *, #261, .T. );
#170 = ORIENTED_EDGE( '', *, *, #262, .T. );
#171 = ORIENTED_EDGE( '', *, *, #263, .T. );
#172 = CARTESIAN_POINT( '', ( 8.22247078140822E-16, 0.000000000000000, 0.000000000000000 ) );
#173 = DIRECTION( '', ( 1.00000000000000, 0.000000000000000, -0.000000000000000 ) );
#174 = DIRECTION( '', ( -0.000000000000000, 0.000000000000000, -1.00000000000000 ) );
#175 = SURFACE_STYLE_FILL_AREA( #264 );
#176 = ORIENTED_EDGE( '', *, *, #258, .F. );
#177 = ORIENTED_EDGE( '', *, *, #265, .F. );
#178 = ORIENTED_EDGE( '', *, *, #266, .T. );
#179 = ORIENTED_EDGE( '', *, *, #267, .T. );
#180 = CARTESIAN_POINT( '', ( 5.00000000000000, 2.02072594216369, 3.50000000000000 ) );
#181 = DIRECTION( '', ( 0.000000000000000, 0.000000000000000, -1.00000000000000 ) );
#182 = DIRECTION( '', ( -1.00000000000000, 0.000000000000000, 0.000000000000000 ) );
#183 = SURFACE_STYLE_FILL_AREA( #268 );
#184 = ORIENTED_EDGE( '', *, *, #269, .F. );
#185 = ORIENTED_EDGE( '', *, *, #270, .T. );
#186 = CARTESIAN_POINT( '', ( 9.50024671981713, 0.000000000000000, 0.000000000000000 ) );
#187 = DIRECTION( '', ( -1.00000000000000, 0.000000000000000, -0.000000000000000 ) );
#188 = DIRECTION( '', ( 0.000000000000000, 0.000000000000000, 1.00000000000000 ) );
#189 = SURFACE_STYLE_FILL_AREA( #271 );
#190 = ORIENTED_EDGE( '', *, *, #263, .F. );
#191 = ORIENTED_EDGE( '', *, *, #272, .F. );
#192 = ORIENTED_EDGE( '', *, *, #273, .T. );
#193 = ORIENTED_EDGE( '', *, *, #265, .T. );
#194 = CARTESIAN_POINT( '', ( 5.00000000000000, 4.04145188432738, 0.000000000000000 ) );
#195 = DIRECTION( '', ( 0.000000000000000, -0.866025403784439, -0.500000000000000 ) );
#196 = DIRECTION( '', ( 0.000000000000000, 0.500000000000000, -0.866025403784439 ) );
#197 = SURFACE_STYLE_FILL_AREA( #274 );
#198 = ORIENTED_EDGE( '', *, *, #261, .F. );
#199 = ORIENTED_EDGE( '', *, *, #275, .F. );
#200 = ORIENTED_EDGE( '', *, *, #276, .T. );
#201 = ORIENTED_EDGE( '', *, *, #277, .T. );
#202 = CARTESIAN_POINT( '', ( 5.00000000000000, -2.02072594216369, -3.50000000000000 ) );
#203 = DIRECTION( '', ( 0.000000000000000, 0.000000000000000, 1.00000000000000 ) );
#204 = DIRECTION( '', ( 1.00000000000000, 0.000000000000000, -0.000000000000000 ) );
#205 = SURFACE_STYLE_FILL_AREA( #278 );
#206 = ORIENTED_EDGE( '', *, *, #279, .F. );
#207 = ORIENTED_EDGE( '', *, *, #257, .T. );
#208 = CARTESIAN_POINT( '', ( 1.73472347597681E-15, 0.000000000000000, 0.000000000000000 ) );
#209 = DIRECTION( '', ( 1.00000000000000, -0.000000000000000, -0.000000000000000 ) );
#210 = DIRECTION( '', ( -0.000000000000000, 0.000000000000000, -1.00000000000000 ) );
#211 = SURFACE_STYLE_FILL_AREA( #280 );
#212 = ORIENTED_EDGE( '', *, *, #259, .F. );
#213 = ORIENTED_EDGE( '', *, *, #267, .F. );
#214 = ORIENTED_EDGE( '', *, *, #281, .T. );
#215 = ORIENTED_EDGE( '', *, *, #282, .T. );
#216 = CARTESIAN_POINT( '', ( 5.00000000000000, -2.02072594216369, 3.50000000000000 ) );
#217 = DIRECTION( '', ( 0.000000000000000, 0.866025403784439, -0.500000000000000 ) );
#218 = DIRECTION( '', ( 0.000000000000000, 0.500000000000000, 0.866025403784439 ) );
#219 = SURFACE_STYLE_FILL_AREA( #283 );
#220 = ORIENTED_EDGE( '', *, *, #260, .F. );
#221 = ORIENTED_EDGE( '', *, *, #282, .F. );
#222 = ORIENTED_EDGE( '', *, *, #284, .T. );
#223 = ORIENTED_EDGE( '', *, *, #275, .T. );
#224 = CARTESIAN_POINT( '', ( 5.00000000000000, -4.04145188432738, 0.000000000000000 ) );
#225 = DIRECTION( '', ( -0.000000000000000, 0.866025403784439, 0.500000000000000 ) );
#226 = DIRECTION( '', ( 0.000000000000000, -0.500000000000000, 0.866025403784439 ) );
#227 = SURFACE_STYLE_FILL_AREA( #285 );
#228 = ORIENTED_EDGE( '', *, *, #269, .T. );
#229 = CARTESIAN_POINT( '', ( 10.0000000000000, 5.92136866978324, 0.000000000000000 ) );
#230 = DIRECTION( '', ( -1.00000000000000, 0.000000000000000, 0.000000000000000 ) );
#231 = DIRECTION( '', ( 0.000000000000000, 0.000000000000000, 1.00000000000000 ) );
#232 = SURFACE_STYLE_FILL_AREA( #286 );
#233 = ORIENTED_EDGE( '', *, *, #270, .F. );
#234 = ORIENTED_EDGE( '', *, *, #279, .T. );
#235 = CARTESIAN_POINT( '', ( 0.499753280182867, 0.000000000000000, 0.000000000000000 ) );
#236 = DIRECTION( '', ( -1.00000000000000, 0.000000000000000, -0.000000000000000 ) );
#237 = DIRECTION( '', ( 0.000000000000000, 0.000000000000000, 1.00000000000000 ) );
#238 = SURFACE_STYLE_FILL_AREA( #287 );
#239 = ORIENTED_EDGE( '', *, *, #266, .F. );
#240 = ORIENTED_EDGE( '', *, *, #273, .F. );
#241 = ORIENTED_EDGE( '', *, *, #288, .F. );
#242 = ORIENTED_EDGE( '', *, *, #276, .F. );
#243 = ORIENTED_EDGE( '', *, *, #284, .F. );
#244 = ORIENTED_EDGE( '', *, *, #281, .F. );
#245 = CARTESIAN_POINT( '', ( 5.00000000000000, 0.000000000000000, 0.000000000000000 ) );
#246 = DIRECTION( '', ( 1.00000000000000, 0.000000000000000, 0.000000000000000 ) );
#247 = DIRECTION( '', ( 0.000000000000000, 0.000000000000000, -1.00000000000000 ) );
#248 = SURFACE_STYLE_FILL_AREA( #289 );
#249 = ORIENTED_EDGE( '', *, *, #262, .F. );
#250 = ORIENTED_EDGE( '', *, *, #277, .F. );
#251 = ORIENTED_EDGE( '', *, *, #288, .T. );
#252 = ORIENTED_EDGE( '', *, *, #272, .T. );
#253 = CARTESIAN_POINT( '', ( 5.00000000000000, 2.02072594216369, -3.50000000000000 ) );
#254 = DIRECTION( '', ( 0.000000000000000, -0.866025403784439, 0.500000000000000 ) );
#255 = DIRECTION( '', ( 0.000000000000000, -0.500000000000000, -0.866025403784439 ) );
#256 = FILL_AREA_STYLE( '', ( #290 ) );
#257 = EDGE_CURVE( '', #291, #291, #292, .T. );
#258 = EDGE_CURVE( '', #293, #294, #295, .T. );
#259 = EDGE_CURVE( '', #294, #296, #297, .T. );
#260 = EDGE_CURVE( '', #296, #298, #299, .T. );
#261 = EDGE_CURVE( '', #298, #300, #301, .T. );
#262 = EDGE_CURVE( '', #300, #302, #303, .T. );
#263 = EDGE_CURVE( '', #302, #293, #304, .T. );
#264 = FILL_AREA_STYLE( '', ( #305 ) );
#265 = EDGE_CURVE( '', #306, #293, #307, .T. );
#266 = EDGE_CURVE( '', #306, #308, #309, .T. );
#267 = EDGE_CURVE( '', #308, #294, #310, .T. );
#268 = FILL_AREA_STYLE( '', ( #311 ) );
#269 = EDGE_CURVE( '', #312, #312, #313, .T. );
#270 = EDGE_CURVE( '', #314, #314, #315, .T. );
#271 = FILL_AREA_STYLE( '', ( #316 ) );
#272 = EDGE_CURVE( '', #317, #302, #318, .T. );
#273 = EDGE_CURVE( '', #317, #306, #319, .T. );
#274 = FILL_AREA_STYLE( '', ( #320 ) );
#275 = EDGE_CURVE( '', #321, #298, #322, .T. );
#276 = EDGE_CURVE( '', #321, #323, #324, .T. );
#277 = EDGE_CURVE( '', #323, #300, #325, .T. );
#278 = FILL_AREA_STYLE( '', ( #326 ) );
#279 = EDGE_CURVE( '', #327, #327, #328, .T. );
#280 = FILL_AREA_STYLE( '', ( #329 ) );
#281 = EDGE_CURVE( '', #308, #330, #331, .T. );
#282 = EDGE_CURVE( '', #330, #296, #332, .T. );
#283 = FILL_AREA_STYLE( '', ( #333 ) );
#284 = EDGE_CURVE( '', #330, #321, #334, .T. );
#285 = FILL_AREA_STYLE( '', ( #335 ) );
#286 = FILL_AREA_STYLE( '', ( #336 ) );
#287 = FILL_AREA_STYLE( '', ( #337 ) );
#288 = EDGE_CURVE( '', #323, #317, #338, .T. );
#289 = FILL_AREA_STYLE( '', ( #339 ) );
#290 = FILL_AREA_STYLE_COLOUR( '', #340 );
#291 = VERTEX_POINT( '', #341 );
#292 = CIRCLE( '', #342, 6.23563133020000 );
#293 = VERTEX_POINT( '', #343 );
#294 = VERTEX_POINT( '', #344 );
#295 = LINE( '', #345, #346 );
#296 = VERTEX_POINT( '', #347 );
#297 = LINE( '', #348, #349 );
#298 = VERTEX_POINT( '', #350 );
#299 = LINE( '', #351, #352 );
#300 = VERTEX_POINT( '', #353 );
#301 = LINE( '', #354, #355 );
#302 = VERTEX_POINT( '', #356 );
#303 = LINE( '', #357, #358 );
#304 = LINE( '', #359, #360 );
#305 = FILL_AREA_STYLE_COLOUR( '', #361 );
#306 = VERTEX_POINT( '', #362 );
#307 = LINE( '', #363, #364 );
#308 = VERTEX_POINT( '', #365 );
#309 = LINE( '', #366, #367 );
#310 = LINE( '', #368, #369 );
#311 = FILL_AREA_STYLE_COLOUR( '', #370 );
#312 = VERTEX_POINT( '', #371 );
#313 = CIRCLE( '', #372, 5.92136866980000 );
#314 = VERTEX_POINT( '', #373 );
#315 = CIRCLE( '', #374, 6.43707404930000 );
#316 = FILL_AREA_STYLE_COLOUR( '', #375 );
#317 = VERTEX_POINT( '', #376 );
#318 = LINE( '', #377, #378 );
#319 = LINE( '', #379, #380 );
#320 = FILL_AREA_STYLE_COLOUR( '', #381 );
#321 = VERTEX_POINT( '', #382 );
#322 = LINE( '', #383, #384 );
#323 = VERTEX_POINT( '', #385 );
#324 = LINE( '', #386, #387 );
#325 = LINE( '', #388, #389 );
#326 = FILL_AREA_STYLE_COLOUR( '', #390 );
#327 = VERTEX_POINT( '', #391 );
#328 = CIRCLE( '', #392, 6.71992595070000 );
#329 = FILL_AREA_STYLE_COLOUR( '', #393 );
#330 = VERTEX_POINT( '', #394 );
#331 = LINE( '', #395, #396 );
#332 = LINE( '', #397, #398 );
#333 = FILL_AREA_STYLE_COLOUR( '', #399 );
#334 = LINE( '', #400, #401 );
#335 = FILL_AREA_STYLE_COLOUR( '', #402 );
#336 = FILL_AREA_STYLE_COLOUR( '', #403 );
#337 = FILL_AREA_STYLE_COLOUR( '', #404 );
#338 = LINE( '', #405, #406 );
#339 = FILL_AREA_STYLE_COLOUR( '', #407 );
#340 = COLOUR_RGB( '', 0.689999997600000, 0.689999997600000, 0.689999997600000 );
#341 = CARTESIAN_POINT( '', ( 1.73472347597681E-15, 0.000000000000000, -6.23563133021676 ) );
#342 = AXIS2_PLACEMENT_3D( '', #408, #409, #410 );
#343 = CARTESIAN_POINT( '', ( 8.22247078140822E-16, 2.02072594216369, 3.50000000000000 ) );
#344 = CARTESIAN_POINT( '', ( 0.000000000000000, -2.02072594216369, 3.50000000000000 ) );
#345 = CARTESIAN_POINT( '', ( 0.000000000000000, 2.02072594216369, 3.50000000000000 ) );
#346 = VECTOR( '', #411, 1000.00000000000 );
#347 = CARTESIAN_POINT( '', ( 0.000000000000000, -4.04145188432738, 0.000000000000000 ) );
#348 = CARTESIAN_POINT( '', ( 0.000000000000000, -2.02072594216369, 3.50000000000000 ) );
#349 = VECTOR( '', #412, 1000.00000000000 );
#350 = CARTESIAN_POINT( '', ( 0.000000000000000, -2.02072594216369, -3.50000000000000 ) );
#351 = CARTESIAN_POINT( '', ( 0.000000000000000, -4.04145188432738, 0.000000000000000 ) );
#352 = VECTOR( '', #413, 1000.00000000000 );
#353 = CARTESIAN_POINT( '', ( 0.000000000000000, 2.02072594216369, -3.50000000000000 ) );
#354 = CARTESIAN_POINT( '', ( 0.000000000000000, -2.02072594216369, -3.50000000000000 ) );
#355 = VECTOR( '', #414, 1000.00000000000 );
#356 = CARTESIAN_POINT( '', ( 0.000000000000000, 4.04145188432738, 0.000000000000000 ) );
#357 = CARTESIAN_POINT( '', ( 0.000000000000000, 2.02072594216369, -3.50000000000000 ) );
#358 = VECTOR( '', #415, 1000.00000000000 );
#359 = CARTESIAN_POINT( '', ( 0.000000000000000, 4.04145188432738, 0.000000000000000 ) );
#360 = VECTOR( '', #416, 1000.00000000000 );
#361 = COLOUR_RGB( '', 0.689999997600000, 0.689999997600000, 0.689999997600000 );
#362 = CARTESIAN_POINT( '', ( 5.00000000000000, 2.02072594216369, 3.50000000000000 ) );
#363 = CARTESIAN_POINT( '', ( 5.00000000000000, 2.02072594216369, 3.50000000000000 ) );
#364 = VECTOR( '', #417, 1000.00000000000 );
#365 = CARTESIAN_POINT( '', ( 5.00000000000000, -2.02072594216369, 3.50000000000000 ) );
#366 = CARTESIAN_POINT( '', ( 5.00000000000000, 2.02072594216369, 3.50000000000000 ) );
#367 = VECTOR( '', #418, 1000.00000000000 );
#368 = CARTESIAN_POINT( '', ( 5.00000000000000, -2.02072594216369, 3.50000000000000 ) );
#369 = VECTOR( '', #419, 1000.00000000000 );
#370 = COLOUR_RGB( '', 0.689999997600000, 0.689999997600000, 0.689999997600000 );
#371 = CARTESIAN_POINT( '', ( 10.0000000000000, 0.000000000000000, -5.92136866978324 ) );
#372 = AXIS2_PLACEMENT_3D( '', #420, #421, #422 );
#373 = CARTESIAN_POINT( '', ( 9.50024671981713, 0.000000000000000, -6.43707404932231 ) );
#374 = AXIS2_PLACEMENT_3D( '', #423, #424, #425 );
#375 = COLOUR_RGB( '', 0.689999997600000, 0.689999997600000, 0.689999997600000 );
#376 = CARTESIAN_POINT( '', ( 5.00000000000000, 4.04145188432738, 0.000000000000000 ) );
#377 = CARTESIAN_POINT( '', ( 5.00000000000000, 4.04145188432738, 0.000000000000000 ) );
#378 = VECTOR( '', #426, 1000.00000000000 );
#379 = CARTESIAN_POINT( '', ( 5.00000000000000, 4.04145188432738, 0.000000000000000 ) );
#380 = VECTOR( '', #427, 1000.00000000000 );
#381 = COLOUR_RGB( '', 0.689999997600000, 0.689999997600000, 0.689999997600000 );
#382 = CARTESIAN_POINT( '', ( 5.00000000000000, -2.02072594216369, -3.50000000000000 ) );
#383 = CARTESIAN_POINT( '', ( 5.00000000000000, -2.02072594216369, -3.50000000000000 ) );
#384 = VECTOR( '', #428, 1000.00000000000 );
#385 = CARTESIAN_POINT( '', ( 5.00000000000000, 2.02072594216369, -3.50000000000000 ) );
#386 = CARTESIAN_POINT( '', ( 5.00000000000000, -2.02072594216369, -3.50000000000000 ) );
#387 = VECTOR( '', #429, 1000.00000000000 );
#388 = CARTESIAN_POINT( '', ( 5.00000000000000, 2.02072594216369, -3.50000000000000 ) );
#389 = VECTOR( '', #430, 1000.00000000000 );
#390 = COLOUR_RGB( '', 0.689999997600000, 0.689999997600000, 0.689999997600000 );
#391 = CARTESIAN_POINT( '', ( 0.499753280182867, 0.000000000000000, -6.71992595067769 ) );
#392 = AXIS2_PLACEMENT_3D( '', #431, #432, #433 );
#393 = COLOUR_RGB( '', 0.689999997600000, 0.689999997600000, 0.689999997600000 );
#394 = CARTESIAN_POINT( '', ( 5.00000000000000, -4.04145188432738, 0.000000000000000 ) );
#395 = CARTESIAN_POINT( '', ( 5.00000000000000, -2.02072594216369, 3.50000000000000 ) );
#396 = VECTOR( '', #434, 1000.00000000000 );
#397 = CARTESIAN_POINT( '', ( 5.00000000000000, -4.04145188432738, 0.000000000000000 ) );
#398 = VECTOR( '', #435, 1000.00000000000 );
#399 = COLOUR_RGB( '', 0.689999997600000, 0.689999997600000, 0.689999997600000 );
#400 = CARTESIAN_POINT( '', ( 5.00000000000000, -4.04145188432738, 0.000000000000000 ) );
#401 = VECTOR( '', #436, 1000.00000000000 );
#402 = COLOUR_RGB( '', 0.689999997600000, 0.689999997600000, 0.689999997600000 );
#403 = COLOUR_RGB( '', 0.689999997600000, 0.689999997600000, 0.689999997600000 );
#404 = COLOUR_RGB( '', 0.689999997600000, 0.689999997600000, 0.689999997600000 );
#405 = CARTESIAN_POINT( '', ( 5.00000000000000, 2.02072594216369, -3.50000000000000 ) );
#406 = VECTOR( '', #437, 1000.00000000000 );
#407 = COLOUR_RGB( '', 0.689999997600000, 0.689999997600000, 0.689999997600000 );
#408 = CARTESIAN_POINT( '', ( 1.73472347597681E-15, 0.000000000000000, 0.000000000000000 ) );
#409 = DIRECTION( '', ( 1.00000000000000, 0.000000000000000, -0.000000000000000 ) );
#410 = DIRECTION( '', ( -0.000000000000000, 0.000000000000000, -1.00000000000000 ) );
#411 = DIRECTION( '', ( 0.000000000000000, -1.00000000000000, 0.000000000000000 ) );
#412 = DIRECTION( '', ( 0.000000000000000, -0.500000000000000, -0.866025403784439 ) );
#413 = DIRECTION( '', ( 0.000000000000000, 0.500000000000000, -0.866025403784439 ) );
#414 = DIRECTION( '', ( 0.000000000000000, 1.00000000000000, 0.000000000000000 ) );
#415 = DIRECTION( '', ( 0.000000000000000, 0.500000000000000, 0.866025403784439 ) );
#416 = DIRECTION( '', ( 0.000000000000000, -0.500000000000000, 0.866025403784439 ) );
#417 = DIRECTION( '', ( -1.00000000000000, -0.000000000000000, -0.000000000000000 ) );
#418 = DIRECTION( '', ( 0.000000000000000, -1.00000000000000, 0.000000000000000 ) );
#419 = DIRECTION( '', ( -1.00000000000000, -0.000000000000000, -0.000000000000000 ) );
#420 = CARTESIAN_POINT( '', ( 10.0000000000000, 0.000000000000000, 0.000000000000000 ) );
#421 = DIRECTION( '', ( 1.00000000000000, 0.000000000000000, -0.000000000000000 ) );
#422 = DIRECTION( '', ( -0.000000000000000, 0.000000000000000, -1.00000000000000 ) );
#423 = CARTESIAN_POINT( '', ( 9.50024671981713, 0.000000000000000, 0.000000000000000 ) );
#424 = DIRECTION( '', ( 1.00000000000000, 0.000000000000000, -0.000000000000000 ) );
#425 = DIRECTION( '', ( -0.000000000000000, 0.000000000000000, -1.00000000000000 ) );
#426 = DIRECTION( '', ( -1.00000000000000, -0.000000000000000, -0.000000000000000 ) );
#427 = DIRECTION( '', ( 0.000000000000000, -0.500000000000000, 0.866025403784439 ) );
#428 = DIRECTION( '', ( -1.00000000000000, -0.000000000000000, -0.000000000000000 ) );
#429 = DIRECTION( '', ( 0.000000000000000, 1.00000000000000, 0.000000000000000 ) );
#430 = DIRECTION( '', ( -1.00000000000000, -0.000000000000000, -0.000000000000000 ) );
#431 = CARTESIAN_POINT( '', ( 0.499753280182867, 0.000000000000000, 0.000000000000000 ) );
#432 = DIRECTION( '', ( 1.00000000000000, 0.000000000000000, -0.000000000000000 ) );
#433 = DIRECTION( '', ( -0.000000000000000, 0.000000000000000, -1.00000000000000 ) );
#434 = DIRECTION( '', ( 0.000000000000000, -0.500000000000000, -0.866025403784439 ) );
#435 = DIRECTION( '', ( -1.00000000000000, -0.000000000000000, -0.000000000000000 ) );
#436 = DIRECTION( '', ( 0.000000000000000, 0.500000000000000, -0.866025403784439 ) );
#437 = DIRECTION( '', ( 0.000000000000000, 0.500000000000000, 0.866025403784439 ) );
ENDSEC;
END-ISO-10303-21;
