ISO-10303-21;
HEADER;
FILE_DESCRIPTION( ( 'STEP AP214' ), '1' );
FILE_NAME( '//goodhand-server/Shared Folders/GoodHand Data/Kipp CAD/K0390/K0390.12X65.stp', '2020-12-07T10:14:39', ( '' ), ( '' ), ' ', 'PARTsolutions', ' ' );
FILE_SCHEMA( ( 'AUTOMOTIVE_DESIGN { 1 0 10303 214 1 1 1 1 }' ) );
ENDSEC;
DATA;
#1 = MECHANICAL_DESIGN_GEOMETRIC_PRESENTATION_REPRESENTATION( ' ', ( #10, #11, #12, #13, #14, #15, #16, #17, #18, #19, #20, #21, #22 ), #6 );
#2 = PRODUCT_DEFINITION_CONTEXT( '', #23, 'design' );
#3 = APPLICATION_PROTOCOL_DEFINITION( 'international standard', 'automotive_design', 2001, #23 );
#4 = PRODUCT_CATEGORY_RELATIONSHIP( 'NONE', 'NONE', #24, #25 );
#5 = SHAPE_DEFINITION_REPRESENTATION( #26, #27 );
#6 =  ( GEOMETRIC_REPRESENTATION_CONTEXT( 3 )GLOBAL_UNCERTAINTY_ASSIGNED_CONTEXT( ( #30 ) )GLOBAL_UNIT_ASSIGNED_CONTEXT( ( #32, #33, #34 ) )REPRESENTATION_CONTEXT( 'NONE', 'WORKSPACE' ) );
#10 = STYLED_ITEM( '', ( #36 ), #37 );
#11 = STYLED_ITEM( '', ( #38 ), #39 );
#12 = STYLED_ITEM( '', ( #40 ), #41 );
#13 = STYLED_ITEM( '', ( #42 ), #43 );
#14 = STYLED_ITEM( '', ( #44 ), #45 );
#15 = STYLED_ITEM( '', ( #46 ), #47 );
#16 = STYLED_ITEM( '', ( #48 ), #49 );
#17 = STYLED_ITEM( '', ( #50 ), #51 );
#18 = STYLED_ITEM( '', ( #52 ), #53 );
#19 = STYLED_ITEM( '', ( #54 ), #55 );
#20 = STYLED_ITEM( '', ( #56 ), #57 );
#21 = STYLED_ITEM( '', ( #58 ), #59 );
#22 = STYLED_ITEM( '', ( #60 ), #61 );
#23 = APPLICATION_CONTEXT( 'core data for automotive mechanical design processes' );
#24 = PRODUCT_CATEGORY( 'part', 'NONE' );
#25 = PRODUCT_RELATED_PRODUCT_CATEGORY( 'detail', ' ', ( #62 ) );
#26 = PRODUCT_DEFINITION_SHAPE( 'NONE', 'NONE', #63 );
#27 = ADVANCED_BREP_SHAPE_REPRESENTATION( '_K0390.12X65', ( #64, #65 ), #6 );
#30 = UNCERTAINTY_MEASURE_WITH_UNIT( LENGTH_MEASURE( 0.00100000000000000 ), #32, '', '' );
#32 =  ( CONVERSION_BASED_UNIT( 'MILLIMETRE', #68 )LENGTH_UNIT(  )NAMED_UNIT( #71 ) );
#33 =  ( NAMED_UNIT( #73 )PLANE_ANGLE_UNIT(  )SI_UNIT( $, .RADIAN. ) );
#34 =  ( NAMED_UNIT( #73 )SI_UNIT( $, .STERADIAN. )SOLID_ANGLE_UNIT(  ) );
#36 = PRESENTATION_STYLE_ASSIGNMENT( ( #79 ) );
#37 = ADVANCED_FACE( '', ( #80, #81 ), #82, .T. );
#38 = PRESENTATION_STYLE_ASSIGNMENT( ( #83 ) );
#39 = ADVANCED_FACE( '', ( #84, #85 ), #86, .T. );
#40 = PRESENTATION_STYLE_ASSIGNMENT( ( #87 ) );
#41 = ADVANCED_FACE( '', ( #88 ), #89, .F. );
#42 = PRESENTATION_STYLE_ASSIGNMENT( ( #90 ) );
#43 = ADVANCED_FACE( '', ( #91 ), #92, .T. );
#44 = PRESENTATION_STYLE_ASSIGNMENT( ( #93 ) );
#45 = ADVANCED_FACE( '', ( #94, #95 ), #96, .T. );
#46 = PRESENTATION_STYLE_ASSIGNMENT( ( #97 ) );
#47 = ADVANCED_FACE( '', ( #98 ), #99, .T. );
#48 = PRESENTATION_STYLE_ASSIGNMENT( ( #100 ) );
#49 = ADVANCED_FACE( '', ( #101 ), #102, .F. );
#50 = PRESENTATION_STYLE_ASSIGNMENT( ( #103 ) );
#51 = ADVANCED_FACE( '', ( #104, #105 ), #106, .T. );
#52 = PRESENTATION_STYLE_ASSIGNMENT( ( #107 ) );
#53 = ADVANCED_FACE( '', ( #108 ), #109, .T. );
#54 = PRESENTATION_STYLE_ASSIGNMENT( ( #110 ) );
#55 = ADVANCED_FACE( '', ( #111, #112 ), #113, .T. );
#56 = PRESENTATION_STYLE_ASSIGNMENT( ( #114 ) );
#57 = ADVANCED_FACE( '', ( #115 ), #116, .F. );
#58 = PRESENTATION_STYLE_ASSIGNMENT( ( #117 ) );
#59 = ADVANCED_FACE( '', ( #118, #119 ), #120, .F. );
#60 = PRESENTATION_STYLE_ASSIGNMENT( ( #121 ) );
#61 = ADVANCED_FACE( '', ( #122 ), #123, .F. );
#62 = PRODUCT( '_K0390.12X65', '_K0390.12X65', 'PART-_K0390.12X65-DESC', ( #124 ) );
#63 = PRODUCT_DEFINITION( 'NONE', 'NONE', #125, #2 );
#64 = MANIFOLD_SOLID_BREP( '_K0390.12X65', #126 );
#65 = AXIS2_PLACEMENT_3D( '', #127, #128, #129 );
#68 = LENGTH_MEASURE_WITH_UNIT( LENGTH_MEASURE( 1.00000000000000 ), #130 );
#71 = DIMENSIONAL_EXPONENTS( 1.00000000000000, 0.000000000000000, 0.000000000000000, 0.000000000000000, 0.000000000000000, 0.000000000000000, 0.000000000000000 );
#73 = DIMENSIONAL_EXPONENTS( 0.000000000000000, 0.000000000000000, 0.000000000000000, 0.000000000000000, 0.000000000000000, 0.000000000000000, 0.000000000000000 );
#79 = SURFACE_STYLE_USAGE( .BOTH., #131 );
#80 = FACE_BOUND( '', #132, .T. );
#81 = FACE_OUTER_BOUND( '', #133, .T. );
#82 = SPHERICAL_SURFACE( '', #134, 6.70960000000000 );
#83 = SURFACE_STYLE_USAGE( .BOTH., #135 );
#84 = FACE_OUTER_BOUND( '', #136, .T. );
#85 = FACE_OUTER_BOUND( '', #137, .T. );
#86 = CYLINDRICAL_SURFACE( '', #138, 6.00000000000000 );
#87 = SURFACE_STYLE_USAGE( .BOTH., #139 );
#88 = FACE_OUTER_BOUND( '', #140, .T. );
#89 = PLANE( '', #141 );
#90 = SURFACE_STYLE_USAGE( .BOTH., #142 );
#91 = FACE_OUTER_BOUND( '', #143, .T. );
#92 = PLANE( '', #144 );
#93 = SURFACE_STYLE_USAGE( .BOTH., #145 );
#94 = FACE_BOUND( '', #146, .T. );
#95 = FACE_OUTER_BOUND( '', #147, .T. );
#96 = CONICAL_SURFACE( '', #148, 6.00000000000000, 1.18946407340000 );
#97 = SURFACE_STYLE_USAGE( .BOTH., #149 );
#98 = FACE_OUTER_BOUND( '', #150, .T. );
#99 = CONICAL_SURFACE( '', #151, 4.92650000000000, 0.785398163400000 );
#100 = SURFACE_STYLE_USAGE( .BOTH., #152 );
#101 = FACE_OUTER_BOUND( '', #153, .T. );
#102 = PLANE( '', #154 );
#103 = SURFACE_STYLE_USAGE( .BOTH., #155 );
#104 = FACE_OUTER_BOUND( '', #156, .T. );
#105 = FACE_OUTER_BOUND( '', #157, .T. );
#106 = CYLINDRICAL_SURFACE( '', #158, 4.00000000000000 );
#107 = SURFACE_STYLE_USAGE( .BOTH., #159 );
#108 = FACE_OUTER_BOUND( '', #160, .T. );
#109 = CONICAL_SURFACE( '', #161, 4.92650000000000, 0.785398163400000 );
#110 = SURFACE_STYLE_USAGE( .BOTH., #162 );
#111 = FACE_OUTER_BOUND( '', #163, .T. );
#112 = FACE_OUTER_BOUND( '', #164, .T. );
#113 = CYLINDRICAL_SURFACE( '', #165, 3.60000000000000 );
#114 = SURFACE_STYLE_USAGE( .BOTH., #166 );
#115 = FACE_OUTER_BOUND( '', #167, .T. );
#116 = PLANE( '', #168 );
#117 = SURFACE_STYLE_USAGE( .BOTH., #169 );
#118 = FACE_OUTER_BOUND( '', #170, .T. );
#119 = FACE_BOUND( '', #171, .T. );
#120 = PLANE( '', #172 );
#121 = SURFACE_STYLE_USAGE( .BOTH., #173 );
#122 = FACE_OUTER_BOUND( '', #174, .T. );
#123 = PLANE( '', #175 );
#124 = PRODUCT_CONTEXT( '', #23, 'mechanical' );
#125 = PRODUCT_DEFINITION_FORMATION_WITH_SPECIFIED_SOURCE( ' ', 'NONE', #62, .NOT_KNOWN. );
#126 = CLOSED_SHELL( '', ( #49, #57, #37, #51, #59, #55, #45, #39, #47, #41, #53, #61, #43 ) );
#127 = CARTESIAN_POINT( '', ( 0.000000000000000, 0.000000000000000, 0.000000000000000 ) );
#128 = DIRECTION( '', ( 0.000000000000000, 0.000000000000000, 1.00000000000000 ) );
#129 = DIRECTION( '', ( 1.00000000000000, 0.000000000000000, 0.000000000000000 ) );
#130 =  ( LENGTH_UNIT(  )NAMED_UNIT( #71 )SI_UNIT( .MILLI., .METRE. ) );
#131 = SURFACE_SIDE_STYLE( '', ( #177 ) );
#132 = VERTEX_LOOP( '', #178 );
#133 = EDGE_LOOP( '', ( #179 ) );
#134 = AXIS2_PLACEMENT_3D( '', #180, #181, #182 );
#135 = SURFACE_SIDE_STYLE( '', ( #183 ) );
#136 = EDGE_LOOP( '', ( #184 ) );
#137 = EDGE_LOOP( '', ( #185, #186, #187, #188, #189, #190, #191, #192 ) );
#138 = AXIS2_PLACEMENT_3D( '', #193, #194, #195 );
#139 = SURFACE_SIDE_STYLE( '', ( #196 ) );
#140 = EDGE_LOOP( '', ( #197, #198 ) );
#141 = AXIS2_PLACEMENT_3D( '', #199, #200, #201 );
#142 = SURFACE_SIDE_STYLE( '', ( #202 ) );
#143 = EDGE_LOOP( '', ( #203, #204, #205, #206 ) );
#144 = AXIS2_PLACEMENT_3D( '', #207, #208, #209 );
#145 = SURFACE_SIDE_STYLE( '', ( #210 ) );
#146 = EDGE_LOOP( '', ( #211 ) );
#147 = EDGE_LOOP( '', ( #212 ) );
#148 = AXIS2_PLACEMENT_3D( '', #213, #214, #215 );
#149 = SURFACE_SIDE_STYLE( '', ( #216 ) );
#150 = EDGE_LOOP( '', ( #217, #218, #219, #220 ) );
#151 = AXIS2_PLACEMENT_3D( '', #221, #222, #223 );
#152 = SURFACE_SIDE_STYLE( '', ( #224 ) );
#153 = EDGE_LOOP( '', ( #225, #226, #227, #228, #229, #230 ) );
#154 = AXIS2_PLACEMENT_3D( '', #231, #232, #233 );
#155 = SURFACE_SIDE_STYLE( '', ( #234 ) );
#156 = EDGE_LOOP( '', ( #235 ) );
#157 = EDGE_LOOP( '', ( #236 ) );
#158 = AXIS2_PLACEMENT_3D( '', #237, #238, #239 );
#159 = SURFACE_SIDE_STYLE( '', ( #240 ) );
#160 = EDGE_LOOP( '', ( #241, #242, #243, #244 ) );
#161 = AXIS2_PLACEMENT_3D( '', #245, #246, #247 );
#162 = SURFACE_SIDE_STYLE( '', ( #248 ) );
#163 = EDGE_LOOP( '', ( #249 ) );
#164 = EDGE_LOOP( '', ( #250 ) );
#165 = AXIS2_PLACEMENT_3D( '', #251, #252, #253 );
#166 = SURFACE_SIDE_STYLE( '', ( #254 ) );
#167 = EDGE_LOOP( '', ( #255, #256, #257, #258, #259, #260 ) );
#168 = AXIS2_PLACEMENT_3D( '', #261, #262, #263 );
#169 = SURFACE_SIDE_STYLE( '', ( #264 ) );
#170 = EDGE_LOOP( '', ( #265 ) );
#171 = EDGE_LOOP( '', ( #266 ) );
#172 = AXIS2_PLACEMENT_3D( '', #267, #268, #269 );
#173 = SURFACE_SIDE_STYLE( '', ( #270 ) );
#174 = EDGE_LOOP( '', ( #271, #272 ) );
#175 = AXIS2_PLACEMENT_3D( '', #273, #274, #275 );
#177 = SURFACE_STYLE_FILL_AREA( #276 );
#178 = VERTEX_POINT( '', #277 );
#179 = ORIENTED_EDGE( '', *, *, #278, .T. );
#180 = CARTESIAN_POINT( '', ( 58.2903999999999, -9.10729824887824E-15, 0.000000000000000 ) );
#181 = DIRECTION( '', ( 1.00000000000000, 0.000000000000000, 0.000000000000000 ) );
#182 = DIRECTION( '', ( 0.000000000000000, 1.00000000000000, 0.000000000000000 ) );
#183 = SURFACE_STYLE_FILL_AREA( #279 );
#184 = ORIENTED_EDGE( '', *, *, #280, .F. );
#185 = ORIENTED_EDGE( '', *, *, #281, .T. );
#186 = ORIENTED_EDGE( '', *, *, #282, .T. );
#187 = ORIENTED_EDGE( '', *, *, #283, .F. );
#188 = ORIENTED_EDGE( '', *, *, #284, .T. );
#189 = ORIENTED_EDGE( '', *, *, #285, .T. );
#190 = ORIENTED_EDGE( '', *, *, #286, .T. );
#191 = ORIENTED_EDGE( '', *, *, #287, .F. );
#192 = ORIENTED_EDGE( '', *, *, #288, .T. );
#193 = CARTESIAN_POINT( '', ( 65.0000000000000, 8.88178419700125E-15, 0.000000000000000 ) );
#194 = DIRECTION( '', ( -1.00000000000000, 6.12323399573677E-17, 0.000000000000000 ) );
#195 = DIRECTION( '', ( 6.12323399573677E-17, 1.00000000000000, 0.000000000000000 ) );
#196 = SURFACE_STYLE_FILL_AREA( #289 );
#197 = ORIENTED_EDGE( '', *, *, #290, .F. );
#198 = ORIENTED_EDGE( '', *, *, #291, .F. );
#199 = CARTESIAN_POINT( '', ( 1.40600241538020E-14, 1.28618862942302E-14, 0.000000000000000 ) );
#200 = DIRECTION( '', ( 1.00000000000000, -6.12323399573677E-17, -0.000000000000000 ) );
#201 = DIRECTION( '', ( 6.12323399573677E-17, 1.00000000000000, 0.000000000000000 ) );
#202 = SURFACE_STYLE_FILL_AREA( #292 );
#203 = ORIENTED_EDGE( '', *, *, #283, .T. );
#204 = ORIENTED_EDGE( '', *, *, #293, .T. );
#205 = ORIENTED_EDGE( '', *, *, #287, .T. );
#206 = ORIENTED_EDGE( '', *, *, #294, .T. );
#207 = CARTESIAN_POINT( '', ( 3.00000000000001, -0.000000000000000, -0.000000000000000 ) );
#208 = DIRECTION( '', ( -1.00000000000000, 0.000000000000000, 0.000000000000000 ) );
#209 = DIRECTION( '', ( 0.000000000000000, 0.000000000000000, 1.00000000000000 ) );
#210 = SURFACE_STYLE_FILL_AREA( #295 );
#211 = ORIENTED_EDGE( '', *, *, #296, .F. );
#212 = ORIENTED_EDGE( '', *, *, #280, .T. );
#213 = CARTESIAN_POINT( '', ( 55.0000000000000, 9.49410759657493E-15, 0.000000000000000 ) );
#214 = DIRECTION( '', ( -1.00000000000000, 6.12323399573677E-17, -0.000000000000000 ) );
#215 = DIRECTION( '', ( -6.12323399573677E-17, -1.00000000000000, 0.000000000000000 ) );
#216 = SURFACE_STYLE_FILL_AREA( #297 );
#217 = ORIENTED_EDGE( '', *, *, #298, .T. );
#218 = ORIENTED_EDGE( '', *, *, #299, .T. );
#219 = ORIENTED_EDGE( '', *, *, #285, .F. );
#220 = ORIENTED_EDGE( '', *, *, #300, .T. );
#221 = CARTESIAN_POINT( '', ( 1.38777878078145E-14, 1.28618862942302E-14, 0.000000000000000 ) );
#222 = DIRECTION( '', ( 1.00000000000000, -6.12323399573677E-17, -0.000000000000000 ) );
#223 = DIRECTION( '', ( 6.12323399573677E-17, 1.00000000000000, 0.000000000000000 ) );
#224 = SURFACE_STYLE_FILL_AREA( #301 );
#225 = ORIENTED_EDGE( '', *, *, #299, .F. );
#226 = ORIENTED_EDGE( '', *, *, #302, .T. );
#227 = ORIENTED_EDGE( '', *, *, #300, .F. );
#228 = ORIENTED_EDGE( '', *, *, #284, .F. );
#229 = ORIENTED_EDGE( '', *, *, #294, .F. );
#230 = ORIENTED_EDGE( '', *, *, #286, .F. );
#231 = CARTESIAN_POINT( '', ( 3.00000000000001, 0.900000000000013, 10.5000000000000 ) );
#232 = DIRECTION( '', ( 0.000000000000000, 1.00000000000000, 0.000000000000000 ) );
#233 = DIRECTION( '', ( 0.000000000000000, -0.000000000000000, 1.00000000000000 ) );
#234 = SURFACE_STYLE_FILL_AREA( #303 );
#235 = ORIENTED_EDGE( '', *, *, #278, .F. );
#236 = ORIENTED_EDGE( '', *, *, #304, .T. );
#237 = CARTESIAN_POINT( '', ( 65.0000000000000, 8.88178419700125E-15, 0.000000000000000 ) );
#238 = DIRECTION( '', ( -1.00000000000000, 6.12323399573677E-17, 0.000000000000000 ) );
#239 = DIRECTION( '', ( 6.12323399573677E-17, 1.00000000000000, 0.000000000000000 ) );
#240 = SURFACE_STYLE_FILL_AREA( #305 );
#241 = ORIENTED_EDGE( '', *, *, #281, .F. );
#242 = ORIENTED_EDGE( '', *, *, #306, .T. );
#243 = ORIENTED_EDGE( '', *, *, #290, .T. );
#244 = ORIENTED_EDGE( '', *, *, #307, .T. );
#245 = CARTESIAN_POINT( '', ( 1.38777878078145E-14, 1.28618862942302E-14, 0.000000000000000 ) );
#246 = DIRECTION( '', ( 1.00000000000000, -6.12323399573677E-17, -0.000000000000000 ) );
#247 = DIRECTION( '', ( 6.12323399573677E-17, 1.00000000000000, 0.000000000000000 ) );
#248 = SURFACE_STYLE_FILL_AREA( #308 );
#249 = ORIENTED_EDGE( '', *, *, #309, .F. );
#250 = ORIENTED_EDGE( '', *, *, #296, .T. );
#251 = CARTESIAN_POINT( '', ( 65.0000000000000, 8.88178419700125E-15, 0.000000000000000 ) );
#252 = DIRECTION( '', ( -1.00000000000000, 6.12323399573677E-17, 0.000000000000000 ) );
#253 = DIRECTION( '', ( 6.12323399573677E-17, 1.00000000000000, 0.000000000000000 ) );
#254 = SURFACE_STYLE_FILL_AREA( #310 );
#255 = ORIENTED_EDGE( '', *, *, #291, .T. );
#256 = ORIENTED_EDGE( '', *, *, #306, .F. );
#257 = ORIENTED_EDGE( '', *, *, #288, .F. );
#258 = ORIENTED_EDGE( '', *, *, #293, .F. );
#259 = ORIENTED_EDGE( '', *, *, #282, .F. );
#260 = ORIENTED_EDGE( '', *, *, #307, .F. );
#261 = CARTESIAN_POINT( '', ( 3.00000000000001, -0.899999999999987, -10.5000000000000 ) );
#262 = DIRECTION( '', ( 0.000000000000000, -1.00000000000000, 0.000000000000000 ) );
#263 = DIRECTION( '', ( 0.000000000000000, 0.000000000000000, -1.00000000000000 ) );
#264 = SURFACE_STYLE_FILL_AREA( #311 );
#265 = ORIENTED_EDGE( '', *, *, #304, .F. );
#266 = ORIENTED_EDGE( '', *, *, #309, .T. );
#267 = CARTESIAN_POINT( '', ( 60.5000000000000, 3.60000000000001, 0.000000000000000 ) );
#268 = DIRECTION( '', ( 1.00000000000000, -6.12323399573677E-17, -0.000000000000000 ) );
#269 = DIRECTION( '', ( 6.12323399573677E-17, 1.00000000000000, 0.000000000000000 ) );
#270 = SURFACE_STYLE_FILL_AREA( #312 );
#271 = ORIENTED_EDGE( '', *, *, #298, .F. );
#272 = ORIENTED_EDGE( '', *, *, #302, .F. );
#273 = CARTESIAN_POINT( '', ( 1.40600241538020E-14, 1.28618862942302E-14, 0.000000000000000 ) );
#274 = DIRECTION( '', ( 1.00000000000000, -6.12323399573677E-17, -0.000000000000000 ) );
#275 = DIRECTION( '', ( 6.12323399573677E-17, 1.00000000000000, 0.000000000000000 ) );
#276 = FILL_AREA_STYLE( '', ( #313 ) );
#277 = CARTESIAN_POINT( '', ( 65.0000000000000, -9.10729824887824E-15, 0.000000000000000 ) );
#278 = EDGE_CURVE( '', #314, #314, #315, .T. );
#279 = FILL_AREA_STYLE( '', ( #316 ) );
#280 = EDGE_CURVE( '', #317, #317, #318, .T. );
#281 = EDGE_CURVE( '', #319, #320, #321, .T. );
#282 = EDGE_CURVE( '', #320, #322, #323, .T. );
#283 = EDGE_CURVE( '', #324, #322, #325, .T. );
#284 = EDGE_CURVE( '', #324, #326, #327, .F. );
#285 = EDGE_CURVE( '', #326, #328, #329, .T. );
#286 = EDGE_CURVE( '', #328, #330, #331, .T. );
#287 = EDGE_CURVE( '', #332, #330, #333, .T. );
#288 = EDGE_CURVE( '', #332, #319, #334, .F. );
#289 = FILL_AREA_STYLE( '', ( #335 ) );
#290 = EDGE_CURVE( '', #336, #337, #338, .T. );
#291 = EDGE_CURVE( '', #337, #336, #339, .T. );
#292 = FILL_AREA_STYLE( '', ( #340 ) );
#293 = EDGE_CURVE( '', #322, #332, #341, .T. );
#294 = EDGE_CURVE( '', #330, #324, #342, .T. );
#295 = FILL_AREA_STYLE( '', ( #343 ) );
#296 = EDGE_CURVE( '', #344, #344, #345, .T. );
#297 = FILL_AREA_STYLE( '', ( #346 ) );
#298 = EDGE_CURVE( '', #347, #348, #349, .T. );
#299 = EDGE_CURVE( '', #348, #328, #350, .T. );
#300 = EDGE_CURVE( '', #326, #347, #351, .T. );
#301 = FILL_AREA_STYLE( '', ( #352 ) );
#302 = EDGE_CURVE( '', #348, #347, #353, .T. );
#303 = FILL_AREA_STYLE( '', ( #354 ) );
#304 = EDGE_CURVE( '', #355, #355, #356, .T. );
#305 = FILL_AREA_STYLE( '', ( #357 ) );
#306 = EDGE_CURVE( '', #319, #336, #358, .T. );
#307 = EDGE_CURVE( '', #337, #320, #359, .T. );
#308 = FILL_AREA_STYLE( '', ( #360 ) );
#309 = EDGE_CURVE( '', #361, #361, #362, .T. );
#310 = FILL_AREA_STYLE( '', ( #363 ) );
#311 = FILL_AREA_STYLE( '', ( #364 ) );
#312 = FILL_AREA_STYLE( '', ( #365 ) );
#313 = FILL_AREA_STYLE_COLOUR( '', #366 );
#314 = VERTEX_POINT( '', #367 );
#315 = CIRCLE( '', #368, 4.00000000000000 );
#316 = FILL_AREA_STYLE_COLOUR( '', #369 );
#317 = VERTEX_POINT( '', #370 );
#318 = CIRCLE( '', #371, 6.00000000000000 );
#319 = VERTEX_POINT( '', #372 );
#320 = VERTEX_POINT( '', #373 );
#321 = CIRCLE( '', #374, 6.00000000000000 );
#322 = VERTEX_POINT( '', #375 );
#323 = LINE( '', #376, #377 );
#324 = VERTEX_POINT( '', #378 );
#325 = CIRCLE( '', #379, 6.00000000000000 );
#326 = VERTEX_POINT( '', #380 );
#327 = LINE( '', #381, #382 );
#328 = VERTEX_POINT( '', #383 );
#329 = CIRCLE( '', #384, 6.00000000000000 );
#330 = VERTEX_POINT( '', #385 );
#331 = LINE( '', #386, #387 );
#332 = VERTEX_POINT( '', #388 );
#333 = CIRCLE( '', #389, 6.00000000000000 );
#334 = LINE( '', #390, #391 );
#335 = FILL_AREA_STYLE_COLOUR( '', #392 );
#336 = VERTEX_POINT( '', #393 );
#337 = VERTEX_POINT( '', #394 );
#338 = CIRCLE( '', #395, 4.92650000000000 );
#339 = LINE( '', #396, #397 );
#340 = FILL_AREA_STYLE_COLOUR( '', #398 );
#341 = LINE( '', #399, #400 );
#342 = LINE( '', #401, #402 );
#343 = FILL_AREA_STYLE_COLOUR( '', #403 );
#344 = VERTEX_POINT( '', #404 );
#345 = CIRCLE( '', #405, 3.60000000000000 );
#346 = FILL_AREA_STYLE_COLOUR( '', #406 );
#347 = VERTEX_POINT( '', #407 );
#348 = VERTEX_POINT( '', #408 );
#349 = CIRCLE( '', #409, 4.92650000000000 );
#350 = B_SPLINE_CURVE_WITH_KNOTS( '', 3, ( #410, #411, #412, #413 ), .UNSPECIFIED., .F., .F., ( 4, 4 ), ( 0.0245656796122453, 0.0261075036220749 ), .UNSPECIFIED. );
#351 = B_SPLINE_CURVE_WITH_KNOTS( '', 3, ( #414, #415, #416, #417 ), .UNSPECIFIED., .F., .F., ( 4, 4 ), ( 0.0102495533465439, 0.0117783706769766 ), .UNSPECIFIED. );
#352 = FILL_AREA_STYLE_COLOUR( '', #418 );
#353 = LINE( '', #419, #420 );
#354 = FILL_AREA_STYLE_COLOUR( '', #421 );
#355 = VERTEX_POINT( '', #422 );
#356 = CIRCLE( '', #423, 4.00000000000000 );
#357 = FILL_AREA_STYLE_COLOUR( '', #424 );
#358 = B_SPLINE_CURVE_WITH_KNOTS( '', 3, ( #425, #426, #427, #428 ), .UNSPECIFIED., .F., .F., ( 4, 4 ), ( 0.0102495533465439, 0.0117783706769766 ), .UNSPECIFIED. );
#359 = B_SPLINE_CURVE_WITH_KNOTS( '', 3, ( #429, #430, #431, #432 ), .UNSPECIFIED., .F., .F., ( 4, 4 ), ( 0.0245656796122453, 0.0261075036220749 ), .UNSPECIFIED. );
#360 = FILL_AREA_STYLE_COLOUR( '', #433 );
#361 = VERTEX_POINT( '', #434 );
#362 = CIRCLE( '', #435, 3.60000000000000 );
#363 = FILL_AREA_STYLE_COLOUR( '', #436 );
#364 = FILL_AREA_STYLE_COLOUR( '', #437 );
#365 = FILL_AREA_STYLE_COLOUR( '', #438 );
#366 = COLOUR_RGB( '', 0.689999997600000, 0.689999997600000, 0.689999997600000 );
#367 = CARTESIAN_POINT( '', ( 63.6773037637589, 4.00000000000001, 0.000000000000000 ) );
#368 = AXIS2_PLACEMENT_3D( '', #439, #440, #441 );
#369 = COLOUR_RGB( '', 0.689999997600000, 0.689999997600000, 0.689999997600000 );
#370 = CARTESIAN_POINT( '', ( 55.0000000000000, 6.00000000000001, 0.000000000000000 ) );
#371 = AXIS2_PLACEMENT_3D( '', #442, #443, #444 );
#372 = CARTESIAN_POINT( '', ( 1.07350000000002, -0.899999999999983, 5.93211597998556 ) );
#373 = CARTESIAN_POINT( '', ( 1.07350000000002, -0.899999999999983, -5.93211597998556 ) );
#374 = AXIS2_PLACEMENT_3D( '', #445, #446, #447 );
#375 = CARTESIAN_POINT( '', ( 3.00000000000002, -0.899999999999987, -5.93211597998556 ) );
#376 = CARTESIAN_POINT( '', ( 65.0000000000000, -0.899999999999987, -5.93211597998556 ) );
#377 = VECTOR( '', #448, 1000.00000000000 );
#378 = CARTESIAN_POINT( '', ( 3.00000000000002, 0.900000000000013, -5.93211597998556 ) );
#379 = AXIS2_PLACEMENT_3D( '', #449, #450, #451 );
#380 = CARTESIAN_POINT( '', ( 1.07350000000002, 0.900000000000017, -5.93211597998556 ) );
#381 = CARTESIAN_POINT( '', ( 65.0000000000000, 0.900000000000013, -5.93211597998556 ) );
#382 = VECTOR( '', #452, 1000.00000000000 );
#383 = CARTESIAN_POINT( '', ( 1.07350000000002, 0.900000000000017, 5.93211597998556 ) );
#384 = AXIS2_PLACEMENT_3D( '', #453, #454, #455 );
#385 = CARTESIAN_POINT( '', ( 3.00000000000002, 0.900000000000013, 5.93211597998556 ) );
#386 = CARTESIAN_POINT( '', ( 65.0000000000000, 0.900000000000013, 5.93211597998556 ) );
#387 = VECTOR( '', #456, 1000.00000000000 );
#388 = CARTESIAN_POINT( '', ( 3.00000000000002, -0.899999999999987, 5.93211597998556 ) );
#389 = AXIS2_PLACEMENT_3D( '', #457, #458, #459 );
#390 = CARTESIAN_POINT( '', ( 65.0000000000000, -0.899999999999987, 5.93211597998556 ) );
#391 = VECTOR( '', #460, 1000.00000000000 );
#392 = COLOUR_RGB( '', 0.689999997600000, 0.689999997600000, 0.689999997600000 );
#393 = CARTESIAN_POINT( '', ( 1.42108547152020E-14, -0.899999999999987, 4.84359393942143 ) );
#394 = CARTESIAN_POINT( '', ( 1.42108547152020E-14, -0.899999999999987, -4.84359393942143 ) );
#395 = AXIS2_PLACEMENT_3D( '', #461, #462, #463 );
#396 = CARTESIAN_POINT( '', ( 1.42108547152020E-14, -0.899999999999987, -10.5000000000000 ) );
#397 = VECTOR( '', #464, 1000.00000000000 );
#398 = COLOUR_RGB( '', 0.689999997600000, 0.689999997600000, 0.689999997600000 );
#399 = CARTESIAN_POINT( '', ( 3.00000000000001, -0.899999999999987, -10.5000000000000 ) );
#400 = VECTOR( '', #465, 1000.00000000000 );
#401 = CARTESIAN_POINT( '', ( 3.00000000000001, 0.900000000000013, 10.5000000000000 ) );
#402 = VECTOR( '', #466, 1000.00000000000 );
#403 = COLOUR_RGB( '', 0.689999997600000, 0.689999997600000, 0.689999997600000 );
#404 = CARTESIAN_POINT( '', ( 55.9623000000000, 3.60000000000001, 0.000000000000000 ) );
#405 = AXIS2_PLACEMENT_3D( '', #467, #468, #469 );
#406 = COLOUR_RGB( '', 0.689999997600000, 0.689999997600000, 0.689999997600000 );
#407 = CARTESIAN_POINT( '', ( 1.42108547152020E-14, 0.900000000000013, -4.84359393942143 ) );
#408 = CARTESIAN_POINT( '', ( 1.42108547152020E-14, 0.900000000000013, 4.84359393942143 ) );
#409 = AXIS2_PLACEMENT_3D( '', #470, #471, #472 );
#410 = CARTESIAN_POINT( '', ( 1.52365976714740E-14, 0.900000000000013, 4.84359393942143 ) );
#411 = CARTESIAN_POINT( '', ( 0.357276898579826, 0.900000000000013, 5.20698621855697 ) );
#412 = CARTESIAN_POINT( '', ( 0.715211048721698, 0.900000000000013, 5.56972695810484 ) );
#413 = CARTESIAN_POINT( '', ( 1.07350000000002, 0.900000000000013, 5.93211597998556 ) );
#414 = CARTESIAN_POINT( '', ( 1.07350000000002, 0.900000000000013, -5.93211597998556 ) );
#415 = CARTESIAN_POINT( '', ( 0.715209951210074, 0.900000000000013, -5.56972584803387 ) );
#416 = CARTESIAN_POINT( '', ( 0.357275562011640, 0.900000000000013, -5.20698485911122 ) );
#417 = CARTESIAN_POINT( '', ( 1.56069054885125E-14, 0.900000000000013, -4.84359393942143 ) );
#418 = COLOUR_RGB( '', 0.689999997600000, 0.689999997600000, 0.689999997600000 );
#419 = CARTESIAN_POINT( '', ( 1.42108547152020E-14, 0.900000000000013, 10.5000000000000 ) );
#420 = VECTOR( '', #473, 1000.00000000000 );
#421 = COLOUR_RGB( '', 0.689999997600000, 0.689999997600000, 0.689999997600000 );
#422 = CARTESIAN_POINT( '', ( 60.5000000000000, 4.00000000000001, 0.000000000000000 ) );
#423 = AXIS2_PLACEMENT_3D( '', #474, #475, #476 );
#424 = COLOUR_RGB( '', 0.689999997600000, 0.689999997600000, 0.689999997600000 );
#425 = CARTESIAN_POINT( '', ( 1.07350000000002, -0.899999999999987, 5.93211597998556 ) );
#426 = CARTESIAN_POINT( '', ( 0.715209951210075, -0.899999999999987, 5.56972584803387 ) );
#427 = CARTESIAN_POINT( '', ( 0.357275562011641, -0.899999999999987, 5.20698485911122 ) );
#428 = CARTESIAN_POINT( '', ( 1.55563481369424E-14, -0.899999999999987, 4.84359393942143 ) );
#429 = CARTESIAN_POINT( '', ( 1.48585712589264E-14, -0.899999999999987, -4.84359393942143 ) );
#430 = CARTESIAN_POINT( '', ( 0.357276898579825, -0.899999999999987, -5.20698621855697 ) );
#431 = CARTESIAN_POINT( '', ( 0.715211048721696, -0.899999999999987, -5.56972695810484 ) );
#432 = CARTESIAN_POINT( '', ( 1.07350000000002, -0.899999999999987, -5.93211597998556 ) );
#433 = COLOUR_RGB( '', 0.689999997600000, 0.689999997600000, 0.689999997600000 );
#434 = CARTESIAN_POINT( '', ( 60.5000000000000, 3.60000000000001, 0.000000000000000 ) );
#435 = AXIS2_PLACEMENT_3D( '', #477, #478, #479 );
#436 = COLOUR_RGB( '', 0.689999997600000, 0.689999997600000, 0.689999997600000 );
#437 = COLOUR_RGB( '', 0.689999997600000, 0.689999997600000, 0.689999997600000 );
#438 = COLOUR_RGB( '', 0.689999997600000, 0.689999997600000, 0.689999997600000 );
#439 = CARTESIAN_POINT( '', ( 63.6773037637589, 8.96277598259910E-15, 0.000000000000000 ) );
#440 = DIRECTION( '', ( 1.00000000000000, -6.12323399573677E-17, -0.000000000000000 ) );
#441 = DIRECTION( '', ( 6.12323399573677E-17, 1.00000000000000, 0.000000000000000 ) );
#442 = CARTESIAN_POINT( '', ( 55.0000000000000, 9.49410759657493E-15, 0.000000000000000 ) );
#443 = DIRECTION( '', ( 1.00000000000000, -6.12323399573677E-17, -0.000000000000000 ) );
#444 = DIRECTION( '', ( 6.12323399573677E-17, 1.00000000000000, 0.000000000000000 ) );
#445 = CARTESIAN_POINT( '', ( 1.07350000000002, 1.27961533772859E-14, 0.000000000000000 ) );
#446 = DIRECTION( '', ( 1.00000000000000, -6.12323399573677E-17, -0.000000000000000 ) );
#447 = DIRECTION( '', ( 6.12323399573677E-17, 1.00000000000000, 0.000000000000000 ) );
#448 = DIRECTION( '', ( 1.00000000000000, -6.12323399573677E-17, -0.000000000000000 ) );
#449 = CARTESIAN_POINT( '', ( 3.00000000000002, 1.26781892743580E-14, 0.000000000000000 ) );
#450 = DIRECTION( '', ( -1.00000000000000, 0.000000000000000, 0.000000000000000 ) );
#451 = DIRECTION( '', ( 0.000000000000000, 0.000000000000000, 1.00000000000000 ) );
#452 = DIRECTION( '', ( 1.00000000000000, -6.12323399573677E-17, -0.000000000000000 ) );
#453 = CARTESIAN_POINT( '', ( 1.07350000000002, 1.27961533772859E-14, 0.000000000000000 ) );
#454 = DIRECTION( '', ( 1.00000000000000, -6.12323399573677E-17, -0.000000000000000 ) );
#455 = DIRECTION( '', ( 6.12323399573677E-17, 1.00000000000000, 0.000000000000000 ) );
#456 = DIRECTION( '', ( 1.00000000000000, -6.12323399573677E-17, -0.000000000000000 ) );
#457 = CARTESIAN_POINT( '', ( 3.00000000000002, 1.26781892743580E-14, 0.000000000000000 ) );
#458 = DIRECTION( '', ( -1.00000000000000, 0.000000000000000, 0.000000000000000 ) );
#459 = DIRECTION( '', ( 0.000000000000000, 0.000000000000000, 1.00000000000000 ) );
#460 = DIRECTION( '', ( 1.00000000000000, -6.12323399573677E-17, -0.000000000000000 ) );
#461 = CARTESIAN_POINT( '', ( 1.38777878078145E-14, 1.28618862942302E-14, 0.000000000000000 ) );
#462 = DIRECTION( '', ( 1.00000000000000, -6.12323399573677E-17, -0.000000000000000 ) );
#463 = DIRECTION( '', ( 6.12323399573677E-17, 1.00000000000000, 0.000000000000000 ) );
#464 = DIRECTION( '', ( 0.000000000000000, 0.000000000000000, 1.00000000000000 ) );
#465 = DIRECTION( '', ( 0.000000000000000, 0.000000000000000, 1.00000000000000 ) );
#466 = DIRECTION( '', ( 0.000000000000000, 0.000000000000000, -1.00000000000000 ) );
#467 = CARTESIAN_POINT( '', ( 55.9623000000000, 9.43518371583395E-15, 0.000000000000000 ) );
#468 = DIRECTION( '', ( 1.00000000000000, -6.12323399573677E-17, -0.000000000000000 ) );
#469 = DIRECTION( '', ( 6.12323399573677E-17, 1.00000000000000, 0.000000000000000 ) );
#470 = CARTESIAN_POINT( '', ( 1.38777878078145E-14, 1.28618862942302E-14, 0.000000000000000 ) );
#471 = DIRECTION( '', ( 1.00000000000000, -6.12323399573677E-17, -0.000000000000000 ) );
#472 = DIRECTION( '', ( 6.12323399573677E-17, 1.00000000000000, 0.000000000000000 ) );
#473 = DIRECTION( '', ( 0.000000000000000, 0.000000000000000, -1.00000000000000 ) );
#474 = CARTESIAN_POINT( '', ( 60.5000000000000, 9.15732972680941E-15, 0.000000000000000 ) );
#475 = DIRECTION( '', ( 1.00000000000000, -6.12323399573677E-17, -0.000000000000000 ) );
#476 = DIRECTION( '', ( 6.12323399573677E-17, 1.00000000000000, 0.000000000000000 ) );
#477 = CARTESIAN_POINT( '', ( 60.5000000000000, 9.15732972680941E-15, 0.000000000000000 ) );
#478 = DIRECTION( '', ( 1.00000000000000, -6.12323399573677E-17, -0.000000000000000 ) );
#479 = DIRECTION( '', ( 6.12323399573677E-17, 1.00000000000000, 0.000000000000000 ) );
ENDSEC;
END-ISO-10303-21;
