ISO-10303-21;
HEADER;
FILE_DESCRIPTION( ( 'STEP AP214' ), '1' );
FILE_NAME( '//goodhand-server/Shared Folders/GoodHand Data/Kipp CAD/K0163/K0163.1160X14.stp', '2020-11-26T10:29:48', ( '' ), ( '' ), ' ', 'PARTsolutions', ' ' );
FILE_SCHEMA( ( 'AUTOMOTIVE_DESIGN { 1 0 10303 214 1 1 1 1 }' ) );
ENDSEC;
DATA;
#1 = MECHANICAL_DESIGN_GEOMETRIC_PRESENTATION_REPRESENTATION( ' ', ( #10, #11, #12, #13, #14, #15, #16, #17, #18, #19, #20, #21, #22, #23, #24 ), #6 );
#2 = PRODUCT_DEFINITION_CONTEXT( '', #25, 'design' );
#3 = APPLICATION_PROTOCOL_DEFINITION( 'international standard', 'automotive_design', 2001, #25 );
#4 = PRODUCT_CATEGORY_RELATIONSHIP( 'NONE', 'NONE', #26, #27 );
#5 = SHAPE_DEFINITION_REPRESENTATION( #28, #29 );
#6 =  ( GEOMETRIC_REPRESENTATION_CONTEXT( 3 )GLOBAL_UNCERTAINTY_ASSIGNED_CONTEXT( ( #32 ) )GLOBAL_UNIT_ASSIGNED_CONTEXT( ( #34, #35, #36 ) )REPRESENTATION_CONTEXT( 'NONE', 'WORKSPACE' ) );
#10 = STYLED_ITEM( '', ( #38 ), #39 );
#11 = STYLED_ITEM( '', ( #40 ), #41 );
#12 = STYLED_ITEM( '', ( #42 ), #43 );
#13 = STYLED_ITEM( '', ( #44 ), #45 );
#14 = STYLED_ITEM( '', ( #46 ), #47 );
#15 = STYLED_ITEM( '', ( #48 ), #49 );
#16 = STYLED_ITEM( '', ( #50 ), #51 );
#17 = STYLED_ITEM( '', ( #52 ), #53 );
#18 = STYLED_ITEM( '', ( #54 ), #55 );
#19 = STYLED_ITEM( '', ( #56 ), #57 );
#20 = STYLED_ITEM( '', ( #58 ), #59 );
#21 = STYLED_ITEM( '', ( #60 ), #61 );
#22 = STYLED_ITEM( '', ( #62 ), #63 );
#23 = STYLED_ITEM( '', ( #64 ), #65 );
#24 = STYLED_ITEM( '', ( #66 ), #67 );
#25 = APPLICATION_CONTEXT( 'core data for automotive mechanical design processes' );
#26 = PRODUCT_CATEGORY( 'part', 'NONE' );
#27 = PRODUCT_RELATED_PRODUCT_CATEGORY( 'detail', ' ', ( #68 ) );
#28 = PRODUCT_DEFINITION_SHAPE( 'NONE', 'NONE', #69 );
#29 = ADVANCED_BREP_SHAPE_REPRESENTATION( '_K0163.1160X14', ( #70, #71 ), #6 );
#32 = UNCERTAINTY_MEASURE_WITH_UNIT( LENGTH_MEASURE( 0.00100000000000000 ), #34, '', '' );
#34 =  ( CONVERSION_BASED_UNIT( 'MILLIMETRE', #74 )LENGTH_UNIT(  )NAMED_UNIT( #77 ) );
#35 =  ( NAMED_UNIT( #79 )PLANE_ANGLE_UNIT(  )SI_UNIT( $, .RADIAN. ) );
#36 =  ( NAMED_UNIT( #79 )SI_UNIT( $, .STERADIAN. )SOLID_ANGLE_UNIT(  ) );
#38 = PRESENTATION_STYLE_ASSIGNMENT( ( #85 ) );
#39 = ADVANCED_FACE( '', ( #86, #87 ), #88, .F. );
#40 = PRESENTATION_STYLE_ASSIGNMENT( ( #89 ) );
#41 = ADVANCED_FACE( '', ( #90, #91 ), #92, .T. );
#42 = PRESENTATION_STYLE_ASSIGNMENT( ( #93 ) );
#43 = ADVANCED_FACE( '', ( #94, #95 ), #96, .T. );
#44 = PRESENTATION_STYLE_ASSIGNMENT( ( #97 ) );
#45 = ADVANCED_FACE( '', ( #98, #99 ), #100, .F. );
#46 = PRESENTATION_STYLE_ASSIGNMENT( ( #101 ) );
#47 = ADVANCED_FACE( '', ( #102, #103 ), #104, .F. );
#48 = PRESENTATION_STYLE_ASSIGNMENT( ( #105 ) );
#49 = ADVANCED_FACE( '', ( #106 ), #107, .T. );
#50 = PRESENTATION_STYLE_ASSIGNMENT( ( #108 ) );
#51 = ADVANCED_FACE( '', ( #109, #110 ), #111, .F. );
#52 = PRESENTATION_STYLE_ASSIGNMENT( ( #112 ) );
#53 = ADVANCED_FACE( '', ( #113 ), #114, .T. );
#54 = PRESENTATION_STYLE_ASSIGNMENT( ( #115 ) );
#55 = ADVANCED_FACE( '', ( #116, #117 ), #118, .F. );
#56 = PRESENTATION_STYLE_ASSIGNMENT( ( #119 ) );
#57 = ADVANCED_FACE( '', ( #120, #121 ), #122, .T. );
#58 = PRESENTATION_STYLE_ASSIGNMENT( ( #123 ) );
#59 = ADVANCED_FACE( '', ( #124, #125 ), #126, .T. );
#60 = PRESENTATION_STYLE_ASSIGNMENT( ( #127 ) );
#61 = ADVANCED_FACE( '', ( #128, #129 ), #130, .F. );
#62 = PRESENTATION_STYLE_ASSIGNMENT( ( #131 ) );
#63 = ADVANCED_FACE( '', ( #132, #133, #134 ), #135, .T. );
#64 = PRESENTATION_STYLE_ASSIGNMENT( ( #136 ) );
#65 = ADVANCED_FACE( '', ( #137 ), #138, .F. );
#66 = PRESENTATION_STYLE_ASSIGNMENT( ( #139 ) );
#67 = ADVANCED_FACE( '', ( #140 ), #141, .T. );
#68 = PRODUCT( '_K0163.1160X14', '_K0163.1160X14', 'PART-_K0163.1160X14-DESC', ( #142 ) );
#69 = PRODUCT_DEFINITION( 'NONE', 'NONE', #143, #2 );
#70 = MANIFOLD_SOLID_BREP( '_K0163.1160X14', #144 );
#71 = AXIS2_PLACEMENT_3D( '', #145, #146, #147 );
#74 = LENGTH_MEASURE_WITH_UNIT( LENGTH_MEASURE( 1.00000000000000 ), #148 );
#77 = DIMENSIONAL_EXPONENTS( 1.00000000000000, 0.000000000000000, 0.000000000000000, 0.000000000000000, 0.000000000000000, 0.000000000000000, 0.000000000000000 );
#79 = DIMENSIONAL_EXPONENTS( 0.000000000000000, 0.000000000000000, 0.000000000000000, 0.000000000000000, 0.000000000000000, 0.000000000000000, 0.000000000000000 );
#85 = SURFACE_STYLE_USAGE( .BOTH., #149 );
#86 = FACE_OUTER_BOUND( '', #150, .T. );
#87 = FACE_BOUND( '', #151, .T. );
#88 = CONICAL_SURFACE( '', #152, 69.0000000000000, 0.380576053200000 );
#89 = SURFACE_STYLE_USAGE( .BOTH., #153 );
#90 = FACE_OUTER_BOUND( '', #154, .T. );
#91 = FACE_OUTER_BOUND( '', #155, .T. );
#92 = CYLINDRICAL_SURFACE( '', #156, 17.0000000000000 );
#93 = SURFACE_STYLE_USAGE( .BOTH., #157 );
#94 = FACE_OUTER_BOUND( '', #158, .T. );
#95 = FACE_OUTER_BOUND( '', #159, .T. );
#96 = CYLINDRICAL_SURFACE( '', #160, 17.0000000000000 );
#97 = SURFACE_STYLE_USAGE( .BOTH., #161 );
#98 = FACE_BOUND( '', #162, .T. );
#99 = FACE_OUTER_BOUND( '', #163, .T. );
#100 = CONICAL_SURFACE( '', #164, 69.5000000000000, 0.789051152000000 );
#101 = SURFACE_STYLE_USAGE( .BOTH., #165 );
#102 = FACE_BOUND( '', #166, .T. );
#103 = FACE_OUTER_BOUND( '', #167, .T. );
#104 = CONICAL_SURFACE( '', #168, 67.0000000000000, 1.32581766370000 );
#105 = SURFACE_STYLE_USAGE( .BOTH., #169 );
#106 = FACE_OUTER_BOUND( '', #170, .T. );
#107 = PLANE( '', #171 );
#108 = SURFACE_STYLE_USAGE( .BOTH., #172 );
#109 = FACE_OUTER_BOUND( '', #173, .T. );
#110 = FACE_BOUND( '', #174, .T. );
#111 = PLANE( '', #175 );
#112 = SURFACE_STYLE_USAGE( .BOTH., #176 );
#113 = FACE_OUTER_BOUND( '', #177, .T. );
#114 = PLANE( '', #178 );
#115 = SURFACE_STYLE_USAGE( .BOTH., #179 );
#116 = FACE_BOUND( '', #180, .T. );
#117 = FACE_OUTER_BOUND( '', #181, .T. );
#118 = PLANE( '', #182 );
#119 = SURFACE_STYLE_USAGE( .BOTH., #183 );
#120 = FACE_BOUND( '', #184, .T. );
#121 = FACE_OUTER_BOUND( '', #185, .T. );
#122 = CONICAL_SURFACE( '', #186, 61.0000000000000, 1.20804656790000 );
#123 = SURFACE_STYLE_USAGE( .BOTH., #187 );
#124 = FACE_OUTER_BOUND( '', #188, .T. );
#125 = FACE_OUTER_BOUND( '', #189, .T. );
#126 = TOROIDAL_SURFACE( '', #190, 71.1197203534000, 12.0000000000000 );
#127 = SURFACE_STYLE_USAGE( .BOTH., #191 );
#128 = FACE_OUTER_BOUND( '', #192, .T. );
#129 = FACE_BOUND( '', #193, .T. );
#130 = CONICAL_SURFACE( '', #194, 17.0000000000000, 1.26235963180000 );
#131 = SURFACE_STYLE_USAGE( .BOTH., #195 );
#132 = FACE_BOUND( '', #196, .T. );
#133 = FACE_OUTER_BOUND( '', #197, .T. );
#134 = FACE_OUTER_BOUND( '', #198, .T. );
#135 = TOROIDAL_SURFACE( '', #199, 70.1000000000000, 9.90000000000000 );
#136 = SURFACE_STYLE_USAGE( .BOTH., #200 );
#137 = FACE_OUTER_BOUND( '', #201, .T. );
#138 = CYLINDRICAL_SURFACE( '', #202, 7.00000000000000 );
#139 = SURFACE_STYLE_USAGE( .BOTH., #203 );
#140 = FACE_OUTER_BOUND( '', #204, .T. );
#141 = PLANE( '', #205 );
#142 = PRODUCT_CONTEXT( '', #25, 'mechanical' );
#143 = PRODUCT_DEFINITION_FORMATION_WITH_SPECIFIED_SOURCE( ' ', 'NONE', #68, .NOT_KNOWN. );
#144 = CLOSED_SHELL( '', ( #51, #53, #49, #65, #67, #55, #41, #57, #47, #45, #63, #39, #59, #61, #43 ) );
#145 = CARTESIAN_POINT( '', ( 0.000000000000000, 0.000000000000000, 0.000000000000000 ) );
#146 = DIRECTION( '', ( 0.000000000000000, 0.000000000000000, 1.00000000000000 ) );
#147 = DIRECTION( '', ( 1.00000000000000, 0.000000000000000, 0.000000000000000 ) );
#148 =  ( LENGTH_UNIT(  )NAMED_UNIT( #77 )SI_UNIT( .MILLI., .METRE. ) );
#149 = SURFACE_SIDE_STYLE( '', ( #207 ) );
#150 = EDGE_LOOP( '', ( #208 ) );
#151 = EDGE_LOOP( '', ( #209 ) );
#152 = AXIS2_PLACEMENT_3D( '', #210, #211, #212 );
#153 = SURFACE_SIDE_STYLE( '', ( #213 ) );
#154 = EDGE_LOOP( '', ( #214 ) );
#155 = EDGE_LOOP( '', ( #215 ) );
#156 = AXIS2_PLACEMENT_3D( '', #216, #217, #218 );
#157 = SURFACE_SIDE_STYLE( '', ( #219 ) );
#158 = EDGE_LOOP( '', ( #220 ) );
#159 = EDGE_LOOP( '', ( #221 ) );
#160 = AXIS2_PLACEMENT_3D( '', #222, #223, #224 );
#161 = SURFACE_SIDE_STYLE( '', ( #225 ) );
#162 = EDGE_LOOP( '', ( #226 ) );
#163 = EDGE_LOOP( '', ( #227 ) );
#164 = AXIS2_PLACEMENT_3D( '', #228, #229, #230 );
#165 = SURFACE_SIDE_STYLE( '', ( #231 ) );
#166 = EDGE_LOOP( '', ( #232 ) );
#167 = EDGE_LOOP( '', ( #233 ) );
#168 = AXIS2_PLACEMENT_3D( '', #234, #235, #236 );
#169 = SURFACE_SIDE_STYLE( '', ( #237 ) );
#170 = EDGE_LOOP( '', ( #238, #239, #240, #241 ) );
#171 = AXIS2_PLACEMENT_3D( '', #242, #243, #244 );
#172 = SURFACE_SIDE_STYLE( '', ( #245 ) );
#173 = EDGE_LOOP( '', ( #246 ) );
#174 = EDGE_LOOP( '', ( #247, #248, #249, #250 ) );
#175 = AXIS2_PLACEMENT_3D( '', #251, #252, #253 );
#176 = SURFACE_SIDE_STYLE( '', ( #254 ) );
#177 = EDGE_LOOP( '', ( #255, #256, #257, #258 ) );
#178 = AXIS2_PLACEMENT_3D( '', #259, #260, #261 );
#179 = SURFACE_SIDE_STYLE( '', ( #262 ) );
#180 = EDGE_LOOP( '', ( #263, #264, #265, #266 ) );
#181 = EDGE_LOOP( '', ( #267 ) );
#182 = AXIS2_PLACEMENT_3D( '', #268, #269, #270 );
#183 = SURFACE_SIDE_STYLE( '', ( #271 ) );
#184 = EDGE_LOOP( '', ( #272 ) );
#185 = EDGE_LOOP( '', ( #273 ) );
#186 = AXIS2_PLACEMENT_3D( '', #274, #275, #276 );
#187 = SURFACE_SIDE_STYLE( '', ( #277 ) );
#188 = EDGE_LOOP( '', ( #278 ) );
#189 = EDGE_LOOP( '', ( #279 ) );
#190 = AXIS2_PLACEMENT_3D( '', #280, #281, #282 );
#191 = SURFACE_SIDE_STYLE( '', ( #283 ) );
#192 = EDGE_LOOP( '', ( #284 ) );
#193 = EDGE_LOOP( '', ( #285 ) );
#194 = AXIS2_PLACEMENT_3D( '', #286, #287, #288 );
#195 = SURFACE_SIDE_STYLE( '', ( #289 ) );
#196 = VERTEX_LOOP( '', #290 );
#197 = EDGE_LOOP( '', ( #291 ) );
#198 = EDGE_LOOP( '', ( #292 ) );
#199 = AXIS2_PLACEMENT_3D( '', #293, #294, #295 );
#200 = SURFACE_SIDE_STYLE( '', ( #296 ) );
#201 = EDGE_LOOP( '', ( #297, #298, #299, #300 ) );
#202 = AXIS2_PLACEMENT_3D( '', #301, #302, #303 );
#203 = SURFACE_SIDE_STYLE( '', ( #304 ) );
#204 = EDGE_LOOP( '', ( #305, #306, #307, #308 ) );
#205 = AXIS2_PLACEMENT_3D( '', #309, #310, #311 );
#207 = SURFACE_STYLE_FILL_AREA( #312 );
#208 = ORIENTED_EDGE( '', *, *, #313, .F. );
#209 = ORIENTED_EDGE( '', *, *, #314, .T. );
#210 = CARTESIAN_POINT( '', ( 37.5000000000000, 0.000000000000000, 0.000000000000000 ) );
#211 = DIRECTION( '', ( 1.00000000000000, -0.000000000000000, 0.000000000000000 ) );
#212 = DIRECTION( '', ( 0.000000000000000, 0.000000000000000, -1.00000000000000 ) );
#213 = SURFACE_STYLE_FILL_AREA( #315 );
#214 = ORIENTED_EDGE( '', *, *, #316, .F. );
#215 = ORIENTED_EDGE( '', *, *, #317, .T. );
#216 = CARTESIAN_POINT( '', ( 0.000000000000000, 0.000000000000000, 0.000000000000000 ) );
#217 = DIRECTION( '', ( 1.00000000000000, -0.000000000000000, -0.000000000000000 ) );
#218 = DIRECTION( '', ( 0.000000000000000, 0.000000000000000, 1.00000000000000 ) );
#219 = SURFACE_STYLE_FILL_AREA( #318 );
#220 = ORIENTED_EDGE( '', *, *, #319, .F. );
#221 = ORIENTED_EDGE( '', *, *, #320, .T. );
#222 = CARTESIAN_POINT( '', ( 0.000000000000000, 0.000000000000000, 0.000000000000000 ) );
#223 = DIRECTION( '', ( 1.00000000000000, -0.000000000000000, -0.000000000000000 ) );
#224 = DIRECTION( '', ( 0.000000000000000, 0.000000000000000, 1.00000000000000 ) );
#225 = SURFACE_STYLE_FILL_AREA( #321 );
#226 = ORIENTED_EDGE( '', *, *, #322, .F. );
#227 = ORIENTED_EDGE( '', *, *, #323, .T. );
#228 = CARTESIAN_POINT( '', ( 20.2181985447996, 0.000000000000000, 0.000000000000000 ) );
#229 = DIRECTION( '', ( -1.00000000000000, -0.000000000000000, -0.000000000000000 ) );
#230 = DIRECTION( '', ( 0.000000000000000, 0.000000000000000, 1.00000000000000 ) );
#231 = SURFACE_STYLE_FILL_AREA( #324 );
#232 = ORIENTED_EDGE( '', *, *, #325, .F. );
#233 = ORIENTED_EDGE( '', *, *, #322, .T. );
#234 = CARTESIAN_POINT( '', ( 22.7000000000000, 0.000000000000000, 0.000000000000000 ) );
#235 = DIRECTION( '', ( -1.00000000000000, -0.000000000000000, -0.000000000000000 ) );
#236 = DIRECTION( '', ( 0.000000000000000, 0.000000000000000, 1.00000000000000 ) );
#237 = SURFACE_STYLE_FILL_AREA( #326 );
#238 = ORIENTED_EDGE( '', *, *, #327, .T. );
#239 = ORIENTED_EDGE( '', *, *, #328, .T. );
#240 = ORIENTED_EDGE( '', *, *, #329, .F. );
#241 = ORIENTED_EDGE( '', *, *, #330, .F. );
#242 = CARTESIAN_POINT( '', ( 30.0000000000000, 6.53834841531101, -2.50000000000000 ) );
#243 = DIRECTION( '', ( 0.000000000000000, -2.51258846060723E-15, 1.00000000000000 ) );
#244 = DIRECTION( '', ( 0.000000000000000, -1.00000000000000, -2.51258846060723E-15 ) );
#245 = SURFACE_STYLE_FILL_AREA( #331 );
#246 = ORIENTED_EDGE( '', *, *, #320, .F. );
#247 = ORIENTED_EDGE( '', *, *, #332, .F. );
#248 = ORIENTED_EDGE( '', *, *, #333, .F. );
#249 = ORIENTED_EDGE( '', *, *, #327, .F. );
#250 = ORIENTED_EDGE( '', *, *, #334, .F. );
#251 = CARTESIAN_POINT( '', ( 20.0000000000000, 0.000000000000000, 0.000000000000000 ) );
#252 = DIRECTION( '', ( -1.00000000000000, 0.000000000000000, 0.000000000000000 ) );
#253 = DIRECTION( '', ( 0.000000000000000, 0.000000000000000, 1.00000000000000 ) );
#254 = SURFACE_STYLE_FILL_AREA( #335 );
#255 = ORIENTED_EDGE( '', *, *, #333, .T. );
#256 = ORIENTED_EDGE( '', *, *, #336, .T. );
#257 = ORIENTED_EDGE( '', *, *, #337, .F. );
#258 = ORIENTED_EDGE( '', *, *, #328, .F. );
#259 = CARTESIAN_POINT( '', ( 30.0000000000000, 9.30000000000000, -2.49999999999999 ) );
#260 = DIRECTION( '', ( 0.000000000000000, -1.00000000000000, 0.000000000000000 ) );
#261 = DIRECTION( '', ( 0.000000000000000, 0.000000000000000, -1.00000000000000 ) );
#262 = SURFACE_STYLE_FILL_AREA( #338 );
#263 = ORIENTED_EDGE( '', *, *, #339, .T. );
#264 = ORIENTED_EDGE( '', *, *, #340, .F. );
#265 = ORIENTED_EDGE( '', *, *, #329, .T. );
#266 = ORIENTED_EDGE( '', *, *, #337, .T. );
#267 = ORIENTED_EDGE( '', *, *, #316, .T. );
#268 = CARTESIAN_POINT( '', ( 0.000000000000000, -17.0000000000000, 0.000000000000000 ) );
#269 = DIRECTION( '', ( 1.00000000000000, 0.000000000000000, 0.000000000000000 ) );
#270 = DIRECTION( '', ( 0.000000000000000, 0.000000000000000, -1.00000000000000 ) );
#271 = SURFACE_STYLE_FILL_AREA( #341 );
#272 = ORIENTED_EDGE( '', *, *, #317, .F. );
#273 = ORIENTED_EDGE( '', *, *, #325, .T. );
#274 = CARTESIAN_POINT( '', ( 24.2000000000000, 0.000000000000000, 0.000000000000000 ) );
#275 = DIRECTION( '', ( 1.00000000000000, -0.000000000000000, 0.000000000000000 ) );
#276 = DIRECTION( '', ( 0.000000000000000, 0.000000000000000, -1.00000000000000 ) );
#277 = SURFACE_STYLE_FILL_AREA( #342 );
#278 = ORIENTED_EDGE( '', *, *, #343, .T. );
#279 = ORIENTED_EDGE( '', *, *, #314, .F. );
#280 = CARTESIAN_POINT( '', ( 25.6887009341358, 0.000000000000000, 0.000000000000000 ) );
#281 = DIRECTION( '', ( -1.00000000000000, 0.000000000000000, 0.000000000000000 ) );
#282 = DIRECTION( '', ( 0.000000000000000, 0.000000000000000, 1.00000000000000 ) );
#283 = SURFACE_STYLE_FILL_AREA( #344 );
#284 = ORIENTED_EDGE( '', *, *, #343, .F. );
#285 = ORIENTED_EDGE( '', *, *, #319, .T. );
#286 = CARTESIAN_POINT( '', ( 16.5000000000000, 0.000000000000000, 0.000000000000000 ) );
#287 = DIRECTION( '', ( 1.00000000000000, -0.000000000000000, 0.000000000000000 ) );
#288 = DIRECTION( '', ( 0.000000000000000, 0.000000000000000, -1.00000000000000 ) );
#289 = SURFACE_STYLE_FILL_AREA( #345 );
#290 = VERTEX_POINT( '', #346 );
#291 = ORIENTED_EDGE( '', *, *, #313, .T. );
#292 = ORIENTED_EDGE( '', *, *, #323, .F. );
#293 = CARTESIAN_POINT( '', ( 30.1000000000000, 0.000000000000000, 0.000000000000000 ) );
#294 = DIRECTION( '', ( -1.00000000000000, 0.000000000000000, 0.000000000000000 ) );
#295 = DIRECTION( '', ( 0.000000000000000, 0.000000000000000, 1.00000000000000 ) );
#296 = SURFACE_STYLE_FILL_AREA( #347 );
#297 = ORIENTED_EDGE( '', *, *, #334, .T. );
#298 = ORIENTED_EDGE( '', *, *, #330, .T. );
#299 = ORIENTED_EDGE( '', *, *, #340, .T. );
#300 = ORIENTED_EDGE( '', *, *, #348, .F. );
#301 = CARTESIAN_POINT( '', ( 30.0000000000000, 5.42101086242752E-16, 0.000000000000000 ) );
#302 = DIRECTION( '', ( 1.00000000000000, -0.000000000000000, -0.000000000000000 ) );
#303 = DIRECTION( '', ( 0.000000000000000, 0.000000000000000, 1.00000000000000 ) );
#304 = SURFACE_STYLE_FILL_AREA( #349 );
#305 = ORIENTED_EDGE( '', *, *, #332, .T. );
#306 = ORIENTED_EDGE( '', *, *, #348, .T. );
#307 = ORIENTED_EDGE( '', *, *, #339, .F. );
#308 = ORIENTED_EDGE( '', *, *, #336, .F. );
#309 = CARTESIAN_POINT( '', ( 30.0000000000000, 9.30000000000000, 2.50000000000000 ) );
#310 = DIRECTION( '', ( 0.000000000000000, 0.000000000000000, -1.00000000000000 ) );
#311 = DIRECTION( '', ( -1.00000000000000, 0.000000000000000, 0.000000000000000 ) );
#312 = FILL_AREA_STYLE( '', ( #350 ) );
#313 = EDGE_CURVE( '', #351, #351, #352, .T. );
#314 = EDGE_CURVE( '', #353, #353, #354, .T. );
#315 = FILL_AREA_STYLE( '', ( #355 ) );
#316 = EDGE_CURVE( '', #356, #356, #357, .T. );
#317 = EDGE_CURVE( '', #358, #358, #359, .T. );
#318 = FILL_AREA_STYLE( '', ( #360 ) );
#319 = EDGE_CURVE( '', #361, #361, #362, .T. );
#320 = EDGE_CURVE( '', #363, #363, #364, .T. );
#321 = FILL_AREA_STYLE( '', ( #365 ) );
#322 = EDGE_CURVE( '', #366, #366, #367, .T. );
#323 = EDGE_CURVE( '', #368, #368, #369, .T. );
#324 = FILL_AREA_STYLE( '', ( #370 ) );
#325 = EDGE_CURVE( '', #371, #371, #372, .T. );
#326 = FILL_AREA_STYLE( '', ( #373 ) );
#327 = EDGE_CURVE( '', #374, #375, #376, .T. );
#328 = EDGE_CURVE( '', #375, #377, #378, .T. );
#329 = EDGE_CURVE( '', #379, #377, #380, .T. );
#330 = EDGE_CURVE( '', #374, #379, #381, .T. );
#331 = FILL_AREA_STYLE( '', ( #382 ) );
#332 = EDGE_CURVE( '', #383, #384, #385, .T. );
#333 = EDGE_CURVE( '', #375, #383, #386, .T. );
#334 = EDGE_CURVE( '', #384, #374, #387, .F. );
#335 = FILL_AREA_STYLE( '', ( #388 ) );
#336 = EDGE_CURVE( '', #383, #389, #390, .T. );
#337 = EDGE_CURVE( '', #377, #389, #391, .T. );
#338 = FILL_AREA_STYLE( '', ( #392 ) );
#339 = EDGE_CURVE( '', #389, #393, #394, .T. );
#340 = EDGE_CURVE( '', #379, #393, #395, .F. );
#341 = FILL_AREA_STYLE( '', ( #396 ) );
#342 = FILL_AREA_STYLE( '', ( #397 ) );
#343 = EDGE_CURVE( '', #398, #398, #399, .T. );
#344 = FILL_AREA_STYLE( '', ( #400 ) );
#345 = FILL_AREA_STYLE( '', ( #401 ) );
#346 = CARTESIAN_POINT( '', ( 30.1000000000000, 0.000000000000000, 80.0000000000000 ) );
#347 = FILL_AREA_STYLE( '', ( #402 ) );
#348 = EDGE_CURVE( '', #384, #393, #403, .T. );
#349 = FILL_AREA_STYLE( '', ( #404 ) );
#350 = FILL_AREA_STYLE_COLOUR( '', #405 );
#351 = VERTEX_POINT( '', #406 );
#352 = CIRCLE( '', #407, 70.0000000000000 );
#353 = VERTEX_POINT( '', #408 );
#354 = CIRCLE( '', #409, 69.0000000000000 );
#355 = FILL_AREA_STYLE_COLOUR( '', #410 );
#356 = VERTEX_POINT( '', #411 );
#357 = CIRCLE( '', #412, 17.0000000000000 );
#358 = VERTEX_POINT( '', #413 );
#359 = CIRCLE( '', #414, 17.0000000000000 );
#360 = FILL_AREA_STYLE_COLOUR( '', #415 );
#361 = VERTEX_POINT( '', #416 );
#362 = CIRCLE( '', #417, 17.0000000000000 );
#363 = VERTEX_POINT( '', #418 );
#364 = CIRCLE( '', #419, 17.0000000000000 );
#365 = FILL_AREA_STYLE_COLOUR( '', #420 );
#366 = VERTEX_POINT( '', #421 );
#367 = CIRCLE( '', #422, 67.0000000000000 );
#368 = VERTEX_POINT( '', #423 );
#369 = CIRCLE( '', #424, 69.5000000000000 );
#370 = FILL_AREA_STYLE_COLOUR( '', #425 );
#371 = VERTEX_POINT( '', #426 );
#372 = CIRCLE( '', #427, 61.0000000000000 );
#373 = FILL_AREA_STYLE_COLOUR( '', #428 );
#374 = VERTEX_POINT( '', #429 );
#375 = VERTEX_POINT( '', #430 );
#376 = LINE( '', #431, #432 );
#377 = VERTEX_POINT( '', #433 );
#378 = LINE( '', #434, #435 );
#379 = VERTEX_POINT( '', #436 );
#380 = LINE( '', #437, #438 );
#381 = LINE( '', #439, #440 );
#382 = FILL_AREA_STYLE_COLOUR( '', #441 );
#383 = VERTEX_POINT( '', #442 );
#384 = VERTEX_POINT( '', #443 );
#385 = LINE( '', #444, #445 );
#386 = LINE( '', #446, #447 );
#387 = CIRCLE( '', #448, 7.00000000000000 );
#388 = FILL_AREA_STYLE_COLOUR( '', #449 );
#389 = VERTEX_POINT( '', #450 );
#390 = LINE( '', #451, #452 );
#391 = LINE( '', #453, #454 );
#392 = FILL_AREA_STYLE_COLOUR( '', #455 );
#393 = VERTEX_POINT( '', #456 );
#394 = LINE( '', #457, #458 );
#395 = CIRCLE( '', #459, 7.00000000000000 );
#396 = FILL_AREA_STYLE_COLOUR( '', #460 );
#397 = FILL_AREA_STYLE_COLOUR( '', #461 );
#398 = VERTEX_POINT( '', #462 );
#399 = CIRCLE( '', #463, 60.0000000000000 );
#400 = FILL_AREA_STYLE_COLOUR( '', #464 );
#401 = FILL_AREA_STYLE_COLOUR( '', #465 );
#402 = FILL_AREA_STYLE_COLOUR( '', #466 );
#403 = LINE( '', #467, #468 );
#404 = FILL_AREA_STYLE_COLOUR( '', #469 );
#405 = COLOUR_RGB( '', 0.689999997600000, 0.689999997600000, 0.689999997600000 );
#406 = CARTESIAN_POINT( '', ( 39.9994949366117, 0.000000000000000, 70.0000000000000 ) );
#407 = AXIS2_PLACEMENT_3D( '', #470, #471, #472 );
#408 = CARTESIAN_POINT( '', ( 37.5000000000000, 0.000000000000000, 69.0000000000000 ) );
#409 = AXIS2_PLACEMENT_3D( '', #473, #474, #475 );
#410 = COLOUR_RGB( '', 0.689999997600000, 0.689999997600000, 0.689999997600000 );
#411 = CARTESIAN_POINT( '', ( 0.000000000000000, 0.000000000000000, 17.0000000000000 ) );
#412 = AXIS2_PLACEMENT_3D( '', #476, #477, #478 );
#413 = CARTESIAN_POINT( '', ( 7.50000000000000, 0.000000000000000, 17.0000000000000 ) );
#414 = AXIS2_PLACEMENT_3D( '', #479, #480, #481 );
#415 = COLOUR_RGB( '', 0.689999997600000, 0.689999997600000, 0.689999997600000 );
#416 = CARTESIAN_POINT( '', ( 16.5000000000000, 0.000000000000000, 17.0000000000000 ) );
#417 = AXIS2_PLACEMENT_3D( '', #482, #483, #484 );
#418 = CARTESIAN_POINT( '', ( 20.0000000000000, 0.000000000000000, 17.0000000000000 ) );
#419 = AXIS2_PLACEMENT_3D( '', #485, #486, #487 );
#420 = COLOUR_RGB( '', 0.689999997600000, 0.689999997600000, 0.689999997600000 );
#421 = CARTESIAN_POINT( '', ( 22.7000000000000, 0.000000000000000, 67.0000000000000 ) );
#422 = AXIS2_PLACEMENT_3D( '', #488, #489, #490 );
#423 = CARTESIAN_POINT( '', ( 20.2181985447996, 0.000000000000000, 69.5000000000000 ) );
#424 = AXIS2_PLACEMENT_3D( '', #491, #492, #493 );
#425 = COLOUR_RGB( '', 0.689999997600000, 0.689999997600000, 0.689999997600000 );
#426 = CARTESIAN_POINT( '', ( 24.2000000000000, 0.000000000000000, 61.0000000000000 ) );
#427 = AXIS2_PLACEMENT_3D( '', #494, #495, #496 );
#428 = COLOUR_RGB( '', 0.689999997600000, 0.689999997600000, 0.689999997600000 );
#429 = CARTESIAN_POINT( '', ( 20.0000000000000, 6.53834841531101, -2.50000000000000 ) );
#430 = CARTESIAN_POINT( '', ( 20.0000000000000, 9.30000000000000, -2.49999999999999 ) );
#431 = CARTESIAN_POINT( '', ( 20.0000000000000, 6.28147115151812E-15, -2.50000000000002 ) );
#432 = VECTOR( '', #497, 1000.00000000000 );
#433 = CARTESIAN_POINT( '', ( 0.000000000000000, 9.30000000000000, -2.49999999999999 ) );
#434 = CARTESIAN_POINT( '', ( 30.0000000000000, 9.30000000000000, -2.49999999999999 ) );
#435 = VECTOR( '', #498, 1000.00000000000 );
#436 = CARTESIAN_POINT( '', ( 0.000000000000000, 6.53834841531101, -2.50000000000000 ) );
#437 = CARTESIAN_POINT( '', ( 0.000000000000000, 6.53834841531101, -2.50000000000000 ) );
#438 = VECTOR( '', #499, 1000.00000000000 );
#439 = CARTESIAN_POINT( '', ( 30.0000000000000, 6.53834841531101, -2.50000000000000 ) );
#440 = VECTOR( '', #500, 1000.00000000000 );
#441 = COLOUR_RGB( '', 0.689999997600000, 0.689999997600000, 0.689999997600000 );
#442 = CARTESIAN_POINT( '', ( 20.0000000000000, 9.30000000000000, 2.50000000000000 ) );
#443 = CARTESIAN_POINT( '', ( 20.0000000000000, 6.53834841531101, 2.50000000000000 ) );
#444 = CARTESIAN_POINT( '', ( 20.0000000000000, 0.000000000000000, 2.50000000000000 ) );
#445 = VECTOR( '', #501, 1000.00000000000 );
#446 = CARTESIAN_POINT( '', ( 20.0000000000000, 9.30000000000000, 0.000000000000000 ) );
#447 = VECTOR( '', #502, 1000.00000000000 );
#448 = AXIS2_PLACEMENT_3D( '', #503, #504, #505 );
#449 = COLOUR_RGB( '', 0.689999997600000, 0.689999997600000, 0.689999997600000 );
#450 = CARTESIAN_POINT( '', ( 0.000000000000000, 9.30000000000000, 2.50000000000000 ) );
#451 = CARTESIAN_POINT( '', ( 30.0000000000000, 9.30000000000000, 2.50000000000000 ) );
#452 = VECTOR( '', #506, 1000.00000000000 );
#453 = CARTESIAN_POINT( '', ( 0.000000000000000, 9.30000000000000, -2.49999999999999 ) );
#454 = VECTOR( '', #507, 1000.00000000000 );
#455 = COLOUR_RGB( '', 0.689999997600000, 0.689999997600000, 0.689999997600000 );
#456 = CARTESIAN_POINT( '', ( 0.000000000000000, 6.53834841531101, 2.50000000000000 ) );
#457 = CARTESIAN_POINT( '', ( 0.000000000000000, 9.30000000000000, 2.50000000000000 ) );
#458 = VECTOR( '', #508, 1000.00000000000 );
#459 = AXIS2_PLACEMENT_3D( '', #509, #510, #511 );
#460 = COLOUR_RGB( '', 0.689999997600000, 0.689999997600000, 0.689999997600000 );
#461 = COLOUR_RGB( '', 0.689999997600000, 0.689999997600000, 0.689999997600000 );
#462 = CARTESIAN_POINT( '', ( 30.2000000000000, 0.000000000000000, 60.0000000000000 ) );
#463 = AXIS2_PLACEMENT_3D( '', #512, #513, #514 );
#464 = COLOUR_RGB( '', 0.689999997600000, 0.689999997600000, 0.689999997600000 );
#465 = COLOUR_RGB( '', 0.689999997600000, 0.689999997600000, 0.689999997600000 );
#466 = COLOUR_RGB( '', 0.689999997600000, 0.689999997600000, 0.689999997600000 );
#467 = CARTESIAN_POINT( '', ( 30.0000000000000, 6.53834841531101, 2.50000000000000 ) );
#468 = VECTOR( '', #515, 1000.00000000000 );
#469 = COLOUR_RGB( '', 0.689999997600000, 0.689999997600000, 0.689999997600000 );
#470 = CARTESIAN_POINT( '', ( 39.9994949366117, 0.000000000000000, 0.000000000000000 ) );
#471 = DIRECTION( '', ( -1.00000000000000, 0.000000000000000, 0.000000000000000 ) );
#472 = DIRECTION( '', ( 0.000000000000000, 0.000000000000000, 1.00000000000000 ) );
#473 = CARTESIAN_POINT( '', ( 37.5000000000000, 0.000000000000000, 0.000000000000000 ) );
#474 = DIRECTION( '', ( -1.00000000000000, 0.000000000000000, 0.000000000000000 ) );
#475 = DIRECTION( '', ( 0.000000000000000, 0.000000000000000, 1.00000000000000 ) );
#476 = CARTESIAN_POINT( '', ( 0.000000000000000, 0.000000000000000, 0.000000000000000 ) );
#477 = DIRECTION( '', ( -1.00000000000000, 0.000000000000000, 0.000000000000000 ) );
#478 = DIRECTION( '', ( 0.000000000000000, 0.000000000000000, 1.00000000000000 ) );
#479 = CARTESIAN_POINT( '', ( 7.50000000000000, 0.000000000000000, 0.000000000000000 ) );
#480 = DIRECTION( '', ( -1.00000000000000, 0.000000000000000, 0.000000000000000 ) );
#481 = DIRECTION( '', ( 0.000000000000000, 0.000000000000000, 1.00000000000000 ) );
#482 = CARTESIAN_POINT( '', ( 16.5000000000000, 0.000000000000000, 0.000000000000000 ) );
#483 = DIRECTION( '', ( -1.00000000000000, 0.000000000000000, 0.000000000000000 ) );
#484 = DIRECTION( '', ( 0.000000000000000, 0.000000000000000, 1.00000000000000 ) );
#485 = CARTESIAN_POINT( '', ( 20.0000000000000, 0.000000000000000, 0.000000000000000 ) );
#486 = DIRECTION( '', ( -1.00000000000000, 0.000000000000000, 0.000000000000000 ) );
#487 = DIRECTION( '', ( 0.000000000000000, 0.000000000000000, 1.00000000000000 ) );
#488 = CARTESIAN_POINT( '', ( 22.7000000000000, 0.000000000000000, 0.000000000000000 ) );
#489 = DIRECTION( '', ( -1.00000000000000, 0.000000000000000, 0.000000000000000 ) );
#490 = DIRECTION( '', ( 0.000000000000000, 0.000000000000000, 1.00000000000000 ) );
#491 = CARTESIAN_POINT( '', ( 20.2181985447996, 0.000000000000000, 0.000000000000000 ) );
#492 = DIRECTION( '', ( -1.00000000000000, 0.000000000000000, 0.000000000000000 ) );
#493 = DIRECTION( '', ( 0.000000000000000, 0.000000000000000, 1.00000000000000 ) );
#494 = CARTESIAN_POINT( '', ( 24.2000000000000, 0.000000000000000, 0.000000000000000 ) );
#495 = DIRECTION( '', ( -1.00000000000000, 0.000000000000000, 0.000000000000000 ) );
#496 = DIRECTION( '', ( 0.000000000000000, 0.000000000000000, 1.00000000000000 ) );
#497 = DIRECTION( '', ( 0.000000000000000, 1.00000000000000, 2.51258846060723E-15 ) );
#498 = DIRECTION( '', ( -1.00000000000000, -0.000000000000000, -0.000000000000000 ) );
#499 = DIRECTION( '', ( 0.000000000000000, 1.00000000000000, 2.51258846060723E-15 ) );
#500 = DIRECTION( '', ( -1.00000000000000, -0.000000000000000, -0.000000000000000 ) );
#501 = DIRECTION( '', ( 0.000000000000000, -1.00000000000000, 0.000000000000000 ) );
#502 = DIRECTION( '', ( 0.000000000000000, 0.000000000000000, 1.00000000000000 ) );
#503 = CARTESIAN_POINT( '', ( 20.0000000000000, 5.42101086242752E-16, 0.000000000000000 ) );
#504 = DIRECTION( '', ( -1.00000000000000, 0.000000000000000, 0.000000000000000 ) );
#505 = DIRECTION( '', ( 0.000000000000000, 0.000000000000000, 1.00000000000000 ) );
#506 = DIRECTION( '', ( -1.00000000000000, -0.000000000000000, -0.000000000000000 ) );
#507 = DIRECTION( '', ( 0.000000000000000, 0.000000000000000, 1.00000000000000 ) );
#508 = DIRECTION( '', ( 0.000000000000000, -1.00000000000000, 0.000000000000000 ) );
#509 = CARTESIAN_POINT( '', ( 0.000000000000000, 5.42101086242752E-16, 0.000000000000000 ) );
#510 = DIRECTION( '', ( 1.00000000000000, 0.000000000000000, 0.000000000000000 ) );
#511 = DIRECTION( '', ( 0.000000000000000, 0.000000000000000, -1.00000000000000 ) );
#512 = CARTESIAN_POINT( '', ( 30.2000000000000, 0.000000000000000, 0.000000000000000 ) );
#513 = DIRECTION( '', ( -1.00000000000000, 0.000000000000000, 0.000000000000000 ) );
#514 = DIRECTION( '', ( 0.000000000000000, 0.000000000000000, 1.00000000000000 ) );
#515 = DIRECTION( '', ( -1.00000000000000, -0.000000000000000, -0.000000000000000 ) );
ENDSEC;
END-ISO-10303-21;
