ISO-10303-21;
HEADER;
FILE_DESCRIPTION( ( 'STEP AP214' ), '1' );
FILE_NAME( '//goodhand-server/Shared Folders/GoodHand Data/Kipp CAD/K0390/K0390.101X80.stp', '2020-12-07T10:15:44', ( '' ), ( '' ), ' ', 'PARTsolutions', ' ' );
FILE_SCHEMA( ( 'AUTOMOTIVE_DESIGN { 1 0 10303 214 1 1 1 1 }' ) );
ENDSEC;
DATA;
#1 = MECHANICAL_DESIGN_GEOMETRIC_PRESENTATION_REPRESENTATION( ' ', ( #10, #11, #12, #13, #14, #15, #16, #17, #18, #19, #20, #21, #22 ), #6 );
#2 = PRODUCT_DEFINITION_CONTEXT( '', #23, 'design' );
#3 = APPLICATION_PROTOCOL_DEFINITION( 'international standard', 'automotive_design', 2001, #23 );
#4 = PRODUCT_CATEGORY_RELATIONSHIP( 'NONE', 'NONE', #24, #25 );
#5 = SHAPE_DEFINITION_REPRESENTATION( #26, #27 );
#6 =  ( GEOMETRIC_REPRESENTATION_CONTEXT( 3 )GLOBAL_UNCERTAINTY_ASSIGNED_CONTEXT( ( #30 ) )GLOBAL_UNIT_ASSIGNED_CONTEXT( ( #32, #33, #34 ) )REPRESENTATION_CONTEXT( 'NONE', 'WORKSPACE' ) );
#10 = STYLED_ITEM( '', ( #36 ), #37 );
#11 = STYLED_ITEM( '', ( #38 ), #39 );
#12 = STYLED_ITEM( '', ( #40 ), #41 );
#13 = STYLED_ITEM( '', ( #42 ), #43 );
#14 = STYLED_ITEM( '', ( #44 ), #45 );
#15 = STYLED_ITEM( '', ( #46 ), #47 );
#16 = STYLED_ITEM( '', ( #48 ), #49 );
#17 = STYLED_ITEM( '', ( #50 ), #51 );
#18 = STYLED_ITEM( '', ( #52 ), #53 );
#19 = STYLED_ITEM( '', ( #54 ), #55 );
#20 = STYLED_ITEM( '', ( #56 ), #57 );
#21 = STYLED_ITEM( '', ( #58 ), #59 );
#22 = STYLED_ITEM( '', ( #60 ), #61 );
#23 = APPLICATION_CONTEXT( 'core data for automotive mechanical design processes' );
#24 = PRODUCT_CATEGORY( 'part', 'NONE' );
#25 = PRODUCT_RELATED_PRODUCT_CATEGORY( 'detail', ' ', ( #62 ) );
#26 = PRODUCT_DEFINITION_SHAPE( 'NONE', 'NONE', #63 );
#27 = ADVANCED_BREP_SHAPE_REPRESENTATION( '_K0390.101X80', ( #64, #65 ), #6 );
#30 = UNCERTAINTY_MEASURE_WITH_UNIT( LENGTH_MEASURE( 0.00100000000000000 ), #32, '', '' );
#32 =  ( CONVERSION_BASED_UNIT( 'MILLIMETRE', #68 )LENGTH_UNIT(  )NAMED_UNIT( #71 ) );
#33 =  ( NAMED_UNIT( #73 )PLANE_ANGLE_UNIT(  )SI_UNIT( $, .RADIAN. ) );
#34 =  ( NAMED_UNIT( #73 )SI_UNIT( $, .STERADIAN. )SOLID_ANGLE_UNIT(  ) );
#36 = PRESENTATION_STYLE_ASSIGNMENT( ( #79 ) );
#37 = ADVANCED_FACE( '', ( #80, #81 ), #82, .T. );
#38 = PRESENTATION_STYLE_ASSIGNMENT( ( #83 ) );
#39 = ADVANCED_FACE( '', ( #84 ), #85, .F. );
#40 = PRESENTATION_STYLE_ASSIGNMENT( ( #86 ) );
#41 = ADVANCED_FACE( '', ( #87, #88 ), #89, .T. );
#42 = PRESENTATION_STYLE_ASSIGNMENT( ( #90 ) );
#43 = ADVANCED_FACE( '', ( #91, #92 ), #93, .T. );
#44 = PRESENTATION_STYLE_ASSIGNMENT( ( #94 ) );
#45 = ADVANCED_FACE( '', ( #95 ), #96, .F. );
#46 = PRESENTATION_STYLE_ASSIGNMENT( ( #97 ) );
#47 = ADVANCED_FACE( '', ( #98 ), #99, .T. );
#48 = PRESENTATION_STYLE_ASSIGNMENT( ( #100 ) );
#49 = ADVANCED_FACE( '', ( #101 ), #102, .F. );
#50 = PRESENTATION_STYLE_ASSIGNMENT( ( #103 ) );
#51 = ADVANCED_FACE( '', ( #104, #105 ), #106, .F. );
#52 = PRESENTATION_STYLE_ASSIGNMENT( ( #107 ) );
#53 = ADVANCED_FACE( '', ( #108 ), #109, .T. );
#54 = PRESENTATION_STYLE_ASSIGNMENT( ( #110 ) );
#55 = ADVANCED_FACE( '', ( #111 ), #112, .T. );
#56 = PRESENTATION_STYLE_ASSIGNMENT( ( #113 ) );
#57 = ADVANCED_FACE( '', ( #114 ), #115, .F. );
#58 = PRESENTATION_STYLE_ASSIGNMENT( ( #116 ) );
#59 = ADVANCED_FACE( '', ( #117, #118 ), #119, .T. );
#60 = PRESENTATION_STYLE_ASSIGNMENT( ( #120 ) );
#61 = ADVANCED_FACE( '', ( #121, #122 ), #123, .T. );
#62 = PRODUCT( '_K0390.101X80', '_K0390.101X80', 'PART-_K0390.101X80-DESC', ( #124 ) );
#63 = PRODUCT_DEFINITION( 'NONE', 'NONE', #125, #2 );
#64 = MANIFOLD_SOLID_BREP( '_K0390.101X80', #126 );
#65 = AXIS2_PLACEMENT_3D( '', #127, #128, #129 );
#68 = LENGTH_MEASURE_WITH_UNIT( LENGTH_MEASURE( 1.00000000000000 ), #130 );
#71 = DIMENSIONAL_EXPONENTS( 1.00000000000000, 0.000000000000000, 0.000000000000000, 0.000000000000000, 0.000000000000000, 0.000000000000000, 0.000000000000000 );
#73 = DIMENSIONAL_EXPONENTS( 0.000000000000000, 0.000000000000000, 0.000000000000000, 0.000000000000000, 0.000000000000000, 0.000000000000000, 0.000000000000000 );
#79 = SURFACE_STYLE_USAGE( .BOTH., #131 );
#80 = FACE_OUTER_BOUND( '', #132, .T. );
#81 = FACE_OUTER_BOUND( '', #133, .T. );
#82 = CYLINDRICAL_SURFACE( '', #134, 5.00000000000000 );
#83 = SURFACE_STYLE_USAGE( .BOTH., #135 );
#84 = FACE_OUTER_BOUND( '', #136, .T. );
#85 = PLANE( '', #137 );
#86 = SURFACE_STYLE_USAGE( .BOTH., #138 );
#87 = FACE_OUTER_BOUND( '', #139, .T. );
#88 = FACE_OUTER_BOUND( '', #140, .T. );
#89 = CYLINDRICAL_SURFACE( '', #141, 4.00000000000000 );
#90 = SURFACE_STYLE_USAGE( .BOTH., #142 );
#91 = FACE_BOUND( '', #143, .T. );
#92 = FACE_OUTER_BOUND( '', #144, .T. );
#93 = CONICAL_SURFACE( '', #145, 5.00000000000000, 1.01679700410000 );
#94 = SURFACE_STYLE_USAGE( .BOTH., #146 );
#95 = FACE_OUTER_BOUND( '', #147, .T. );
#96 = PLANE( '', #148 );
#97 = SURFACE_STYLE_USAGE( .BOTH., #149 );
#98 = FACE_OUTER_BOUND( '', #150, .T. );
#99 = PLANE( '', #151 );
#100 = SURFACE_STYLE_USAGE( .BOTH., #152 );
#101 = FACE_OUTER_BOUND( '', #153, .T. );
#102 = PLANE( '', #154 );
#103 = SURFACE_STYLE_USAGE( .BOTH., #155 );
#104 = FACE_OUTER_BOUND( '', #156, .T. );
#105 = FACE_BOUND( '', #157, .T. );
#106 = PLANE( '', #158 );
#107 = SURFACE_STYLE_USAGE( .BOTH., #159 );
#108 = FACE_OUTER_BOUND( '', #160, .T. );
#109 = CONICAL_SURFACE( '', #161, 4.08000000000000, 0.785398163400000 );
#110 = SURFACE_STYLE_USAGE( .BOTH., #162 );
#111 = FACE_OUTER_BOUND( '', #163, .T. );
#112 = CONICAL_SURFACE( '', #164, 4.08000000000000, 0.785398163400000 );
#113 = SURFACE_STYLE_USAGE( .BOTH., #165 );
#114 = FACE_OUTER_BOUND( '', #166, .T. );
#115 = PLANE( '', #167 );
#116 = SURFACE_STYLE_USAGE( .BOTH., #168 );
#117 = FACE_OUTER_BOUND( '', #169, .T. );
#118 = FACE_OUTER_BOUND( '', #170, .T. );
#119 = CYLINDRICAL_SURFACE( '', #171, 3.60000000000000 );
#120 = SURFACE_STYLE_USAGE( .BOTH., #172 );
#121 = FACE_BOUND( '', #173, .T. );
#122 = FACE_OUTER_BOUND( '', #174, .T. );
#123 = SPHERICAL_SURFACE( '', #175, 6.70960000000000 );
#124 = PRODUCT_CONTEXT( '', #23, 'mechanical' );
#125 = PRODUCT_DEFINITION_FORMATION_WITH_SPECIFIED_SOURCE( ' ', 'NONE', #62, .NOT_KNOWN. );
#126 = CLOSED_SHELL( '', ( #39, #49, #61, #41, #51, #59, #43, #37, #53, #45, #55, #57, #47 ) );
#127 = CARTESIAN_POINT( '', ( 0.000000000000000, 0.000000000000000, 0.000000000000000 ) );
#128 = DIRECTION( '', ( 0.000000000000000, 0.000000000000000, 1.00000000000000 ) );
#129 = DIRECTION( '', ( 1.00000000000000, 0.000000000000000, 0.000000000000000 ) );
#130 =  ( LENGTH_UNIT(  )NAMED_UNIT( #71 )SI_UNIT( .MILLI., .METRE. ) );
#131 = SURFACE_SIDE_STYLE( '', ( #177 ) );
#132 = EDGE_LOOP( '', ( #178 ) );
#133 = EDGE_LOOP( '', ( #179, #180, #181, #182, #183, #184, #185, #186 ) );
#134 = AXIS2_PLACEMENT_3D( '', #187, #188, #189 );
#135 = SURFACE_SIDE_STYLE( '', ( #190 ) );
#136 = EDGE_LOOP( '', ( #191, #192, #193, #194, #195, #196 ) );
#137 = AXIS2_PLACEMENT_3D( '', #197, #198, #199 );
#138 = SURFACE_SIDE_STYLE( '', ( #200 ) );
#139 = EDGE_LOOP( '', ( #201 ) );
#140 = EDGE_LOOP( '', ( #202 ) );
#141 = AXIS2_PLACEMENT_3D( '', #203, #204, #205 );
#142 = SURFACE_SIDE_STYLE( '', ( #206 ) );
#143 = EDGE_LOOP( '', ( #207 ) );
#144 = EDGE_LOOP( '', ( #208 ) );
#145 = AXIS2_PLACEMENT_3D( '', #209, #210, #211 );
#146 = SURFACE_SIDE_STYLE( '', ( #212 ) );
#147 = EDGE_LOOP( '', ( #213, #214 ) );
#148 = AXIS2_PLACEMENT_3D( '', #215, #216, #217 );
#149 = SURFACE_SIDE_STYLE( '', ( #218 ) );
#150 = EDGE_LOOP( '', ( #219, #220, #221, #222 ) );
#151 = AXIS2_PLACEMENT_3D( '', #223, #224, #225 );
#152 = SURFACE_SIDE_STYLE( '', ( #226 ) );
#153 = EDGE_LOOP( '', ( #227, #228, #229, #230, #231, #232 ) );
#154 = AXIS2_PLACEMENT_3D( '', #233, #234, #235 );
#155 = SURFACE_SIDE_STYLE( '', ( #236 ) );
#156 = EDGE_LOOP( '', ( #237 ) );
#157 = EDGE_LOOP( '', ( #238 ) );
#158 = AXIS2_PLACEMENT_3D( '', #239, #240, #241 );
#159 = SURFACE_SIDE_STYLE( '', ( #242 ) );
#160 = EDGE_LOOP( '', ( #243, #244, #245, #246 ) );
#161 = AXIS2_PLACEMENT_3D( '', #247, #248, #249 );
#162 = SURFACE_SIDE_STYLE( '', ( #250 ) );
#163 = EDGE_LOOP( '', ( #251, #252, #253, #254 ) );
#164 = AXIS2_PLACEMENT_3D( '', #255, #256, #257 );
#165 = SURFACE_SIDE_STYLE( '', ( #258 ) );
#166 = EDGE_LOOP( '', ( #259, #260 ) );
#167 = AXIS2_PLACEMENT_3D( '', #261, #262, #263 );
#168 = SURFACE_SIDE_STYLE( '', ( #264 ) );
#169 = EDGE_LOOP( '', ( #265 ) );
#170 = EDGE_LOOP( '', ( #266 ) );
#171 = AXIS2_PLACEMENT_3D( '', #267, #268, #269 );
#172 = SURFACE_SIDE_STYLE( '', ( #270 ) );
#173 = VERTEX_LOOP( '', #271 );
#174 = EDGE_LOOP( '', ( #272 ) );
#175 = AXIS2_PLACEMENT_3D( '', #273, #274, #275 );
#177 = SURFACE_STYLE_FILL_AREA( #276 );
#178 = ORIENTED_EDGE( '', *, *, #277, .F. );
#179 = ORIENTED_EDGE( '', *, *, #278, .T. );
#180 = ORIENTED_EDGE( '', *, *, #279, .T. );
#181 = ORIENTED_EDGE( '', *, *, #280, .F. );
#182 = ORIENTED_EDGE( '', *, *, #281, .T. );
#183 = ORIENTED_EDGE( '', *, *, #282, .T. );
#184 = ORIENTED_EDGE( '', *, *, #283, .T. );
#185 = ORIENTED_EDGE( '', *, *, #284, .F. );
#186 = ORIENTED_EDGE( '', *, *, #285, .T. );
#187 = CARTESIAN_POINT( '', ( 80.0000000000000, -5.32907051820075E-15, 0.000000000000000 ) );
#188 = DIRECTION( '', ( -1.00000000000000, 6.12323399573677E-17, 0.000000000000000 ) );
#189 = DIRECTION( '', ( 6.12323399573677E-17, 1.00000000000000, 0.000000000000000 ) );
#190 = SURFACE_STYLE_FILL_AREA( #286 );
#191 = ORIENTED_EDGE( '', *, *, #287, .F. );
#192 = ORIENTED_EDGE( '', *, *, #288, .T. );
#193 = ORIENTED_EDGE( '', *, *, #289, .F. );
#194 = ORIENTED_EDGE( '', *, *, #281, .F. );
#195 = ORIENTED_EDGE( '', *, *, #290, .F. );
#196 = ORIENTED_EDGE( '', *, *, #283, .F. );
#197 = CARTESIAN_POINT( '', ( 3.00000000000000, 0.900000000000000, 10.5000000000000 ) );
#198 = DIRECTION( '', ( 0.000000000000000, 1.00000000000000, 0.000000000000000 ) );
#199 = DIRECTION( '', ( 0.000000000000000, -0.000000000000000, 1.00000000000000 ) );
#200 = SURFACE_STYLE_FILL_AREA( #291 );
#201 = ORIENTED_EDGE( '', *, *, #292, .F. );
#202 = ORIENTED_EDGE( '', *, *, #293, .T. );
#203 = CARTESIAN_POINT( '', ( 80.0000000000000, -5.32907051820075E-15, 0.000000000000000 ) );
#204 = DIRECTION( '', ( -1.00000000000000, 6.12323399573677E-17, 0.000000000000000 ) );
#205 = DIRECTION( '', ( 6.12323399573677E-17, 1.00000000000000, 0.000000000000000 ) );
#206 = SURFACE_STYLE_FILL_AREA( #294 );
#207 = ORIENTED_EDGE( '', *, *, #295, .F. );
#208 = ORIENTED_EDGE( '', *, *, #277, .T. );
#209 = CARTESIAN_POINT( '', ( 71.0000000000000, -4.77797945858444E-15, 0.000000000000000 ) );
#210 = DIRECTION( '', ( -1.00000000000000, 6.12323399573677E-17, -0.000000000000000 ) );
#211 = DIRECTION( '', ( -6.12323399573677E-17, -1.00000000000000, 0.000000000000000 ) );
#212 = SURFACE_STYLE_FILL_AREA( #296 );
#213 = ORIENTED_EDGE( '', *, *, #297, .F. );
#214 = ORIENTED_EDGE( '', *, *, #298, .F. );
#215 = CARTESIAN_POINT( '', ( -1.24913973513030E-16, -4.30483321611338E-16, 0.000000000000000 ) );
#216 = DIRECTION( '', ( 1.00000000000000, -6.12323399573677E-17, -0.000000000000000 ) );
#217 = DIRECTION( '', ( 6.12323399573677E-17, 1.00000000000000, 0.000000000000000 ) );
#218 = SURFACE_STYLE_FILL_AREA( #299 );
#219 = ORIENTED_EDGE( '', *, *, #280, .T. );
#220 = ORIENTED_EDGE( '', *, *, #300, .T. );
#221 = ORIENTED_EDGE( '', *, *, #284, .T. );
#222 = ORIENTED_EDGE( '', *, *, #290, .T. );
#223 = CARTESIAN_POINT( '', ( 3.00000000000000, 0.000000000000000, 0.000000000000000 ) );
#224 = DIRECTION( '', ( -1.00000000000000, 0.000000000000000, 0.000000000000000 ) );
#225 = DIRECTION( '', ( 0.000000000000000, 0.000000000000000, 1.00000000000000 ) );
#226 = SURFACE_STYLE_FILL_AREA( #301 );
#227 = ORIENTED_EDGE( '', *, *, #298, .T. );
#228 = ORIENTED_EDGE( '', *, *, #302, .F. );
#229 = ORIENTED_EDGE( '', *, *, #285, .F. );
#230 = ORIENTED_EDGE( '', *, *, #300, .F. );
#231 = ORIENTED_EDGE( '', *, *, #279, .F. );
#232 = ORIENTED_EDGE( '', *, *, #303, .F. );
#233 = CARTESIAN_POINT( '', ( 3.00000000000000, -0.900000000000000, -10.5000000000000 ) );
#234 = DIRECTION( '', ( 0.000000000000000, -1.00000000000000, 0.000000000000000 ) );
#235 = DIRECTION( '', ( 0.000000000000000, 0.000000000000000, -1.00000000000000 ) );
#236 = SURFACE_STYLE_FILL_AREA( #304 );
#237 = ORIENTED_EDGE( '', *, *, #293, .F. );
#238 = ORIENTED_EDGE( '', *, *, #305, .T. );
#239 = CARTESIAN_POINT( '', ( 75.5000000000000, 3.59999999999999, 0.000000000000000 ) );
#240 = DIRECTION( '', ( 1.00000000000000, -6.12323399573677E-17, -0.000000000000000 ) );
#241 = DIRECTION( '', ( 6.12323399573677E-17, 1.00000000000000, 0.000000000000000 ) );
#242 = SURFACE_STYLE_FILL_AREA( #306 );
#243 = ORIENTED_EDGE( '', *, *, #307, .T. );
#244 = ORIENTED_EDGE( '', *, *, #287, .T. );
#245 = ORIENTED_EDGE( '', *, *, #282, .F. );
#246 = ORIENTED_EDGE( '', *, *, #289, .T. );
#247 = CARTESIAN_POINT( '', ( 0.000000000000000, -4.30483321611339E-16, 0.000000000000000 ) );
#248 = DIRECTION( '', ( 1.00000000000000, -6.12323399573677E-17, -0.000000000000000 ) );
#249 = DIRECTION( '', ( 6.12323399573677E-17, 1.00000000000000, 0.000000000000000 ) );
#250 = SURFACE_STYLE_FILL_AREA( #308 );
#251 = ORIENTED_EDGE( '', *, *, #278, .F. );
#252 = ORIENTED_EDGE( '', *, *, #302, .T. );
#253 = ORIENTED_EDGE( '', *, *, #297, .T. );
#254 = ORIENTED_EDGE( '', *, *, #303, .T. );
#255 = CARTESIAN_POINT( '', ( 0.000000000000000, -4.30483321611339E-16, 0.000000000000000 ) );
#256 = DIRECTION( '', ( 1.00000000000000, -6.12323399573677E-17, -0.000000000000000 ) );
#257 = DIRECTION( '', ( 6.12323399573677E-17, 1.00000000000000, 0.000000000000000 ) );
#258 = SURFACE_STYLE_FILL_AREA( #309 );
#259 = ORIENTED_EDGE( '', *, *, #307, .F. );
#260 = ORIENTED_EDGE( '', *, *, #288, .F. );
#261 = CARTESIAN_POINT( '', ( -1.24913973513030E-16, -4.30483321611338E-16, 0.000000000000000 ) );
#262 = DIRECTION( '', ( 1.00000000000000, -6.12323399573677E-17, -0.000000000000000 ) );
#263 = DIRECTION( '', ( 6.12323399573677E-17, 1.00000000000000, 0.000000000000000 ) );
#264 = SURFACE_STYLE_FILL_AREA( #310 );
#265 = ORIENTED_EDGE( '', *, *, #305, .F. );
#266 = ORIENTED_EDGE( '', *, *, #295, .T. );
#267 = CARTESIAN_POINT( '', ( 80.0000000000000, -5.32907051820075E-15, 0.000000000000000 ) );
#268 = DIRECTION( '', ( -1.00000000000000, 6.12323399573676E-17, 0.000000000000000 ) );
#269 = DIRECTION( '', ( 6.12323399573676E-17, 1.00000000000000, 0.000000000000000 ) );
#270 = SURFACE_STYLE_FILL_AREA( #311 );
#271 = VERTEX_POINT( '', #312 );
#272 = ORIENTED_EDGE( '', *, *, #292, .T. );
#273 = CARTESIAN_POINT( '', ( 73.2904000000001, 3.33934269125535E-14, 0.000000000000000 ) );
#274 = DIRECTION( '', ( 1.00000000000000, 0.000000000000000, 0.000000000000000 ) );
#275 = DIRECTION( '', ( 0.000000000000000, -1.00000000000000, 0.000000000000000 ) );
#276 = FILL_AREA_STYLE( '', ( #313 ) );
#277 = EDGE_CURVE( '', #314, #314, #315, .T. );
#278 = EDGE_CURVE( '', #316, #317, #318, .T. );
#279 = EDGE_CURVE( '', #317, #319, #320, .T. );
#280 = EDGE_CURVE( '', #321, #319, #322, .T. );
#281 = EDGE_CURVE( '', #321, #323, #324, .F. );
#282 = EDGE_CURVE( '', #323, #325, #326, .T. );
#283 = EDGE_CURVE( '', #325, #327, #328, .T. );
#284 = EDGE_CURVE( '', #329, #327, #330, .T. );
#285 = EDGE_CURVE( '', #329, #316, #331, .F. );
#286 = FILL_AREA_STYLE( '', ( #332 ) );
#287 = EDGE_CURVE( '', #333, #325, #334, .T. );
#288 = EDGE_CURVE( '', #333, #335, #336, .T. );
#289 = EDGE_CURVE( '', #323, #335, #337, .T. );
#290 = EDGE_CURVE( '', #327, #321, #338, .T. );
#291 = FILL_AREA_STYLE( '', ( #339 ) );
#292 = EDGE_CURVE( '', #340, #340, #341, .T. );
#293 = EDGE_CURVE( '', #342, #342, #343, .T. );
#294 = FILL_AREA_STYLE( '', ( #344 ) );
#295 = EDGE_CURVE( '', #345, #345, #346, .T. );
#296 = FILL_AREA_STYLE( '', ( #347 ) );
#297 = EDGE_CURVE( '', #348, #349, #350, .T. );
#298 = EDGE_CURVE( '', #349, #348, #351, .T. );
#299 = FILL_AREA_STYLE( '', ( #352 ) );
#300 = EDGE_CURVE( '', #319, #329, #353, .T. );
#301 = FILL_AREA_STYLE( '', ( #354 ) );
#302 = EDGE_CURVE( '', #316, #348, #355, .T. );
#303 = EDGE_CURVE( '', #349, #317, #356, .T. );
#304 = FILL_AREA_STYLE( '', ( #357 ) );
#305 = EDGE_CURVE( '', #358, #358, #359, .T. );
#306 = FILL_AREA_STYLE( '', ( #360 ) );
#307 = EDGE_CURVE( '', #335, #333, #361, .T. );
#308 = FILL_AREA_STYLE( '', ( #362 ) );
#309 = FILL_AREA_STYLE( '', ( #363 ) );
#310 = FILL_AREA_STYLE( '', ( #364 ) );
#311 = FILL_AREA_STYLE( '', ( #365 ) );
#312 = CARTESIAN_POINT( '', ( 80.0000000000000, 3.25717378961976E-14, 0.000000000000000 ) );
#313 = FILL_AREA_STYLE_COLOUR( '', #366 );
#314 = VERTEX_POINT( '', #367 );
#315 = CIRCLE( '', #368, 5.00000000000000 );
#316 = VERTEX_POINT( '', #369 );
#317 = VERTEX_POINT( '', #370 );
#318 = CIRCLE( '', #371, 5.00000000000000 );
#319 = VERTEX_POINT( '', #372 );
#320 = LINE( '', #373, #374 );
#321 = VERTEX_POINT( '', #375 );
#322 = CIRCLE( '', #376, 5.00000000000000 );
#323 = VERTEX_POINT( '', #377 );
#324 = LINE( '', #378, #379 );
#325 = VERTEX_POINT( '', #380 );
#326 = CIRCLE( '', #381, 5.00000000000000 );
#327 = VERTEX_POINT( '', #382 );
#328 = LINE( '', #383, #384 );
#329 = VERTEX_POINT( '', #385 );
#330 = CIRCLE( '', #386, 5.00000000000000 );
#331 = LINE( '', #387, #388 );
#332 = FILL_AREA_STYLE_COLOUR( '', #389 );
#333 = VERTEX_POINT( '', #390 );
#334 = B_SPLINE_CURVE_WITH_KNOTS( '', 3, ( #391, #392, #393, #394 ), .UNSPECIFIED., .F., .F., ( 4, 4 ), ( 0.0201757967681981, 0.0214894077203397 ), .UNSPECIFIED. );
#335 = VERTEX_POINT( '', #395 );
#336 = LINE( '', #396, #397 );
#337 = B_SPLINE_CURVE_WITH_KNOTS( '', 3, ( #398, #399, #400, #401 ), .UNSPECIFIED., .F., .F., ( 4, 4 ), ( 0.00855302721908257, 0.00986748988713589 ), .UNSPECIFIED. );
#338 = LINE( '', #402, #403 );
#339 = FILL_AREA_STYLE_COLOUR( '', #404 );
#340 = VERTEX_POINT( '', #405 );
#341 = CIRCLE( '', #406, 4.00000000000000 );
#342 = VERTEX_POINT( '', #407 );
#343 = CIRCLE( '', #408, 4.00000000000000 );
#344 = FILL_AREA_STYLE_COLOUR( '', #409 );
#345 = VERTEX_POINT( '', #410 );
#346 = CIRCLE( '', #411, 3.60000000000000 );
#347 = FILL_AREA_STYLE_COLOUR( '', #412 );
#348 = VERTEX_POINT( '', #413 );
#349 = VERTEX_POINT( '', #414 );
#350 = CIRCLE( '', #415, 4.08000000000000 );
#351 = LINE( '', #416, #417 );
#352 = FILL_AREA_STYLE_COLOUR( '', #418 );
#353 = LINE( '', #419, #420 );
#354 = FILL_AREA_STYLE_COLOUR( '', #421 );
#355 = B_SPLINE_CURVE_WITH_KNOTS( '', 3, ( #422, #423, #424, #425 ), .UNSPECIFIED., .F., .F., ( 4, 4 ), ( 0.00855302721908257, 0.00986748988713588 ), .UNSPECIFIED. );
#356 = B_SPLINE_CURVE_WITH_KNOTS( '', 3, ( #426, #427, #428, #429 ), .UNSPECIFIED., .F., .F., ( 4, 4 ), ( 0.0201757967681981, 0.0214894077203397 ), .UNSPECIFIED. );
#357 = FILL_AREA_STYLE_COLOUR( '', #430 );
#358 = VERTEX_POINT( '', #431 );
#359 = CIRCLE( '', #432, 3.60000000000000 );
#360 = FILL_AREA_STYLE_COLOUR( '', #433 );
#361 = CIRCLE( '', #434, 4.08000000000000 );
#362 = FILL_AREA_STYLE_COLOUR( '', #435 );
#363 = FILL_AREA_STYLE_COLOUR( '', #436 );
#364 = FILL_AREA_STYLE_COLOUR( '', #437 );
#365 = FILL_AREA_STYLE_COLOUR( '', #438 );
#366 = COLOUR_RGB( '', 0.689999997600000, 0.689999997600000, 0.689999997600000 );
#367 = CARTESIAN_POINT( '', ( 71.0000000000000, 4.99999999999999, 0.000000000000000 ) );
#368 = AXIS2_PLACEMENT_3D( '', #439, #440, #441 );
#369 = CARTESIAN_POINT( '', ( 0.920000000000004, -0.899999999999996, 4.91833305094318 ) );
#370 = CARTESIAN_POINT( '', ( 0.920000000000004, -0.899999999999996, -4.91833305094318 ) );
#371 = AXIS2_PLACEMENT_3D( '', #442, #443, #444 );
#372 = CARTESIAN_POINT( '', ( 3.00000000000000, -0.900000000000000, -4.91833305094318 ) );
#373 = CARTESIAN_POINT( '', ( 80.0000000000000, -0.900000000000000, -4.91833305094318 ) );
#374 = VECTOR( '', #445, 1000.00000000000 );
#375 = CARTESIAN_POINT( '', ( 3.00000000000000, 0.899999999999999, -4.91833305094318 ) );
#376 = AXIS2_PLACEMENT_3D( '', #446, #447, #448 );
#377 = CARTESIAN_POINT( '', ( 0.920000000000004, 0.900000000000005, -4.91833305094318 ) );
#378 = CARTESIAN_POINT( '', ( 80.0000000000000, 0.900000000000000, -4.91833305094318 ) );
#379 = VECTOR( '', #449, 1000.00000000000 );
#380 = CARTESIAN_POINT( '', ( 0.920000000000004, 0.900000000000005, 4.91833305094318 ) );
#381 = AXIS2_PLACEMENT_3D( '', #450, #451, #452 );
#382 = CARTESIAN_POINT( '', ( 3.00000000000000, 0.899999999999999, 4.91833305094318 ) );
#383 = CARTESIAN_POINT( '', ( 80.0000000000000, 0.900000000000000, 4.91833305094318 ) );
#384 = VECTOR( '', #453, 1000.00000000000 );
#385 = CARTESIAN_POINT( '', ( 3.00000000000000, -0.900000000000000, 4.91833305094318 ) );
#386 = AXIS2_PLACEMENT_3D( '', #454, #455, #456 );
#387 = CARTESIAN_POINT( '', ( 80.0000000000000, -0.900000000000000, 4.91833305094318 ) );
#388 = VECTOR( '', #457, 1000.00000000000 );
#389 = COLOUR_RGB( '', 0.689999997600000, 0.689999997600000, 0.689999997600000 );
#390 = CARTESIAN_POINT( '', ( 0.000000000000000, 0.899999999999999, 3.97949745570970 ) );
#391 = CARTESIAN_POINT( '', ( -2.08210630903247E-15, 0.900000000000000, 3.97949745570970 ) );
#392 = CARTESIAN_POINT( '', ( 0.305938770650470, 0.900000000000000, 4.29316273584777 ) );
#393 = CARTESIAN_POINT( '', ( 0.612741841782416, 0.900000000000000, 4.60597299415659 ) );
#394 = CARTESIAN_POINT( '', ( 0.920000000000004, 0.900000000000000, 4.91833305094318 ) );
#395 = CARTESIAN_POINT( '', ( 0.000000000000000, 0.899999999999999, -3.97949745570970 ) );
#396 = CARTESIAN_POINT( '', ( 0.000000000000000, 0.900000000000000, 10.5000000000000 ) );
#397 = VECTOR( '', #458, 1000.00000000000 );
#398 = CARTESIAN_POINT( '', ( 0.920000000000005, 0.900000000000000, -4.91833305094318 ) );
#399 = CARTESIAN_POINT( '', ( 0.612739261072122, 0.900000000000000, -4.60597037059464 ) );
#400 = CARTESIAN_POINT( '', ( 0.305935608496526, 0.900000000000000, -4.29315949383336 ) );
#401 = CARTESIAN_POINT( '', ( -1.16939269353671E-15, 0.900000000000000, -3.97949745570970 ) );
#402 = CARTESIAN_POINT( '', ( 3.00000000000000, 0.900000000000000, 10.5000000000000 ) );
#403 = VECTOR( '', #459, 1000.00000000000 );
#404 = COLOUR_RGB( '', 0.689999997600000, 0.689999997600000, 0.689999997600000 );
#405 = CARTESIAN_POINT( '', ( 78.6773037637589, 3.99999999999999, 0.000000000000000 ) );
#406 = AXIS2_PLACEMENT_3D( '', #460, #461, #462 );
#407 = CARTESIAN_POINT( '', ( 75.5000000000000, 3.99999999999999, 0.000000000000000 ) );
#408 = AXIS2_PLACEMENT_3D( '', #463, #464, #465 );
#409 = COLOUR_RGB( '', 0.689999997600000, 0.689999997600000, 0.689999997600000 );
#410 = CARTESIAN_POINT( '', ( 71.8660700000000, 3.59999999999999, 0.000000000000000 ) );
#411 = AXIS2_PLACEMENT_3D( '', #466, #467, #468 );
#412 = COLOUR_RGB( '', 0.689999997600000, 0.689999997600000, 0.689999997600000 );
#413 = CARTESIAN_POINT( '', ( 0.000000000000000, -0.900000000000000, 3.97949745570970 ) );
#414 = CARTESIAN_POINT( '', ( 0.000000000000000, -0.900000000000000, -3.97949745570970 ) );
#415 = AXIS2_PLACEMENT_3D( '', #469, #470, #471 );
#416 = CARTESIAN_POINT( '', ( 0.000000000000000, -0.900000000000000, -10.5000000000000 ) );
#417 = VECTOR( '', #472, 1000.00000000000 );
#418 = COLOUR_RGB( '', 0.689999997600000, 0.689999997600000, 0.689999997600000 );
#419 = CARTESIAN_POINT( '', ( 3.00000000000000, -0.900000000000000, -10.5000000000000 ) );
#420 = VECTOR( '', #473, 1000.00000000000 );
#421 = COLOUR_RGB( '', 0.689999997600000, 0.689999997600000, 0.689999997600000 );
#422 = CARTESIAN_POINT( '', ( 0.920000000000005, -0.900000000000000, 4.91833305094318 ) );
#423 = CARTESIAN_POINT( '', ( 0.612739261072123, -0.900000000000000, 4.60597037059464 ) );
#424 = CARTESIAN_POINT( '', ( 0.305935608496527, -0.900000000000000, 4.29315949383336 ) );
#425 = CARTESIAN_POINT( '', ( -3.47631544974398E-16, -0.900000000000000, 3.97949745570970 ) );
#426 = CARTESIAN_POINT( '', ( -5.09830230844084E-16, -0.900000000000000, -3.97949745570970 ) );
#427 = CARTESIAN_POINT( '', ( 0.305938770650471, -0.900000000000000, -4.29316273584777 ) );
#428 = CARTESIAN_POINT( '', ( 0.612741841782416, -0.900000000000000, -4.60597299415659 ) );
#429 = CARTESIAN_POINT( '', ( 0.920000000000004, -0.900000000000000, -4.91833305094318 ) );
#430 = COLOUR_RGB( '', 0.689999997600000, 0.689999997600000, 0.689999997600000 );
#431 = CARTESIAN_POINT( '', ( 75.5000000000000, 3.59999999999999, 0.000000000000000 ) );
#432 = AXIS2_PLACEMENT_3D( '', #474, #475, #476 );
#433 = COLOUR_RGB( '', 0.689999997600000, 0.689999997600000, 0.689999997600000 );
#434 = AXIS2_PLACEMENT_3D( '', #477, #478, #479 );
#435 = COLOUR_RGB( '', 0.689999997600000, 0.689999997600000, 0.689999997600000 );
#436 = COLOUR_RGB( '', 0.689999997600000, 0.689999997600000, 0.689999997600000 );
#437 = COLOUR_RGB( '', 0.689999997600000, 0.689999997600000, 0.689999997600000 );
#438 = COLOUR_RGB( '', 0.689999997600000, 0.689999997600000, 0.689999997600000 );
#439 = CARTESIAN_POINT( '', ( 71.0000000000000, -4.77797945858444E-15, 0.000000000000000 ) );
#440 = DIRECTION( '', ( 1.00000000000000, -6.12323399573677E-17, -0.000000000000000 ) );
#441 = DIRECTION( '', ( 6.12323399573677E-17, 1.00000000000000, 0.000000000000000 ) );
#442 = CARTESIAN_POINT( '', ( 0.920000000000004, -4.86817074372117E-16, 0.000000000000000 ) );
#443 = DIRECTION( '', ( 1.00000000000000, -6.12323399573677E-17, -0.000000000000000 ) );
#444 = DIRECTION( '', ( 6.12323399573677E-17, 1.00000000000000, 0.000000000000000 ) );
#445 = DIRECTION( '', ( 1.00000000000000, -6.12323399573677E-17, -0.000000000000000 ) );
#446 = CARTESIAN_POINT( '', ( 3.00000000000000, -6.14180341483442E-16, 0.000000000000000 ) );
#447 = DIRECTION( '', ( -1.00000000000000, 0.000000000000000, 0.000000000000000 ) );
#448 = DIRECTION( '', ( 0.000000000000000, 0.000000000000000, 1.00000000000000 ) );
#449 = DIRECTION( '', ( 1.00000000000000, -6.12323399573677E-17, -0.000000000000000 ) );
#450 = CARTESIAN_POINT( '', ( 0.920000000000004, -4.86817074372117E-16, 0.000000000000000 ) );
#451 = DIRECTION( '', ( 1.00000000000000, -6.12323399573677E-17, -0.000000000000000 ) );
#452 = DIRECTION( '', ( 6.12323399573677E-17, 1.00000000000000, 0.000000000000000 ) );
#453 = DIRECTION( '', ( 1.00000000000000, -6.12323399573677E-17, -0.000000000000000 ) );
#454 = CARTESIAN_POINT( '', ( 3.00000000000000, -6.14180341483442E-16, 0.000000000000000 ) );
#455 = DIRECTION( '', ( -1.00000000000000, 0.000000000000000, 0.000000000000000 ) );
#456 = DIRECTION( '', ( 0.000000000000000, 0.000000000000000, 1.00000000000000 ) );
#457 = DIRECTION( '', ( 1.00000000000000, -6.12323399573677E-17, -0.000000000000000 ) );
#458 = DIRECTION( '', ( 0.000000000000000, 0.000000000000000, -1.00000000000000 ) );
#459 = DIRECTION( '', ( 0.000000000000000, 0.000000000000000, -1.00000000000000 ) );
#460 = CARTESIAN_POINT( '', ( 78.6773037637589, -5.24807873260291E-15, 0.000000000000000 ) );
#461 = DIRECTION( '', ( 1.00000000000000, -6.12323399573677E-17, -0.000000000000000 ) );
#462 = DIRECTION( '', ( 6.12323399573677E-17, 1.00000000000000, 0.000000000000000 ) );
#463 = CARTESIAN_POINT( '', ( 75.5000000000000, -5.05352498839260E-15, 0.000000000000000 ) );
#464 = DIRECTION( '', ( 1.00000000000000, -6.12323399573677E-17, -0.000000000000000 ) );
#465 = DIRECTION( '', ( 6.12323399573677E-17, 1.00000000000000, 0.000000000000000 ) );
#466 = CARTESIAN_POINT( '', ( 71.8660700000000, -4.83101095125132E-15, 0.000000000000000 ) );
#467 = DIRECTION( '', ( 1.00000000000000, -6.12323399573677E-17, -0.000000000000000 ) );
#468 = DIRECTION( '', ( 6.12323399573677E-17, 1.00000000000000, 0.000000000000000 ) );
#469 = CARTESIAN_POINT( '', ( 0.000000000000000, -4.30483321611339E-16, 0.000000000000000 ) );
#470 = DIRECTION( '', ( 1.00000000000000, -6.12323399573677E-17, -0.000000000000000 ) );
#471 = DIRECTION( '', ( 6.12323399573677E-17, 1.00000000000000, 0.000000000000000 ) );
#472 = DIRECTION( '', ( 0.000000000000000, 0.000000000000000, 1.00000000000000 ) );
#473 = DIRECTION( '', ( 0.000000000000000, 0.000000000000000, 1.00000000000000 ) );
#474 = CARTESIAN_POINT( '', ( 75.5000000000000, -5.05352498839260E-15, 0.000000000000000 ) );
#475 = DIRECTION( '', ( 1.00000000000000, -6.12323399573677E-17, -0.000000000000000 ) );
#476 = DIRECTION( '', ( 6.12323399573677E-17, 1.00000000000000, 0.000000000000000 ) );
#477 = CARTESIAN_POINT( '', ( 0.000000000000000, -4.30483321611339E-16, 0.000000000000000 ) );
#478 = DIRECTION( '', ( 1.00000000000000, -6.12323399573677E-17, -0.000000000000000 ) );
#479 = DIRECTION( '', ( 6.12323399573677E-17, 1.00000000000000, 0.000000000000000 ) );
ENDSEC;
END-ISO-10303-21;
