ISO-10303-21;
HEADER;
FILE_DESCRIPTION( ( 'STEP AP214' ), '1' );
FILE_NAME( '//goodhand-server/Shared Folders/GoodHand Data/Kipp CAD/K0391/K0391.08X35.stp', '2020-12-07T10:16:42', ( '' ), ( '' ), ' ', 'PARTsolutions', ' ' );
FILE_SCHEMA( ( 'AUTOMOTIVE_DESIGN { 1 0 10303 214 1 1 1 1 }' ) );
ENDSEC;
DATA;
#1 = MECHANICAL_DESIGN_GEOMETRIC_PRESENTATION_REPRESENTATION( ' ', ( #10, #11, #12, #13, #14, #15, #16, #17, #18, #19, #20, #21, #22 ), #6 );
#2 = PRODUCT_DEFINITION_CONTEXT( '', #23, 'design' );
#3 = APPLICATION_PROTOCOL_DEFINITION( 'international standard', 'automotive_design', 2001, #23 );
#4 = PRODUCT_CATEGORY_RELATIONSHIP( 'NONE', 'NONE', #24, #25 );
#5 = SHAPE_DEFINITION_REPRESENTATION( #26, #27 );
#6 =  ( GEOMETRIC_REPRESENTATION_CONTEXT( 3 )GLOBAL_UNCERTAINTY_ASSIGNED_CONTEXT( ( #30 ) )GLOBAL_UNIT_ASSIGNED_CONTEXT( ( #32, #33, #34 ) )REPRESENTATION_CONTEXT( 'NONE', 'WORKSPACE' ) );
#10 = STYLED_ITEM( '', ( #36 ), #37 );
#11 = STYLED_ITEM( '', ( #38 ), #39 );
#12 = STYLED_ITEM( '', ( #40 ), #41 );
#13 = STYLED_ITEM( '', ( #42 ), #43 );
#14 = STYLED_ITEM( '', ( #44 ), #45 );
#15 = STYLED_ITEM( '', ( #46 ), #47 );
#16 = STYLED_ITEM( '', ( #48 ), #49 );
#17 = STYLED_ITEM( '', ( #50 ), #51 );
#18 = STYLED_ITEM( '', ( #52 ), #53 );
#19 = STYLED_ITEM( '', ( #54 ), #55 );
#20 = STYLED_ITEM( '', ( #56 ), #57 );
#21 = STYLED_ITEM( '', ( #58 ), #59 );
#22 = STYLED_ITEM( '', ( #60 ), #61 );
#23 = APPLICATION_CONTEXT( 'core data for automotive mechanical design processes' );
#24 = PRODUCT_CATEGORY( 'part', 'NONE' );
#25 = PRODUCT_RELATED_PRODUCT_CATEGORY( 'detail', ' ', ( #62 ) );
#26 = PRODUCT_DEFINITION_SHAPE( 'NONE', 'NONE', #63 );
#27 = ADVANCED_BREP_SHAPE_REPRESENTATION( '_K0391.08X35', ( #64, #65 ), #6 );
#30 = UNCERTAINTY_MEASURE_WITH_UNIT( LENGTH_MEASURE( 0.00100000000000000 ), #32, '', '' );
#32 =  ( CONVERSION_BASED_UNIT( 'MILLIMETRE', #68 )LENGTH_UNIT(  )NAMED_UNIT( #71 ) );
#33 =  ( NAMED_UNIT( #73 )PLANE_ANGLE_UNIT(  )SI_UNIT( $, .RADIAN. ) );
#34 =  ( NAMED_UNIT( #73 )SI_UNIT( $, .STERADIAN. )SOLID_ANGLE_UNIT(  ) );
#36 = PRESENTATION_STYLE_ASSIGNMENT( ( #79 ) );
#37 = ADVANCED_FACE( '', ( #80 ), #81, .T. );
#38 = PRESENTATION_STYLE_ASSIGNMENT( ( #82 ) );
#39 = ADVANCED_FACE( '', ( #83 ), #84, .T. );
#40 = PRESENTATION_STYLE_ASSIGNMENT( ( #85 ) );
#41 = ADVANCED_FACE( '', ( #86, #87 ), #88, .T. );
#42 = PRESENTATION_STYLE_ASSIGNMENT( ( #89 ) );
#43 = ADVANCED_FACE( '', ( #90 ), #91, .T. );
#44 = PRESENTATION_STYLE_ASSIGNMENT( ( #92 ) );
#45 = ADVANCED_FACE( '', ( #93 ), #94, .T. );
#46 = PRESENTATION_STYLE_ASSIGNMENT( ( #95 ) );
#47 = ADVANCED_FACE( '', ( #96, #97 ), #98, .T. );
#48 = PRESENTATION_STYLE_ASSIGNMENT( ( #99 ) );
#49 = ADVANCED_FACE( '', ( #100 ), #101, .T. );
#50 = PRESENTATION_STYLE_ASSIGNMENT( ( #102 ) );
#51 = ADVANCED_FACE( '', ( #103 ), #104, .T. );
#52 = PRESENTATION_STYLE_ASSIGNMENT( ( #105 ) );
#53 = ADVANCED_FACE( '', ( #106, #107 ), #108, .T. );
#54 = PRESENTATION_STYLE_ASSIGNMENT( ( #109 ) );
#55 = ADVANCED_FACE( '', ( #110 ), #111, .F. );
#56 = PRESENTATION_STYLE_ASSIGNMENT( ( #112 ) );
#57 = ADVANCED_FACE( '', ( #113, #114 ), #115, .F. );
#58 = PRESENTATION_STYLE_ASSIGNMENT( ( #116 ) );
#59 = ADVANCED_FACE( '', ( #117, #118 ), #119, .T. );
#60 = PRESENTATION_STYLE_ASSIGNMENT( ( #120 ) );
#61 = ADVANCED_FACE( '', ( #121, #122 ), #123, .T. );
#62 = PRODUCT( '_K0391.08X35', '_K0391.08X35', 'PART-_K0391.08X35-DESC', ( #124 ) );
#63 = PRODUCT_DEFINITION( 'NONE', 'NONE', #125, #2 );
#64 = MANIFOLD_SOLID_BREP( '_K0391.08X35', #126 );
#65 = AXIS2_PLACEMENT_3D( '', #127, #128, #129 );
#68 = LENGTH_MEASURE_WITH_UNIT( LENGTH_MEASURE( 1.00000000000000 ), #130 );
#71 = DIMENSIONAL_EXPONENTS( 1.00000000000000, 0.000000000000000, 0.000000000000000, 0.000000000000000, 0.000000000000000, 0.000000000000000, 0.000000000000000 );
#73 = DIMENSIONAL_EXPONENTS( 0.000000000000000, 0.000000000000000, 0.000000000000000, 0.000000000000000, 0.000000000000000, 0.000000000000000, 0.000000000000000 );
#79 = SURFACE_STYLE_USAGE( .BOTH., #131 );
#80 = FACE_OUTER_BOUND( '', #132, .T. );
#81 = PLANE( '', #133 );
#82 = SURFACE_STYLE_USAGE( .BOTH., #134 );
#83 = FACE_OUTER_BOUND( '', #135, .T. );
#84 = PLANE( '', #136 );
#85 = SURFACE_STYLE_USAGE( .BOTH., #137 );
#86 = FACE_BOUND( '', #138, .T. );
#87 = FACE_OUTER_BOUND( '', #139, .T. );
#88 = SPHERICAL_SURFACE( '', #140, 3.00000000000000 );
#89 = SURFACE_STYLE_USAGE( .BOTH., #141 );
#90 = FACE_OUTER_BOUND( '', #142, .T. );
#91 = PLANE( '', #143 );
#92 = SURFACE_STYLE_USAGE( .BOTH., #144 );
#93 = FACE_OUTER_BOUND( '', #145, .T. );
#94 = PLANE( '', #146 );
#95 = SURFACE_STYLE_USAGE( .BOTH., #147 );
#96 = FACE_BOUND( '', #148, .T. );
#97 = FACE_OUTER_BOUND( '', #149, .T. );
#98 = CONICAL_SURFACE( '', #150, 4.00000000000000, 0.785398163400000 );
#99 = SURFACE_STYLE_USAGE( .BOTH., #151 );
#100 = FACE_OUTER_BOUND( '', #152, .T. );
#101 = PLANE( '', #153 );
#102 = SURFACE_STYLE_USAGE( .BOTH., #154 );
#103 = FACE_OUTER_BOUND( '', #155, .T. );
#104 = PLANE( '', #156 );
#105 = SURFACE_STYLE_USAGE( .BOTH., #157 );
#106 = FACE_OUTER_BOUND( '', #158, .T. );
#107 = FACE_OUTER_BOUND( '', #159, .T. );
#108 = CYLINDRICAL_SURFACE( '', #160, 2.40000000000000 );
#109 = SURFACE_STYLE_USAGE( .BOTH., #161 );
#110 = FACE_OUTER_BOUND( '', #162, .T. );
#111 = PLANE( '', #163 );
#112 = SURFACE_STYLE_USAGE( .BOTH., #164 );
#113 = FACE_OUTER_BOUND( '', #165, .T. );
#114 = FACE_BOUND( '', #166, .T. );
#115 = PLANE( '', #167 );
#116 = SURFACE_STYLE_USAGE( .BOTH., #168 );
#117 = FACE_OUTER_BOUND( '', #169, .T. );
#118 = FACE_BOUND( '', #170, .T. );
#119 = CONICAL_SURFACE( '', #171, 3.23300000000000, 0.785398163400000 );
#120 = SURFACE_STYLE_USAGE( .BOTH., #172 );
#121 = FACE_OUTER_BOUND( '', #173, .T. );
#122 = FACE_OUTER_BOUND( '', #174, .T. );
#123 = CYLINDRICAL_SURFACE( '', #175, 4.00000000000000 );
#124 = PRODUCT_CONTEXT( '', #23, 'mechanical' );
#125 = PRODUCT_DEFINITION_FORMATION_WITH_SPECIFIED_SOURCE( ' ', 'NONE', #62, .NOT_KNOWN. );
#126 = CLOSED_SHELL( '', ( #59, #57, #39, #51, #49, #41, #53, #47, #61, #43, #37, #45, #55 ) );
#127 = CARTESIAN_POINT( '', ( 0.000000000000000, 0.000000000000000, 0.000000000000000 ) );
#128 = DIRECTION( '', ( 0.000000000000000, 0.000000000000000, 1.00000000000000 ) );
#129 = DIRECTION( '', ( 1.00000000000000, 0.000000000000000, 0.000000000000000 ) );
#130 =  ( LENGTH_UNIT(  )NAMED_UNIT( #71 )SI_UNIT( .MILLI., .METRE. ) );
#131 = SURFACE_SIDE_STYLE( '', ( #177 ) );
#132 = EDGE_LOOP( '', ( #178, #179, #180, #181 ) );
#133 = AXIS2_PLACEMENT_3D( '', #182, #183, #184 );
#134 = SURFACE_SIDE_STYLE( '', ( #185 ) );
#135 = EDGE_LOOP( '', ( #186, #187, #188, #189 ) );
#136 = AXIS2_PLACEMENT_3D( '', #190, #191, #192 );
#137 = SURFACE_SIDE_STYLE( '', ( #193 ) );
#138 = VERTEX_LOOP( '', #194 );
#139 = EDGE_LOOP( '', ( #195 ) );
#140 = AXIS2_PLACEMENT_3D( '', #196, #197, #198 );
#141 = SURFACE_SIDE_STYLE( '', ( #199 ) );
#142 = EDGE_LOOP( '', ( #200, #201, #202, #203 ) );
#143 = AXIS2_PLACEMENT_3D( '', #204, #205, #206 );
#144 = SURFACE_SIDE_STYLE( '', ( #207 ) );
#145 = EDGE_LOOP( '', ( #208, #209, #210, #211 ) );
#146 = AXIS2_PLACEMENT_3D( '', #212, #213, #214 );
#147 = SURFACE_SIDE_STYLE( '', ( #215 ) );
#148 = EDGE_LOOP( '', ( #216 ) );
#149 = EDGE_LOOP( '', ( #217 ) );
#150 = AXIS2_PLACEMENT_3D( '', #218, #219, #220 );
#151 = SURFACE_SIDE_STYLE( '', ( #221 ) );
#152 = EDGE_LOOP( '', ( #222, #223, #224, #225 ) );
#153 = AXIS2_PLACEMENT_3D( '', #226, #227, #228 );
#154 = SURFACE_SIDE_STYLE( '', ( #229 ) );
#155 = EDGE_LOOP( '', ( #230, #231, #232, #233 ) );
#156 = AXIS2_PLACEMENT_3D( '', #234, #235, #236 );
#157 = SURFACE_SIDE_STYLE( '', ( #237 ) );
#158 = EDGE_LOOP( '', ( #238 ) );
#159 = EDGE_LOOP( '', ( #239 ) );
#160 = AXIS2_PLACEMENT_3D( '', #240, #241, #242 );
#161 = SURFACE_SIDE_STYLE( '', ( #243 ) );
#162 = EDGE_LOOP( '', ( #244, #245, #246, #247, #248, #249 ) );
#163 = AXIS2_PLACEMENT_3D( '', #250, #251, #252 );
#164 = SURFACE_SIDE_STYLE( '', ( #253 ) );
#165 = EDGE_LOOP( '', ( #254 ) );
#166 = EDGE_LOOP( '', ( #255, #256, #257, #258, #259, #260 ) );
#167 = AXIS2_PLACEMENT_3D( '', #261, #262, #263 );
#168 = SURFACE_SIDE_STYLE( '', ( #264 ) );
#169 = EDGE_LOOP( '', ( #265 ) );
#170 = EDGE_LOOP( '', ( #266 ) );
#171 = AXIS2_PLACEMENT_3D( '', #267, #268, #269 );
#172 = SURFACE_SIDE_STYLE( '', ( #270 ) );
#173 = EDGE_LOOP( '', ( #271 ) );
#174 = EDGE_LOOP( '', ( #272 ) );
#175 = AXIS2_PLACEMENT_3D( '', #273, #274, #275 );
#177 = SURFACE_STYLE_FILL_AREA( #276 );
#178 = ORIENTED_EDGE( '', *, *, #277, .F. );
#179 = ORIENTED_EDGE( '', *, *, #278, .F. );
#180 = ORIENTED_EDGE( '', *, *, #279, .T. );
#181 = ORIENTED_EDGE( '', *, *, #280, .T. );
#182 = CARTESIAN_POINT( '', ( 4.00000000000000, 1.15470053837925, -2.00000000000000 ) );
#183 = DIRECTION( '', ( 0.000000000000000, -0.866025403784439, 0.500000000000000 ) );
#184 = DIRECTION( '', ( 0.000000000000000, -0.500000000000000, -0.866025403784439 ) );
#185 = SURFACE_STYLE_FILL_AREA( #281 );
#186 = ORIENTED_EDGE( '', *, *, #282, .F. );
#187 = ORIENTED_EDGE( '', *, *, #283, .F. );
#188 = ORIENTED_EDGE( '', *, *, #284, .T. );
#189 = ORIENTED_EDGE( '', *, *, #285, .T. );
#190 = CARTESIAN_POINT( '', ( 4.00000000000000, -1.15470053837925, 2.00000000000000 ) );
#191 = DIRECTION( '', ( 0.000000000000000, 0.866025403784439, -0.500000000000000 ) );
#192 = DIRECTION( '', ( 0.000000000000000, 0.500000000000000, 0.866025403784439 ) );
#193 = SURFACE_STYLE_FILL_AREA( #286 );
#194 = VERTEX_POINT( '', #287 );
#195 = ORIENTED_EDGE( '', *, *, #288, .T. );
#196 = CARTESIAN_POINT( '', ( 32.0000000000000, -3.90312782094782E-15, 0.000000000000000 ) );
#197 = DIRECTION( '', ( 1.00000000000000, 0.000000000000000, 0.000000000000000 ) );
#198 = DIRECTION( '', ( 0.000000000000000, 1.00000000000000, 0.000000000000000 ) );
#199 = SURFACE_STYLE_FILL_AREA( #289 );
#200 = ORIENTED_EDGE( '', *, *, #290, .F. );
#201 = ORIENTED_EDGE( '', *, *, #291, .F. );
#202 = ORIENTED_EDGE( '', *, *, #292, .T. );
#203 = ORIENTED_EDGE( '', *, *, #278, .T. );
#204 = CARTESIAN_POINT( '', ( 4.00000000000000, -1.15470053837925, -2.00000000000000 ) );
#205 = DIRECTION( '', ( 0.000000000000000, 0.000000000000000, 1.00000000000000 ) );
#206 = DIRECTION( '', ( 1.00000000000000, 0.000000000000000, -0.000000000000000 ) );
#207 = SURFACE_STYLE_FILL_AREA( #293 );
#208 = ORIENTED_EDGE( '', *, *, #294, .F. );
#209 = ORIENTED_EDGE( '', *, *, #280, .F. );
#210 = ORIENTED_EDGE( '', *, *, #295, .T. );
#211 = ORIENTED_EDGE( '', *, *, #296, .T. );
#212 = CARTESIAN_POINT( '', ( 4.00000000000000, 2.30940107675850, 0.000000000000000 ) );
#213 = DIRECTION( '', ( 0.000000000000000, -0.866025403784439, -0.500000000000000 ) );
#214 = DIRECTION( '', ( 0.000000000000000, 0.500000000000000, -0.866025403784439 ) );
#215 = SURFACE_STYLE_FILL_AREA( #297 );
#216 = ORIENTED_EDGE( '', *, *, #298, .F. );
#217 = ORIENTED_EDGE( '', *, *, #299, .T. );
#218 = CARTESIAN_POINT( '', ( 27.6000000000000, 0.000000000000000, 0.000000000000000 ) );
#219 = DIRECTION( '', ( -1.00000000000000, 0.000000000000000, -0.000000000000000 ) );
#220 = DIRECTION( '', ( 0.000000000000000, 0.000000000000000, 1.00000000000000 ) );
#221 = SURFACE_STYLE_FILL_AREA( #300 );
#222 = ORIENTED_EDGE( '', *, *, #301, .F. );
#223 = ORIENTED_EDGE( '', *, *, #296, .F. );
#224 = ORIENTED_EDGE( '', *, *, #302, .T. );
#225 = ORIENTED_EDGE( '', *, *, #283, .T. );
#226 = CARTESIAN_POINT( '', ( 4.00000000000000, 1.15470053837925, 2.00000000000000 ) );
#227 = DIRECTION( '', ( 0.000000000000000, 0.000000000000000, -1.00000000000000 ) );
#228 = DIRECTION( '', ( -1.00000000000000, 0.000000000000000, 0.000000000000000 ) );
#229 = SURFACE_STYLE_FILL_AREA( #303 );
#230 = ORIENTED_EDGE( '', *, *, #304, .F. );
#231 = ORIENTED_EDGE( '', *, *, #285, .F. );
#232 = ORIENTED_EDGE( '', *, *, #305, .T. );
#233 = ORIENTED_EDGE( '', *, *, #291, .T. );
#234 = CARTESIAN_POINT( '', ( 4.00000000000000, -2.30940107675850, 0.000000000000000 ) );
#235 = DIRECTION( '', ( -0.000000000000000, 0.866025403784439, 0.500000000000000 ) );
#236 = DIRECTION( '', ( 0.000000000000000, -0.500000000000000, 0.866025403784439 ) );
#237 = SURFACE_STYLE_FILL_AREA( #306 );
#238 = ORIENTED_EDGE( '', *, *, #288, .F. );
#239 = ORIENTED_EDGE( '', *, *, #298, .T. );
#240 = CARTESIAN_POINT( '', ( 35.0000000000000, 0.000000000000000, 0.000000000000000 ) );
#241 = DIRECTION( '', ( -1.00000000000000, -0.000000000000000, 0.000000000000000 ) );
#242 = DIRECTION( '', ( -0.000000000000000, 0.000000000000000, -1.00000000000000 ) );
#243 = SURFACE_STYLE_FILL_AREA( #307 );
#244 = ORIENTED_EDGE( '', *, *, #302, .F. );
#245 = ORIENTED_EDGE( '', *, *, #295, .F. );
#246 = ORIENTED_EDGE( '', *, *, #279, .F. );
#247 = ORIENTED_EDGE( '', *, *, #292, .F. );
#248 = ORIENTED_EDGE( '', *, *, #305, .F. );
#249 = ORIENTED_EDGE( '', *, *, #284, .F. );
#250 = CARTESIAN_POINT( '', ( 4.00000000000000, 0.000000000000000, 0.000000000000000 ) );
#251 = DIRECTION( '', ( 1.00000000000000, 0.000000000000000, 0.000000000000000 ) );
#252 = DIRECTION( '', ( 0.000000000000000, 0.000000000000000, -1.00000000000000 ) );
#253 = SURFACE_STYLE_FILL_AREA( #308 );
#254 = ORIENTED_EDGE( '', *, *, #309, .F. );
#255 = ORIENTED_EDGE( '', *, *, #301, .T. );
#256 = ORIENTED_EDGE( '', *, *, #282, .T. );
#257 = ORIENTED_EDGE( '', *, *, #304, .T. );
#258 = ORIENTED_EDGE( '', *, *, #290, .T. );
#259 = ORIENTED_EDGE( '', *, *, #277, .T. );
#260 = ORIENTED_EDGE( '', *, *, #294, .T. );
#261 = CARTESIAN_POINT( '', ( 0.000000000000000, 0.000000000000000, 0.000000000000000 ) );
#262 = DIRECTION( '', ( 1.00000000000000, 0.000000000000000, -0.000000000000000 ) );
#263 = DIRECTION( '', ( -0.000000000000000, 0.000000000000000, -1.00000000000000 ) );
#264 = SURFACE_STYLE_FILL_AREA( #310 );
#265 = ORIENTED_EDGE( '', *, *, #311, .F. );
#266 = ORIENTED_EDGE( '', *, *, #309, .T. );
#267 = CARTESIAN_POINT( '', ( 0.000000000000000, 0.000000000000000, 0.000000000000000 ) );
#268 = DIRECTION( '', ( 1.00000000000000, -0.000000000000000, -0.000000000000000 ) );
#269 = DIRECTION( '', ( -0.000000000000000, 0.000000000000000, -1.00000000000000 ) );
#270 = SURFACE_STYLE_FILL_AREA( #312 );
#271 = ORIENTED_EDGE( '', *, *, #299, .F. );
#272 = ORIENTED_EDGE( '', *, *, #311, .T. );
#273 = CARTESIAN_POINT( '', ( 35.0000000000000, 0.000000000000000, 0.000000000000000 ) );
#274 = DIRECTION( '', ( -1.00000000000000, -0.000000000000000, 0.000000000000000 ) );
#275 = DIRECTION( '', ( -0.000000000000000, 0.000000000000000, -1.00000000000000 ) );
#276 = FILL_AREA_STYLE( '', ( #313 ) );
#277 = EDGE_CURVE( '', #314, #315, #316, .T. );
#278 = EDGE_CURVE( '', #317, #314, #318, .T. );
#279 = EDGE_CURVE( '', #317, #319, #320, .T. );
#280 = EDGE_CURVE( '', #319, #315, #321, .T. );
#281 = FILL_AREA_STYLE( '', ( #322 ) );
#282 = EDGE_CURVE( '', #323, #324, #325, .T. );
#283 = EDGE_CURVE( '', #326, #323, #327, .T. );
#284 = EDGE_CURVE( '', #326, #328, #329, .T. );
#285 = EDGE_CURVE( '', #328, #324, #330, .T. );
#286 = FILL_AREA_STYLE( '', ( #331 ) );
#287 = CARTESIAN_POINT( '', ( 35.0000000000000, -3.71943080107571E-15, 0.000000000000000 ) );
#288 = EDGE_CURVE( '', #332, #332, #333, .T. );
#289 = FILL_AREA_STYLE( '', ( #334 ) );
#290 = EDGE_CURVE( '', #335, #314, #336, .T. );
#291 = EDGE_CURVE( '', #337, #335, #338, .T. );
#292 = EDGE_CURVE( '', #337, #317, #339, .T. );
#293 = FILL_AREA_STYLE( '', ( #340 ) );
#294 = EDGE_CURVE( '', #315, #341, #342, .T. );
#295 = EDGE_CURVE( '', #319, #343, #344, .T. );
#296 = EDGE_CURVE( '', #343, #341, #345, .T. );
#297 = FILL_AREA_STYLE( '', ( #346 ) );
#298 = EDGE_CURVE( '', #347, #347, #348, .T. );
#299 = EDGE_CURVE( '', #349, #349, #350, .T. );
#300 = FILL_AREA_STYLE( '', ( #351 ) );
#301 = EDGE_CURVE( '', #341, #323, #352, .T. );
#302 = EDGE_CURVE( '', #343, #326, #353, .T. );
#303 = FILL_AREA_STYLE( '', ( #354 ) );
#304 = EDGE_CURVE( '', #324, #335, #355, .T. );
#305 = EDGE_CURVE( '', #328, #337, #356, .T. );
#306 = FILL_AREA_STYLE( '', ( #357 ) );
#307 = FILL_AREA_STYLE( '', ( #358 ) );
#308 = FILL_AREA_STYLE( '', ( #359 ) );
#309 = EDGE_CURVE( '', #360, #360, #361, .T. );
#310 = FILL_AREA_STYLE( '', ( #362 ) );
#311 = EDGE_CURVE( '', #363, #363, #364, .T. );
#312 = FILL_AREA_STYLE( '', ( #365 ) );
#313 = FILL_AREA_STYLE_COLOUR( '', #366 );
#314 = VERTEX_POINT( '', #367 );
#315 = VERTEX_POINT( '', #368 );
#316 = LINE( '', #369, #370 );
#317 = VERTEX_POINT( '', #371 );
#318 = LINE( '', #372, #373 );
#319 = VERTEX_POINT( '', #374 );
#320 = LINE( '', #375, #376 );
#321 = LINE( '', #377, #378 );
#322 = FILL_AREA_STYLE_COLOUR( '', #379 );
#323 = VERTEX_POINT( '', #380 );
#324 = VERTEX_POINT( '', #381 );
#325 = LINE( '', #382, #383 );
#326 = VERTEX_POINT( '', #384 );
#327 = LINE( '', #385, #386 );
#328 = VERTEX_POINT( '', #387 );
#329 = LINE( '', #388, #389 );
#330 = LINE( '', #390, #391 );
#331 = FILL_AREA_STYLE_COLOUR( '', #392 );
#332 = VERTEX_POINT( '', #393 );
#333 = CIRCLE( '', #394, 2.40000000000000 );
#334 = FILL_AREA_STYLE_COLOUR( '', #395 );
#335 = VERTEX_POINT( '', #396 );
#336 = LINE( '', #397, #398 );
#337 = VERTEX_POINT( '', #399 );
#338 = LINE( '', #400, #401 );
#339 = LINE( '', #402, #403 );
#340 = FILL_AREA_STYLE_COLOUR( '', #404 );
#341 = VERTEX_POINT( '', #405 );
#342 = LINE( '', #406, #407 );
#343 = VERTEX_POINT( '', #408 );
#344 = LINE( '', #409, #410 );
#345 = LINE( '', #411, #412 );
#346 = FILL_AREA_STYLE_COLOUR( '', #413 );
#347 = VERTEX_POINT( '', #414 );
#348 = CIRCLE( '', #415, 2.40000000000000 );
#349 = VERTEX_POINT( '', #416 );
#350 = CIRCLE( '', #417, 4.00000000000000 );
#351 = FILL_AREA_STYLE_COLOUR( '', #418 );
#352 = LINE( '', #419, #420 );
#353 = LINE( '', #421, #422 );
#354 = FILL_AREA_STYLE_COLOUR( '', #423 );
#355 = LINE( '', #424, #425 );
#356 = LINE( '', #426, #427 );
#357 = FILL_AREA_STYLE_COLOUR( '', #428 );
#358 = FILL_AREA_STYLE_COLOUR( '', #429 );
#359 = FILL_AREA_STYLE_COLOUR( '', #430 );
#360 = VERTEX_POINT( '', #431 );
#361 = CIRCLE( '', #432, 3.23300000000000 );
#362 = FILL_AREA_STYLE_COLOUR( '', #433 );
#363 = VERTEX_POINT( '', #434 );
#364 = CIRCLE( '', #435, 4.00000000000000 );
#365 = FILL_AREA_STYLE_COLOUR( '', #436 );
#366 = COLOUR_RGB( '', 0.689999997600000, 0.689999997600000, 0.689999997600000 );
#367 = CARTESIAN_POINT( '', ( 0.000000000000000, 1.15470053837925, -2.00000000000000 ) );
#368 = CARTESIAN_POINT( '', ( 0.000000000000000, 2.30940107675850, 0.000000000000000 ) );
#369 = CARTESIAN_POINT( '', ( 0.000000000000000, 1.15470053837925, -2.00000000000000 ) );
#370 = VECTOR( '', #437, 1000.00000000000 );
#371 = CARTESIAN_POINT( '', ( 4.00000000000000, 1.15470053837925, -2.00000000000000 ) );
#372 = CARTESIAN_POINT( '', ( 4.00000000000000, 1.15470053837925, -2.00000000000000 ) );
#373 = VECTOR( '', #438, 1000.00000000000 );
#374 = CARTESIAN_POINT( '', ( 4.00000000000000, 2.30940107675850, 0.000000000000000 ) );
#375 = CARTESIAN_POINT( '', ( 4.00000000000000, 1.15470053837925, -2.00000000000000 ) );
#376 = VECTOR( '', #439, 1000.00000000000 );
#377 = CARTESIAN_POINT( '', ( 4.00000000000000, 2.30940107675850, 0.000000000000000 ) );
#378 = VECTOR( '', #440, 1000.00000000000 );
#379 = COLOUR_RGB( '', 0.689999997600000, 0.689999997600000, 0.689999997600000 );
#380 = CARTESIAN_POINT( '', ( 0.000000000000000, -1.15470053837925, 2.00000000000000 ) );
#381 = CARTESIAN_POINT( '', ( 0.000000000000000, -2.30940107675850, 0.000000000000000 ) );
#382 = CARTESIAN_POINT( '', ( 0.000000000000000, -1.15470053837925, 2.00000000000000 ) );
#383 = VECTOR( '', #441, 1000.00000000000 );
#384 = CARTESIAN_POINT( '', ( 4.00000000000000, -1.15470053837925, 2.00000000000000 ) );
#385 = CARTESIAN_POINT( '', ( 4.00000000000000, -1.15470053837925, 2.00000000000000 ) );
#386 = VECTOR( '', #442, 1000.00000000000 );
#387 = CARTESIAN_POINT( '', ( 4.00000000000000, -2.30940107675850, 0.000000000000000 ) );
#388 = CARTESIAN_POINT( '', ( 4.00000000000000, -1.15470053837925, 2.00000000000000 ) );
#389 = VECTOR( '', #443, 1000.00000000000 );
#390 = CARTESIAN_POINT( '', ( 4.00000000000000, -2.30940107675850, 0.000000000000000 ) );
#391 = VECTOR( '', #444, 1000.00000000000 );
#392 = COLOUR_RGB( '', 0.689999997600000, 0.689999997600000, 0.689999997600000 );
#393 = CARTESIAN_POINT( '', ( 30.2000000000000, 0.000000000000000, -2.40000000000000 ) );
#394 = AXIS2_PLACEMENT_3D( '', #445, #446, #447 );
#395 = COLOUR_RGB( '', 0.689999997600000, 0.689999997600000, 0.689999997600000 );
#396 = CARTESIAN_POINT( '', ( 0.000000000000000, -1.15470053837925, -2.00000000000000 ) );
#397 = CARTESIAN_POINT( '', ( 0.000000000000000, -1.15470053837925, -2.00000000000000 ) );
#398 = VECTOR( '', #448, 1000.00000000000 );
#399 = CARTESIAN_POINT( '', ( 4.00000000000000, -1.15470053837925, -2.00000000000000 ) );
#400 = CARTESIAN_POINT( '', ( 4.00000000000000, -1.15470053837925, -2.00000000000000 ) );
#401 = VECTOR( '', #449, 1000.00000000000 );
#402 = CARTESIAN_POINT( '', ( 4.00000000000000, -1.15470053837925, -2.00000000000000 ) );
#403 = VECTOR( '', #450, 1000.00000000000 );
#404 = COLOUR_RGB( '', 0.689999997600000, 0.689999997600000, 0.689999997600000 );
#405 = CARTESIAN_POINT( '', ( 0.000000000000000, 1.15470053837925, 2.00000000000000 ) );
#406 = CARTESIAN_POINT( '', ( 0.000000000000000, 2.30940107675850, 0.000000000000000 ) );
#407 = VECTOR( '', #451, 1000.00000000000 );
#408 = CARTESIAN_POINT( '', ( 4.00000000000000, 1.15470053837925, 2.00000000000000 ) );
#409 = CARTESIAN_POINT( '', ( 4.00000000000000, 2.30940107675850, 0.000000000000000 ) );
#410 = VECTOR( '', #452, 1000.00000000000 );
#411 = CARTESIAN_POINT( '', ( 4.00000000000000, 1.15470053837925, 2.00000000000000 ) );
#412 = VECTOR( '', #453, 1000.00000000000 );
#413 = COLOUR_RGB( '', 0.689999997600000, 0.689999997600000, 0.689999997600000 );
#414 = CARTESIAN_POINT( '', ( 29.2000000000000, 0.000000000000000, -2.40000000000000 ) );
#415 = AXIS2_PLACEMENT_3D( '', #454, #455, #456 );
#416 = CARTESIAN_POINT( '', ( 27.6000000000000, 0.000000000000000, -4.00000000000000 ) );
#417 = AXIS2_PLACEMENT_3D( '', #457, #458, #459 );
#418 = COLOUR_RGB( '', 0.689999997600000, 0.689999997600000, 0.689999997600000 );
#419 = CARTESIAN_POINT( '', ( 0.000000000000000, 1.15470053837925, 2.00000000000000 ) );
#420 = VECTOR( '', #460, 1000.00000000000 );
#421 = CARTESIAN_POINT( '', ( 4.00000000000000, 1.15470053837925, 2.00000000000000 ) );
#422 = VECTOR( '', #461, 1000.00000000000 );
#423 = COLOUR_RGB( '', 0.689999997600000, 0.689999997600000, 0.689999997600000 );
#424 = CARTESIAN_POINT( '', ( 0.000000000000000, -2.30940107675850, 0.000000000000000 ) );
#425 = VECTOR( '', #462, 1000.00000000000 );
#426 = CARTESIAN_POINT( '', ( 4.00000000000000, -2.30940107675850, 0.000000000000000 ) );
#427 = VECTOR( '', #463, 1000.00000000000 );
#428 = COLOUR_RGB( '', 0.689999997600000, 0.689999997600000, 0.689999997600000 );
#429 = COLOUR_RGB( '', 0.689999997600000, 0.689999997600000, 0.689999997600000 );
#430 = COLOUR_RGB( '', 0.689999997600000, 0.689999997600000, 0.689999997600000 );
#431 = CARTESIAN_POINT( '', ( 0.000000000000000, 0.000000000000000, -3.23300000000000 ) );
#432 = AXIS2_PLACEMENT_3D( '', #464, #465, #466 );
#433 = COLOUR_RGB( '', 0.689999997600000, 0.689999997600000, 0.689999997600000 );
#434 = CARTESIAN_POINT( '', ( 0.766999999999997, 0.000000000000000, -4.00000000000000 ) );
#435 = AXIS2_PLACEMENT_3D( '', #467, #468, #469 );
#436 = COLOUR_RGB( '', 0.689999997600000, 0.689999997600000, 0.689999997600000 );
#437 = DIRECTION( '', ( 0.000000000000000, 0.500000000000000, 0.866025403784439 ) );
#438 = DIRECTION( '', ( -1.00000000000000, -0.000000000000000, -0.000000000000000 ) );
#439 = DIRECTION( '', ( 0.000000000000000, 0.500000000000000, 0.866025403784439 ) );
#440 = DIRECTION( '', ( -1.00000000000000, -0.000000000000000, -0.000000000000000 ) );
#441 = DIRECTION( '', ( 0.000000000000000, -0.500000000000000, -0.866025403784439 ) );
#442 = DIRECTION( '', ( -1.00000000000000, -0.000000000000000, -0.000000000000000 ) );
#443 = DIRECTION( '', ( 0.000000000000000, -0.500000000000000, -0.866025403784439 ) );
#444 = DIRECTION( '', ( -1.00000000000000, -0.000000000000000, -0.000000000000000 ) );
#445 = CARTESIAN_POINT( '', ( 30.2000000000000, 0.000000000000000, 0.000000000000000 ) );
#446 = DIRECTION( '', ( 1.00000000000000, 0.000000000000000, -0.000000000000000 ) );
#447 = DIRECTION( '', ( -0.000000000000000, 0.000000000000000, -1.00000000000000 ) );
#448 = DIRECTION( '', ( 0.000000000000000, 1.00000000000000, 0.000000000000000 ) );
#449 = DIRECTION( '', ( -1.00000000000000, -0.000000000000000, -0.000000000000000 ) );
#450 = DIRECTION( '', ( 0.000000000000000, 1.00000000000000, 0.000000000000000 ) );
#451 = DIRECTION( '', ( 0.000000000000000, -0.500000000000000, 0.866025403784439 ) );
#452 = DIRECTION( '', ( 0.000000000000000, -0.500000000000000, 0.866025403784439 ) );
#453 = DIRECTION( '', ( -1.00000000000000, -0.000000000000000, -0.000000000000000 ) );
#454 = CARTESIAN_POINT( '', ( 29.2000000000000, 0.000000000000000, 0.000000000000000 ) );
#455 = DIRECTION( '', ( 1.00000000000000, 0.000000000000000, -0.000000000000000 ) );
#456 = DIRECTION( '', ( -0.000000000000000, 0.000000000000000, -1.00000000000000 ) );
#457 = CARTESIAN_POINT( '', ( 27.6000000000000, 0.000000000000000, 0.000000000000000 ) );
#458 = DIRECTION( '', ( 1.00000000000000, 0.000000000000000, -0.000000000000000 ) );
#459 = DIRECTION( '', ( -0.000000000000000, 0.000000000000000, -1.00000000000000 ) );
#460 = DIRECTION( '', ( 0.000000000000000, -1.00000000000000, 0.000000000000000 ) );
#461 = DIRECTION( '', ( 0.000000000000000, -1.00000000000000, 0.000000000000000 ) );
#462 = DIRECTION( '', ( 0.000000000000000, 0.500000000000000, -0.866025403784439 ) );
#463 = DIRECTION( '', ( 0.000000000000000, 0.500000000000000, -0.866025403784439 ) );
#464 = CARTESIAN_POINT( '', ( 0.000000000000000, 0.000000000000000, 0.000000000000000 ) );
#465 = DIRECTION( '', ( 1.00000000000000, 0.000000000000000, -0.000000000000000 ) );
#466 = DIRECTION( '', ( -0.000000000000000, 0.000000000000000, -1.00000000000000 ) );
#467 = CARTESIAN_POINT( '', ( 0.766999999999997, 0.000000000000000, 0.000000000000000 ) );
#468 = DIRECTION( '', ( 1.00000000000000, 0.000000000000000, -0.000000000000000 ) );
#469 = DIRECTION( '', ( -0.000000000000000, 0.000000000000000, -1.00000000000000 ) );
ENDSEC;
END-ISO-10303-21;
