ISO-10303-21;
HEADER;
FILE_DESCRIPTION( ( 'STEP AP214' ), '1' );
FILE_NAME( '//goodhand-server/Shared Folders/GoodHand Data/Kipp CAD/K0390/K0390.10X50.stp', '2020-12-07T10:14:27', ( '' ), ( '' ), ' ', 'PARTsolutions', ' ' );
FILE_SCHEMA( ( 'AUTOMOTIVE_DESIGN { 1 0 10303 214 1 1 1 1 }' ) );
ENDSEC;
DATA;
#1 = MECHANICAL_DESIGN_GEOMETRIC_PRESENTATION_REPRESENTATION( ' ', ( #10, #11, #12, #13, #14, #15, #16, #17, #18, #19, #20, #21, #22 ), #6 );
#2 = PRODUCT_DEFINITION_CONTEXT( '', #23, 'design' );
#3 = APPLICATION_PROTOCOL_DEFINITION( 'international standard', 'automotive_design', 2001, #23 );
#4 = PRODUCT_CATEGORY_RELATIONSHIP( 'NONE', 'NONE', #24, #25 );
#5 = SHAPE_DEFINITION_REPRESENTATION( #26, #27 );
#6 =  ( GEOMETRIC_REPRESENTATION_CONTEXT( 3 )GLOBAL_UNCERTAINTY_ASSIGNED_CONTEXT( ( #30 ) )GLOBAL_UNIT_ASSIGNED_CONTEXT( ( #32, #33, #34 ) )REPRESENTATION_CONTEXT( 'NONE', 'WORKSPACE' ) );
#10 = STYLED_ITEM( '', ( #36 ), #37 );
#11 = STYLED_ITEM( '', ( #38 ), #39 );
#12 = STYLED_ITEM( '', ( #40 ), #41 );
#13 = STYLED_ITEM( '', ( #42 ), #43 );
#14 = STYLED_ITEM( '', ( #44 ), #45 );
#15 = STYLED_ITEM( '', ( #46 ), #47 );
#16 = STYLED_ITEM( '', ( #48 ), #49 );
#17 = STYLED_ITEM( '', ( #50 ), #51 );
#18 = STYLED_ITEM( '', ( #52 ), #53 );
#19 = STYLED_ITEM( '', ( #54 ), #55 );
#20 = STYLED_ITEM( '', ( #56 ), #57 );
#21 = STYLED_ITEM( '', ( #58 ), #59 );
#22 = STYLED_ITEM( '', ( #60 ), #61 );
#23 = APPLICATION_CONTEXT( 'core data for automotive mechanical design processes' );
#24 = PRODUCT_CATEGORY( 'part', 'NONE' );
#25 = PRODUCT_RELATED_PRODUCT_CATEGORY( 'detail', ' ', ( #62 ) );
#26 = PRODUCT_DEFINITION_SHAPE( 'NONE', 'NONE', #63 );
#27 = ADVANCED_BREP_SHAPE_REPRESENTATION( '_K0390.10X50', ( #64, #65 ), #6 );
#30 = UNCERTAINTY_MEASURE_WITH_UNIT( LENGTH_MEASURE( 0.00100000000000000 ), #32, '', '' );
#32 =  ( CONVERSION_BASED_UNIT( 'MILLIMETRE', #68 )LENGTH_UNIT(  )NAMED_UNIT( #71 ) );
#33 =  ( NAMED_UNIT( #73 )PLANE_ANGLE_UNIT(  )SI_UNIT( $, .RADIAN. ) );
#34 =  ( NAMED_UNIT( #73 )SI_UNIT( $, .STERADIAN. )SOLID_ANGLE_UNIT(  ) );
#36 = PRESENTATION_STYLE_ASSIGNMENT( ( #79 ) );
#37 = ADVANCED_FACE( '', ( #80, #81 ), #82, .T. );
#38 = PRESENTATION_STYLE_ASSIGNMENT( ( #83 ) );
#39 = ADVANCED_FACE( '', ( #84, #85 ), #86, .F. );
#40 = PRESENTATION_STYLE_ASSIGNMENT( ( #87 ) );
#41 = ADVANCED_FACE( '', ( #88 ), #89, .T. );
#42 = PRESENTATION_STYLE_ASSIGNMENT( ( #90 ) );
#43 = ADVANCED_FACE( '', ( #91, #92 ), #93, .T. );
#44 = PRESENTATION_STYLE_ASSIGNMENT( ( #94 ) );
#45 = ADVANCED_FACE( '', ( #95 ), #96, .F. );
#46 = PRESENTATION_STYLE_ASSIGNMENT( ( #97 ) );
#47 = ADVANCED_FACE( '', ( #98 ), #99, .F. );
#48 = PRESENTATION_STYLE_ASSIGNMENT( ( #100 ) );
#49 = ADVANCED_FACE( '', ( #101 ), #102, .F. );
#50 = PRESENTATION_STYLE_ASSIGNMENT( ( #103 ) );
#51 = ADVANCED_FACE( '', ( #104, #105 ), #106, .T. );
#52 = PRESENTATION_STYLE_ASSIGNMENT( ( #107 ) );
#53 = ADVANCED_FACE( '', ( #108, #109 ), #110, .T. );
#54 = PRESENTATION_STYLE_ASSIGNMENT( ( #111 ) );
#55 = ADVANCED_FACE( '', ( #112, #113 ), #114, .T. );
#56 = PRESENTATION_STYLE_ASSIGNMENT( ( #115 ) );
#57 = ADVANCED_FACE( '', ( #116 ), #117, .F. );
#58 = PRESENTATION_STYLE_ASSIGNMENT( ( #118 ) );
#59 = ADVANCED_FACE( '', ( #119 ), #120, .T. );
#60 = PRESENTATION_STYLE_ASSIGNMENT( ( #121 ) );
#61 = ADVANCED_FACE( '', ( #122 ), #123, .T. );
#62 = PRODUCT( '_K0390.10X50', '_K0390.10X50', 'PART-_K0390.10X50-DESC', ( #124 ) );
#63 = PRODUCT_DEFINITION( 'NONE', 'NONE', #125, #2 );
#64 = MANIFOLD_SOLID_BREP( '_K0390.10X50', #126 );
#65 = AXIS2_PLACEMENT_3D( '', #127, #128, #129 );
#68 = LENGTH_MEASURE_WITH_UNIT( LENGTH_MEASURE( 1.00000000000000 ), #130 );
#71 = DIMENSIONAL_EXPONENTS( 1.00000000000000, 0.000000000000000, 0.000000000000000, 0.000000000000000, 0.000000000000000, 0.000000000000000, 0.000000000000000 );
#73 = DIMENSIONAL_EXPONENTS( 0.000000000000000, 0.000000000000000, 0.000000000000000, 0.000000000000000, 0.000000000000000, 0.000000000000000, 0.000000000000000 );
#79 = SURFACE_STYLE_USAGE( .BOTH., #131 );
#80 = FACE_OUTER_BOUND( '', #132, .T. );
#81 = FACE_OUTER_BOUND( '', #133, .T. );
#82 = CYLINDRICAL_SURFACE( '', #134, 4.00000000000000 );
#83 = SURFACE_STYLE_USAGE( .BOTH., #135 );
#84 = FACE_OUTER_BOUND( '', #136, .T. );
#85 = FACE_BOUND( '', #137, .T. );
#86 = PLANE( '', #138 );
#87 = SURFACE_STYLE_USAGE( .BOTH., #139 );
#88 = FACE_OUTER_BOUND( '', #140, .T. );
#89 = CONICAL_SURFACE( '', #141, 4.08000000000000, 0.785398163400000 );
#90 = SURFACE_STYLE_USAGE( .BOTH., #142 );
#91 = FACE_OUTER_BOUND( '', #143, .T. );
#92 = FACE_OUTER_BOUND( '', #144, .T. );
#93 = CYLINDRICAL_SURFACE( '', #145, 3.60000000000000 );
#94 = SURFACE_STYLE_USAGE( .BOTH., #146 );
#95 = FACE_OUTER_BOUND( '', #147, .T. );
#96 = PLANE( '', #148 );
#97 = SURFACE_STYLE_USAGE( .BOTH., #149 );
#98 = FACE_OUTER_BOUND( '', #150, .T. );
#99 = PLANE( '', #151 );
#100 = SURFACE_STYLE_USAGE( .BOTH., #152 );
#101 = FACE_OUTER_BOUND( '', #153, .T. );
#102 = PLANE( '', #154 );
#103 = SURFACE_STYLE_USAGE( .BOTH., #155 );
#104 = FACE_BOUND( '', #156, .T. );
#105 = FACE_OUTER_BOUND( '', #157, .T. );
#106 = CONICAL_SURFACE( '', #158, 5.00000000000000, 1.01679700410000 );
#107 = SURFACE_STYLE_USAGE( .BOTH., #159 );
#108 = FACE_OUTER_BOUND( '', #160, .T. );
#109 = FACE_OUTER_BOUND( '', #161, .T. );
#110 = CYLINDRICAL_SURFACE( '', #162, 5.00000000000000 );
#111 = SURFACE_STYLE_USAGE( .BOTH., #163 );
#112 = FACE_BOUND( '', #164, .T. );
#113 = FACE_OUTER_BOUND( '', #165, .T. );
#114 = SPHERICAL_SURFACE( '', #166, 6.70960000000000 );
#115 = SURFACE_STYLE_USAGE( .BOTH., #167 );
#116 = FACE_OUTER_BOUND( '', #168, .T. );
#117 = PLANE( '', #169 );
#118 = SURFACE_STYLE_USAGE( .BOTH., #170 );
#119 = FACE_OUTER_BOUND( '', #171, .T. );
#120 = PLANE( '', #172 );
#121 = SURFACE_STYLE_USAGE( .BOTH., #173 );
#122 = FACE_OUTER_BOUND( '', #174, .T. );
#123 = CONICAL_SURFACE( '', #175, 4.08000000000000, 0.785398163400000 );
#124 = PRODUCT_CONTEXT( '', #23, 'mechanical' );
#125 = PRODUCT_DEFINITION_FORMATION_WITH_SPECIFIED_SOURCE( ' ', 'NONE', #62, .NOT_KNOWN. );
#126 = CLOSED_SHELL( '', ( #49, #57, #55, #37, #39, #43, #51, #53, #41, #45, #61, #47, #59 ) );
#127 = CARTESIAN_POINT( '', ( 0.000000000000000, 0.000000000000000, 0.000000000000000 ) );
#128 = DIRECTION( '', ( 0.000000000000000, 0.000000000000000, 1.00000000000000 ) );
#129 = DIRECTION( '', ( 1.00000000000000, 0.000000000000000, 0.000000000000000 ) );
#130 =  ( LENGTH_UNIT(  )NAMED_UNIT( #71 )SI_UNIT( .MILLI., .METRE. ) );
#131 = SURFACE_SIDE_STYLE( '', ( #177 ) );
#132 = EDGE_LOOP( '', ( #178 ) );
#133 = EDGE_LOOP( '', ( #179 ) );
#134 = AXIS2_PLACEMENT_3D( '', #180, #181, #182 );
#135 = SURFACE_SIDE_STYLE( '', ( #183 ) );
#136 = EDGE_LOOP( '', ( #184 ) );
#137 = EDGE_LOOP( '', ( #185 ) );
#138 = AXIS2_PLACEMENT_3D( '', #186, #187, #188 );
#139 = SURFACE_SIDE_STYLE( '', ( #189 ) );
#140 = EDGE_LOOP( '', ( #190, #191, #192, #193 ) );
#141 = AXIS2_PLACEMENT_3D( '', #194, #195, #196 );
#142 = SURFACE_SIDE_STYLE( '', ( #197 ) );
#143 = EDGE_LOOP( '', ( #198 ) );
#144 = EDGE_LOOP( '', ( #199 ) );
#145 = AXIS2_PLACEMENT_3D( '', #200, #201, #202 );
#146 = SURFACE_SIDE_STYLE( '', ( #203 ) );
#147 = EDGE_LOOP( '', ( #204, #205 ) );
#148 = AXIS2_PLACEMENT_3D( '', #206, #207, #208 );
#149 = SURFACE_SIDE_STYLE( '', ( #209 ) );
#150 = EDGE_LOOP( '', ( #210, #211 ) );
#151 = AXIS2_PLACEMENT_3D( '', #212, #213, #214 );
#152 = SURFACE_SIDE_STYLE( '', ( #215 ) );
#153 = EDGE_LOOP( '', ( #216, #217, #218, #219, #220, #221 ) );
#154 = AXIS2_PLACEMENT_3D( '', #222, #223, #224 );
#155 = SURFACE_SIDE_STYLE( '', ( #225 ) );
#156 = EDGE_LOOP( '', ( #226 ) );
#157 = EDGE_LOOP( '', ( #227 ) );
#158 = AXIS2_PLACEMENT_3D( '', #228, #229, #230 );
#159 = SURFACE_SIDE_STYLE( '', ( #231 ) );
#160 = EDGE_LOOP( '', ( #232 ) );
#161 = EDGE_LOOP( '', ( #233, #234, #235, #236, #237, #238, #239, #240 ) );
#162 = AXIS2_PLACEMENT_3D( '', #241, #242, #243 );
#163 = SURFACE_SIDE_STYLE( '', ( #244 ) );
#164 = VERTEX_LOOP( '', #245 );
#165 = EDGE_LOOP( '', ( #246 ) );
#166 = AXIS2_PLACEMENT_3D( '', #247, #248, #249 );
#167 = SURFACE_SIDE_STYLE( '', ( #250 ) );
#168 = EDGE_LOOP( '', ( #251, #252, #253, #254, #255, #256 ) );
#169 = AXIS2_PLACEMENT_3D( '', #257, #258, #259 );
#170 = SURFACE_SIDE_STYLE( '', ( #260 ) );
#171 = EDGE_LOOP( '', ( #261, #262, #263, #264 ) );
#172 = AXIS2_PLACEMENT_3D( '', #265, #266, #267 );
#173 = SURFACE_SIDE_STYLE( '', ( #268 ) );
#174 = EDGE_LOOP( '', ( #269, #270, #271, #272 ) );
#175 = AXIS2_PLACEMENT_3D( '', #273, #274, #275 );
#177 = SURFACE_STYLE_FILL_AREA( #276 );
#178 = ORIENTED_EDGE( '', *, *, #277, .F. );
#179 = ORIENTED_EDGE( '', *, *, #278, .T. );
#180 = CARTESIAN_POINT( '', ( 50.0000000000000, 1.77635683940025E-15, 0.000000000000000 ) );
#181 = DIRECTION( '', ( -1.00000000000000, 6.12323399573676E-17, 0.000000000000000 ) );
#182 = DIRECTION( '', ( 6.12323399573676E-17, 1.00000000000000, 0.000000000000000 ) );
#183 = SURFACE_STYLE_FILL_AREA( #279 );
#184 = ORIENTED_EDGE( '', *, *, #278, .F. );
#185 = ORIENTED_EDGE( '', *, *, #280, .T. );
#186 = CARTESIAN_POINT( '', ( 45.5000000000000, 3.60000000000000, 0.000000000000000 ) );
#187 = DIRECTION( '', ( 1.00000000000000, -6.12323399573676E-17, -0.000000000000000 ) );
#188 = DIRECTION( '', ( 6.12323399573676E-17, 1.00000000000000, 0.000000000000000 ) );
#189 = SURFACE_STYLE_FILL_AREA( #281 );
#190 = ORIENTED_EDGE( '', *, *, #282, .T. );
#191 = ORIENTED_EDGE( '', *, *, #283, .T. );
#192 = ORIENTED_EDGE( '', *, *, #284, .F. );
#193 = ORIENTED_EDGE( '', *, *, #285, .T. );
#194 = CARTESIAN_POINT( '', ( 0.000000000000000, 4.83797383726863E-15, 0.000000000000000 ) );
#195 = DIRECTION( '', ( 1.00000000000000, -6.12323399573676E-17, -0.000000000000000 ) );
#196 = DIRECTION( '', ( 6.12323399573676E-17, 1.00000000000000, 0.000000000000000 ) );
#197 = SURFACE_STYLE_FILL_AREA( #286 );
#198 = ORIENTED_EDGE( '', *, *, #280, .F. );
#199 = ORIENTED_EDGE( '', *, *, #287, .T. );
#200 = CARTESIAN_POINT( '', ( 50.0000000000000, 1.77635683940025E-15, 0.000000000000000 ) );
#201 = DIRECTION( '', ( -1.00000000000000, 6.12323399573676E-17, 0.000000000000000 ) );
#202 = DIRECTION( '', ( 6.12323399573676E-17, 1.00000000000000, 0.000000000000000 ) );
#203 = SURFACE_STYLE_FILL_AREA( #288 );
#204 = ORIENTED_EDGE( '', *, *, #289, .F. );
#205 = ORIENTED_EDGE( '', *, *, #290, .F. );
#206 = CARTESIAN_POINT( '', ( -1.24913973513030E-16, 4.83797383726863E-15, 0.000000000000000 ) );
#207 = DIRECTION( '', ( 1.00000000000000, -6.12323399573676E-17, -0.000000000000000 ) );
#208 = DIRECTION( '', ( 6.12323399573676E-17, 1.00000000000000, 0.000000000000000 ) );
#209 = SURFACE_STYLE_FILL_AREA( #291 );
#210 = ORIENTED_EDGE( '', *, *, #282, .F. );
#211 = ORIENTED_EDGE( '', *, *, #292, .F. );
#212 = CARTESIAN_POINT( '', ( -1.24913973513030E-16, 4.83797383726863E-15, 0.000000000000000 ) );
#213 = DIRECTION( '', ( 1.00000000000000, -6.12323399573676E-17, -0.000000000000000 ) );
#214 = DIRECTION( '', ( 6.12323399573676E-17, 1.00000000000000, 0.000000000000000 ) );
#215 = SURFACE_STYLE_FILL_AREA( #293 );
#216 = ORIENTED_EDGE( '', *, *, #283, .F. );
#217 = ORIENTED_EDGE( '', *, *, #292, .T. );
#218 = ORIENTED_EDGE( '', *, *, #285, .F. );
#219 = ORIENTED_EDGE( '', *, *, #294, .F. );
#220 = ORIENTED_EDGE( '', *, *, #295, .F. );
#221 = ORIENTED_EDGE( '', *, *, #296, .F. );
#222 = CARTESIAN_POINT( '', ( 3.00000000000000, 0.900000000000005, 10.5000000000000 ) );
#223 = DIRECTION( '', ( 0.000000000000000, 1.00000000000000, 0.000000000000000 ) );
#224 = DIRECTION( '', ( 0.000000000000000, -0.000000000000000, 1.00000000000000 ) );
#225 = SURFACE_STYLE_FILL_AREA( #297 );
#226 = ORIENTED_EDGE( '', *, *, #287, .F. );
#227 = ORIENTED_EDGE( '', *, *, #298, .T. );
#228 = CARTESIAN_POINT( '', ( 41.0000000000000, 2.32744789901656E-15, 0.000000000000000 ) );
#229 = DIRECTION( '', ( -1.00000000000000, 6.12323399573676E-17, -0.000000000000000 ) );
#230 = DIRECTION( '', ( -6.12323399573676E-17, -1.00000000000000, 0.000000000000000 ) );
#231 = SURFACE_STYLE_FILL_AREA( #299 );
#232 = ORIENTED_EDGE( '', *, *, #298, .F. );
#233 = ORIENTED_EDGE( '', *, *, #300, .T. );
#234 = ORIENTED_EDGE( '', *, *, #301, .T. );
#235 = ORIENTED_EDGE( '', *, *, #302, .F. );
#236 = ORIENTED_EDGE( '', *, *, #294, .T. );
#237 = ORIENTED_EDGE( '', *, *, #284, .T. );
#238 = ORIENTED_EDGE( '', *, *, #296, .T. );
#239 = ORIENTED_EDGE( '', *, *, #303, .F. );
#240 = ORIENTED_EDGE( '', *, *, #304, .T. );
#241 = CARTESIAN_POINT( '', ( 50.0000000000000, 1.77635683940025E-15, 0.000000000000000 ) );
#242 = DIRECTION( '', ( -1.00000000000000, 6.12323399573676E-17, 0.000000000000000 ) );
#243 = DIRECTION( '', ( 6.12323399573676E-17, 1.00000000000000, 0.000000000000000 ) );
#244 = SURFACE_STYLE_FILL_AREA( #305 );
#245 = VERTEX_POINT( '', #306 );
#246 = ORIENTED_EDGE( '', *, *, #277, .T. );
#247 = CARTESIAN_POINT( '', ( 43.2904000000001, 2.42861286636753E-14, 0.000000000000000 ) );
#248 = DIRECTION( '', ( 1.00000000000000, 0.000000000000000, 0.000000000000000 ) );
#249 = DIRECTION( '', ( 0.000000000000000, -1.00000000000000, 0.000000000000000 ) );
#250 = SURFACE_STYLE_FILL_AREA( #307 );
#251 = ORIENTED_EDGE( '', *, *, #290, .T. );
#252 = ORIENTED_EDGE( '', *, *, #308, .F. );
#253 = ORIENTED_EDGE( '', *, *, #304, .F. );
#254 = ORIENTED_EDGE( '', *, *, #309, .F. );
#255 = ORIENTED_EDGE( '', *, *, #301, .F. );
#256 = ORIENTED_EDGE( '', *, *, #310, .F. );
#257 = CARTESIAN_POINT( '', ( 3.00000000000000, -0.899999999999995, -10.5000000000000 ) );
#258 = DIRECTION( '', ( 0.000000000000000, -1.00000000000000, 0.000000000000000 ) );
#259 = DIRECTION( '', ( 0.000000000000000, 0.000000000000000, -1.00000000000000 ) );
#260 = SURFACE_STYLE_FILL_AREA( #311 );
#261 = ORIENTED_EDGE( '', *, *, #302, .T. );
#262 = ORIENTED_EDGE( '', *, *, #309, .T. );
#263 = ORIENTED_EDGE( '', *, *, #303, .T. );
#264 = ORIENTED_EDGE( '', *, *, #295, .T. );
#265 = CARTESIAN_POINT( '', ( 3.00000000000000, 0.000000000000000, 0.000000000000000 ) );
#266 = DIRECTION( '', ( -1.00000000000000, 0.000000000000000, 0.000000000000000 ) );
#267 = DIRECTION( '', ( 0.000000000000000, 0.000000000000000, 1.00000000000000 ) );
#268 = SURFACE_STYLE_FILL_AREA( #312 );
#269 = ORIENTED_EDGE( '', *, *, #300, .F. );
#270 = ORIENTED_EDGE( '', *, *, #308, .T. );
#271 = ORIENTED_EDGE( '', *, *, #289, .T. );
#272 = ORIENTED_EDGE( '', *, *, #310, .T. );
#273 = CARTESIAN_POINT( '', ( 0.000000000000000, 4.83797383726863E-15, 0.000000000000000 ) );
#274 = DIRECTION( '', ( 1.00000000000000, -6.12323399573676E-17, -0.000000000000000 ) );
#275 = DIRECTION( '', ( 6.12323399573676E-17, 1.00000000000000, 0.000000000000000 ) );
#276 = FILL_AREA_STYLE( '', ( #313 ) );
#277 = EDGE_CURVE( '', #314, #314, #315, .T. );
#278 = EDGE_CURVE( '', #316, #316, #317, .T. );
#279 = FILL_AREA_STYLE( '', ( #318 ) );
#280 = EDGE_CURVE( '', #319, #319, #320, .T. );
#281 = FILL_AREA_STYLE( '', ( #321 ) );
#282 = EDGE_CURVE( '', #322, #323, #324, .T. );
#283 = EDGE_CURVE( '', #323, #325, #326, .T. );
#284 = EDGE_CURVE( '', #327, #325, #328, .T. );
#285 = EDGE_CURVE( '', #327, #322, #329, .T. );
#286 = FILL_AREA_STYLE( '', ( #330 ) );
#287 = EDGE_CURVE( '', #331, #331, #332, .T. );
#288 = FILL_AREA_STYLE( '', ( #333 ) );
#289 = EDGE_CURVE( '', #334, #335, #336, .T. );
#290 = EDGE_CURVE( '', #335, #334, #337, .T. );
#291 = FILL_AREA_STYLE( '', ( #338 ) );
#292 = EDGE_CURVE( '', #323, #322, #339, .T. );
#293 = FILL_AREA_STYLE( '', ( #340 ) );
#294 = EDGE_CURVE( '', #341, #327, #342, .F. );
#295 = EDGE_CURVE( '', #343, #341, #344, .T. );
#296 = EDGE_CURVE( '', #325, #343, #345, .T. );
#297 = FILL_AREA_STYLE( '', ( #346 ) );
#298 = EDGE_CURVE( '', #347, #347, #348, .T. );
#299 = FILL_AREA_STYLE( '', ( #349 ) );
#300 = EDGE_CURVE( '', #350, #351, #352, .T. );
#301 = EDGE_CURVE( '', #351, #353, #354, .T. );
#302 = EDGE_CURVE( '', #341, #353, #355, .T. );
#303 = EDGE_CURVE( '', #356, #343, #357, .T. );
#304 = EDGE_CURVE( '', #356, #350, #358, .F. );
#305 = FILL_AREA_STYLE( '', ( #359 ) );
#306 = CARTESIAN_POINT( '', ( 50.0000000000000, 2.34644396473194E-14, 0.000000000000000 ) );
#307 = FILL_AREA_STYLE( '', ( #360 ) );
#308 = EDGE_CURVE( '', #350, #334, #361, .T. );
#309 = EDGE_CURVE( '', #353, #356, #362, .T. );
#310 = EDGE_CURVE( '', #335, #351, #363, .T. );
#311 = FILL_AREA_STYLE( '', ( #364 ) );
#312 = FILL_AREA_STYLE( '', ( #365 ) );
#313 = FILL_AREA_STYLE_COLOUR( '', #366 );
#314 = VERTEX_POINT( '', #367 );
#315 = CIRCLE( '', #368, 4.00000000000000 );
#316 = VERTEX_POINT( '', #369 );
#317 = CIRCLE( '', #370, 4.00000000000000 );
#318 = FILL_AREA_STYLE_COLOUR( '', #371 );
#319 = VERTEX_POINT( '', #372 );
#320 = CIRCLE( '', #373, 3.60000000000000 );
#321 = FILL_AREA_STYLE_COLOUR( '', #374 );
#322 = VERTEX_POINT( '', #375 );
#323 = VERTEX_POINT( '', #376 );
#324 = CIRCLE( '', #377, 4.08000000000000 );
#325 = VERTEX_POINT( '', #378 );
#326 = B_SPLINE_CURVE_WITH_KNOTS( '', 3, ( #379, #380, #381, #382 ), .UNSPECIFIED., .F., .F., ( 4, 4 ), ( 0.0201757967681981, 0.0214894077203397 ), .UNSPECIFIED. );
#327 = VERTEX_POINT( '', #383 );
#328 = CIRCLE( '', #384, 5.00000000000000 );
#329 = B_SPLINE_CURVE_WITH_KNOTS( '', 3, ( #385, #386, #387, #388 ), .UNSPECIFIED., .F., .F., ( 4, 4 ), ( 0.00855302721908261, 0.00986748988713592 ), .UNSPECIFIED. );
#330 = FILL_AREA_STYLE_COLOUR( '', #389 );
#331 = VERTEX_POINT( '', #390 );
#332 = CIRCLE( '', #391, 3.60000000000000 );
#333 = FILL_AREA_STYLE_COLOUR( '', #392 );
#334 = VERTEX_POINT( '', #393 );
#335 = VERTEX_POINT( '', #394 );
#336 = CIRCLE( '', #395, 4.08000000000000 );
#337 = LINE( '', #396, #397 );
#338 = FILL_AREA_STYLE_COLOUR( '', #398 );
#339 = LINE( '', #399, #400 );
#340 = FILL_AREA_STYLE_COLOUR( '', #401 );
#341 = VERTEX_POINT( '', #402 );
#342 = LINE( '', #403, #404 );
#343 = VERTEX_POINT( '', #405 );
#344 = LINE( '', #406, #407 );
#345 = LINE( '', #408, #409 );
#346 = FILL_AREA_STYLE_COLOUR( '', #410 );
#347 = VERTEX_POINT( '', #411 );
#348 = CIRCLE( '', #412, 5.00000000000000 );
#349 = FILL_AREA_STYLE_COLOUR( '', #413 );
#350 = VERTEX_POINT( '', #414 );
#351 = VERTEX_POINT( '', #415 );
#352 = CIRCLE( '', #416, 5.00000000000000 );
#353 = VERTEX_POINT( '', #417 );
#354 = LINE( '', #418, #419 );
#355 = CIRCLE( '', #420, 5.00000000000000 );
#356 = VERTEX_POINT( '', #421 );
#357 = CIRCLE( '', #422, 5.00000000000000 );
#358 = LINE( '', #423, #424 );
#359 = FILL_AREA_STYLE_COLOUR( '', #425 );
#360 = FILL_AREA_STYLE_COLOUR( '', #426 );
#361 = B_SPLINE_CURVE_WITH_KNOTS( '', 3, ( #427, #428, #429, #430 ), .UNSPECIFIED., .F., .F., ( 4, 4 ), ( 0.00855302721908261, 0.00986748988713592 ), .UNSPECIFIED. );
#362 = LINE( '', #431, #432 );
#363 = B_SPLINE_CURVE_WITH_KNOTS( '', 3, ( #433, #434, #435, #436 ), .UNSPECIFIED., .F., .F., ( 4, 4 ), ( 0.0201757967681981, 0.0214894077203397 ), .UNSPECIFIED. );
#364 = FILL_AREA_STYLE_COLOUR( '', #437 );
#365 = FILL_AREA_STYLE_COLOUR( '', #438 );
#366 = COLOUR_RGB( '', 0.689999997600000, 0.689999997600000, 0.689999997600000 );
#367 = CARTESIAN_POINT( '', ( 48.6773037637589, 4.00000000000000, 0.000000000000000 ) );
#368 = AXIS2_PLACEMENT_3D( '', #439, #440, #441 );
#369 = CARTESIAN_POINT( '', ( 45.5000000000000, 4.00000000000000, 0.000000000000000 ) );
#370 = AXIS2_PLACEMENT_3D( '', #442, #443, #444 );
#371 = COLOUR_RGB( '', 0.689999997600000, 0.689999997600000, 0.689999997600000 );
#372 = CARTESIAN_POINT( '', ( 45.5000000000000, 3.60000000000000, 0.000000000000000 ) );
#373 = AXIS2_PLACEMENT_3D( '', #445, #446, #447 );
#374 = COLOUR_RGB( '', 0.689999997600000, 0.689999997600000, 0.689999997600000 );
#375 = CARTESIAN_POINT( '', ( 0.000000000000000, 0.900000000000005, -3.97949745570970 ) );
#376 = CARTESIAN_POINT( '', ( 0.000000000000000, 0.900000000000005, 3.97949745570970 ) );
#377 = AXIS2_PLACEMENT_3D( '', #448, #449, #450 );
#378 = CARTESIAN_POINT( '', ( 0.920000000000004, 0.900000000000008, 4.91833305094317 ) );
#379 = CARTESIAN_POINT( '', ( 4.51898925834030E-16, 0.900000000000005, 3.97949745570970 ) );
#380 = CARTESIAN_POINT( '', ( 0.305938770650471, 0.900000000000005, 4.29316273584777 ) );
#381 = CARTESIAN_POINT( '', ( 0.612741841782415, 0.900000000000005, 4.60597299415660 ) );
#382 = CARTESIAN_POINT( '', ( 0.920000000000001, 0.900000000000005, 4.91833305094318 ) );
#383 = CARTESIAN_POINT( '', ( 0.920000000000004, 0.900000000000008, -4.91833305094317 ) );
#384 = AXIS2_PLACEMENT_3D( '', #451, #452, #453 );
#385 = CARTESIAN_POINT( '', ( 0.919999999999999, 0.900000000000005, -4.91833305094318 ) );
#386 = CARTESIAN_POINT( '', ( 0.612739261072119, 0.900000000000005, -4.60597037059464 ) );
#387 = CARTESIAN_POINT( '', ( 0.305935608496525, 0.900000000000005, -4.29315949383336 ) );
#388 = CARTESIAN_POINT( '', ( -4.19450492442836E-16, 0.900000000000005, -3.97949745570970 ) );
#389 = COLOUR_RGB( '', 0.689999997600000, 0.689999997600000, 0.689999997600000 );
#390 = CARTESIAN_POINT( '', ( 41.8660700000000, 3.60000000000000, 0.000000000000000 ) );
#391 = AXIS2_PLACEMENT_3D( '', #454, #455, #456 );
#392 = COLOUR_RGB( '', 0.689999997600000, 0.689999997600000, 0.689999997600000 );
#393 = CARTESIAN_POINT( '', ( 0.000000000000000, -0.899999999999995, 3.97949745570970 ) );
#394 = CARTESIAN_POINT( '', ( 0.000000000000000, -0.899999999999995, -3.97949745570970 ) );
#395 = AXIS2_PLACEMENT_3D( '', #457, #458, #459 );
#396 = CARTESIAN_POINT( '', ( 0.000000000000000, -0.899999999999995, -10.5000000000000 ) );
#397 = VECTOR( '', #460, 1000.00000000000 );
#398 = COLOUR_RGB( '', 0.689999997600000, 0.689999997600000, 0.689999997600000 );
#399 = CARTESIAN_POINT( '', ( 0.000000000000000, 0.900000000000005, 10.5000000000000 ) );
#400 = VECTOR( '', #461, 1000.00000000000 );
#401 = COLOUR_RGB( '', 0.689999997600000, 0.689999997600000, 0.689999997600000 );
#402 = CARTESIAN_POINT( '', ( 3.00000000000000, 0.900000000000005, -4.91833305094317 ) );
#403 = CARTESIAN_POINT( '', ( 50.0000000000000, 0.900000000000005, -4.91833305094317 ) );
#404 = VECTOR( '', #462, 1000.00000000000 );
#405 = CARTESIAN_POINT( '', ( 3.00000000000000, 0.900000000000005, 4.91833305094317 ) );
#406 = CARTESIAN_POINT( '', ( 3.00000000000000, 0.900000000000005, 10.5000000000000 ) );
#407 = VECTOR( '', #463, 1000.00000000000 );
#408 = CARTESIAN_POINT( '', ( 50.0000000000000, 0.900000000000005, 4.91833305094317 ) );
#409 = VECTOR( '', #464, 1000.00000000000 );
#410 = COLOUR_RGB( '', 0.689999997600000, 0.689999997600000, 0.689999997600000 );
#411 = CARTESIAN_POINT( '', ( 41.0000000000000, 5.00000000000000, 0.000000000000000 ) );
#412 = AXIS2_PLACEMENT_3D( '', #465, #466, #467 );
#413 = COLOUR_RGB( '', 0.689999997600000, 0.689999997600000, 0.689999997600000 );
#414 = CARTESIAN_POINT( '', ( 0.920000000000004, -0.899999999999992, 4.91833305094317 ) );
#415 = CARTESIAN_POINT( '', ( 0.920000000000004, -0.899999999999992, -4.91833305094317 ) );
#416 = AXIS2_PLACEMENT_3D( '', #468, #469, #470 );
#417 = CARTESIAN_POINT( '', ( 3.00000000000000, -0.899999999999995, -4.91833305094317 ) );
#418 = CARTESIAN_POINT( '', ( 50.0000000000000, -0.899999999999995, -4.91833305094317 ) );
#419 = VECTOR( '', #471, 1000.00000000000 );
#420 = AXIS2_PLACEMENT_3D( '', #472, #473, #474 );
#421 = CARTESIAN_POINT( '', ( 3.00000000000000, -0.899999999999995, 4.91833305094317 ) );
#422 = AXIS2_PLACEMENT_3D( '', #475, #476, #477 );
#423 = CARTESIAN_POINT( '', ( 50.0000000000000, -0.899999999999995, 4.91833305094317 ) );
#424 = VECTOR( '', #478, 1000.00000000000 );
#425 = COLOUR_RGB( '', 0.689999997600000, 0.689999997600000, 0.689999997600000 );
#426 = COLOUR_RGB( '', 0.689999997600000, 0.689999997600000, 0.689999997600000 );
#427 = CARTESIAN_POINT( '', ( 0.920000000000000, -0.899999999999995, 4.91833305094318 ) );
#428 = CARTESIAN_POINT( '', ( 0.612739261072119, -0.899999999999995, 4.60597037059464 ) );
#429 = CARTESIAN_POINT( '', ( 0.305935608496526, -0.899999999999995, 4.29315949383336 ) );
#430 = CARTESIAN_POINT( '', ( 8.32824344662668E-16, -0.899999999999995, 3.97949745570970 ) );
#431 = CARTESIAN_POINT( '', ( 3.00000000000000, -0.899999999999995, -10.5000000000000 ) );
#432 = VECTOR( '', #479, 1000.00000000000 );
#433 = CARTESIAN_POINT( '', ( -2.97160596091840E-17, -0.899999999999995, -3.97949745570970 ) );
#434 = CARTESIAN_POINT( '', ( 0.305938770650470, -0.899999999999995, -4.29316273584777 ) );
#435 = CARTESIAN_POINT( '', ( 0.612741841782415, -0.899999999999995, -4.60597299415660 ) );
#436 = CARTESIAN_POINT( '', ( 0.920000000000001, -0.899999999999995, -4.91833305094318 ) );
#437 = COLOUR_RGB( '', 0.689999997600000, 0.689999997600000, 0.689999997600000 );
#438 = COLOUR_RGB( '', 0.689999997600000, 0.689999997600000, 0.689999997600000 );
#439 = CARTESIAN_POINT( '', ( 48.6773037637589, 1.85734862499809E-15, 0.000000000000000 ) );
#440 = DIRECTION( '', ( 1.00000000000000, -6.12323399573676E-17, -0.000000000000000 ) );
#441 = DIRECTION( '', ( 6.12323399573676E-17, 1.00000000000000, 0.000000000000000 ) );
#442 = CARTESIAN_POINT( '', ( 45.5000000000000, 2.05190236920840E-15, 0.000000000000000 ) );
#443 = DIRECTION( '', ( 1.00000000000000, -6.12323399573676E-17, -0.000000000000000 ) );
#444 = DIRECTION( '', ( 6.12323399573676E-17, 1.00000000000000, 0.000000000000000 ) );
#445 = CARTESIAN_POINT( '', ( 45.5000000000000, 2.05190236920840E-15, 0.000000000000000 ) );
#446 = DIRECTION( '', ( 1.00000000000000, -6.12323399573676E-17, -0.000000000000000 ) );
#447 = DIRECTION( '', ( 6.12323399573676E-17, 1.00000000000000, 0.000000000000000 ) );
#448 = CARTESIAN_POINT( '', ( 0.000000000000000, 4.83797383726863E-15, 0.000000000000000 ) );
#449 = DIRECTION( '', ( 1.00000000000000, -6.12323399573676E-17, -0.000000000000000 ) );
#450 = DIRECTION( '', ( 6.12323399573676E-17, 1.00000000000000, 0.000000000000000 ) );
#451 = CARTESIAN_POINT( '', ( 0.919999999999997, 4.78164008450786E-15, 0.000000000000000 ) );
#452 = DIRECTION( '', ( 1.00000000000000, -6.12323399573676E-17, -0.000000000000000 ) );
#453 = DIRECTION( '', ( 6.12323399573676E-17, 1.00000000000000, 0.000000000000000 ) );
#454 = CARTESIAN_POINT( '', ( 41.8660700000000, 2.27441640634968E-15, 0.000000000000000 ) );
#455 = DIRECTION( '', ( 1.00000000000000, -6.12323399573676E-17, -0.000000000000000 ) );
#456 = DIRECTION( '', ( 6.12323399573676E-17, 1.00000000000000, 0.000000000000000 ) );
#457 = CARTESIAN_POINT( '', ( 0.000000000000000, 4.83797383726863E-15, 0.000000000000000 ) );
#458 = DIRECTION( '', ( 1.00000000000000, -6.12323399573676E-17, -0.000000000000000 ) );
#459 = DIRECTION( '', ( 6.12323399573676E-17, 1.00000000000000, 0.000000000000000 ) );
#460 = DIRECTION( '', ( 0.000000000000000, 0.000000000000000, 1.00000000000000 ) );
#461 = DIRECTION( '', ( 0.000000000000000, 0.000000000000000, -1.00000000000000 ) );
#462 = DIRECTION( '', ( 1.00000000000000, -6.12323399573676E-17, -0.000000000000000 ) );
#463 = DIRECTION( '', ( 0.000000000000000, 0.000000000000000, -1.00000000000000 ) );
#464 = DIRECTION( '', ( 1.00000000000000, -6.12323399573676E-17, -0.000000000000000 ) );
#465 = CARTESIAN_POINT( '', ( 41.0000000000000, 2.32744789901656E-15, 0.000000000000000 ) );
#466 = DIRECTION( '', ( 1.00000000000000, -6.12323399573676E-17, -0.000000000000000 ) );
#467 = DIRECTION( '', ( 6.12323399573676E-17, 1.00000000000000, 0.000000000000000 ) );
#468 = CARTESIAN_POINT( '', ( 0.919999999999997, 4.78164008450786E-15, 0.000000000000000 ) );
#469 = DIRECTION( '', ( 1.00000000000000, -6.12323399573676E-17, -0.000000000000000 ) );
#470 = DIRECTION( '', ( 6.12323399573676E-17, 1.00000000000000, 0.000000000000000 ) );
#471 = DIRECTION( '', ( 1.00000000000000, -6.12323399573676E-17, -0.000000000000000 ) );
#472 = CARTESIAN_POINT( '', ( 3.00000000000000, 4.65427681739653E-15, 0.000000000000000 ) );
#473 = DIRECTION( '', ( -1.00000000000000, 0.000000000000000, 0.000000000000000 ) );
#474 = DIRECTION( '', ( 0.000000000000000, 0.000000000000000, 1.00000000000000 ) );
#475 = CARTESIAN_POINT( '', ( 3.00000000000000, 4.65427681739653E-15, 0.000000000000000 ) );
#476 = DIRECTION( '', ( -1.00000000000000, 0.000000000000000, 0.000000000000000 ) );
#477 = DIRECTION( '', ( 0.000000000000000, 0.000000000000000, 1.00000000000000 ) );
#478 = DIRECTION( '', ( 1.00000000000000, -6.12323399573676E-17, -0.000000000000000 ) );
#479 = DIRECTION( '', ( 0.000000000000000, 0.000000000000000, 1.00000000000000 ) );
ENDSEC;
END-ISO-10303-21;
