ISO-10303-21;
HEADER;
FILE_DESCRIPTION( ( 'STEP AP214' ), '1' );
FILE_NAME( '//goodhand-server/Shared Folders/GoodHand Data/Kipp CAD/K0390/K0390.16X80.stp', '2020-12-07T10:14:56', ( '' ), ( '' ), ' ', 'PARTsolutions', ' ' );
FILE_SCHEMA( ( 'AUTOMOTIVE_DESIGN { 1 0 10303 214 1 1 1 1 }' ) );
ENDSEC;
DATA;
#1 = MECHANICAL_DESIGN_GEOMETRIC_PRESENTATION_REPRESENTATION( ' ', ( #10, #11, #12, #13, #14, #15, #16, #17, #18, #19, #20, #21, #22 ), #6 );
#2 = PRODUCT_DEFINITION_CONTEXT( '', #23, 'design' );
#3 = APPLICATION_PROTOCOL_DEFINITION( 'international standard', 'automotive_design', 2001, #23 );
#4 = PRODUCT_CATEGORY_RELATIONSHIP( 'NONE', 'NONE', #24, #25 );
#5 = SHAPE_DEFINITION_REPRESENTATION( #26, #27 );
#6 =  ( GEOMETRIC_REPRESENTATION_CONTEXT( 3 )GLOBAL_UNCERTAINTY_ASSIGNED_CONTEXT( ( #30 ) )GLOBAL_UNIT_ASSIGNED_CONTEXT( ( #32, #33, #34 ) )REPRESENTATION_CONTEXT( 'NONE', 'WORKSPACE' ) );
#10 = STYLED_ITEM( '', ( #36 ), #37 );
#11 = STYLED_ITEM( '', ( #38 ), #39 );
#12 = STYLED_ITEM( '', ( #40 ), #41 );
#13 = STYLED_ITEM( '', ( #42 ), #43 );
#14 = STYLED_ITEM( '', ( #44 ), #45 );
#15 = STYLED_ITEM( '', ( #46 ), #47 );
#16 = STYLED_ITEM( '', ( #48 ), #49 );
#17 = STYLED_ITEM( '', ( #50 ), #51 );
#18 = STYLED_ITEM( '', ( #52 ), #53 );
#19 = STYLED_ITEM( '', ( #54 ), #55 );
#20 = STYLED_ITEM( '', ( #56 ), #57 );
#21 = STYLED_ITEM( '', ( #58 ), #59 );
#22 = STYLED_ITEM( '', ( #60 ), #61 );
#23 = APPLICATION_CONTEXT( 'core data for automotive mechanical design processes' );
#24 = PRODUCT_CATEGORY( 'part', 'NONE' );
#25 = PRODUCT_RELATED_PRODUCT_CATEGORY( 'detail', ' ', ( #62 ) );
#26 = PRODUCT_DEFINITION_SHAPE( 'NONE', 'NONE', #63 );
#27 = ADVANCED_BREP_SHAPE_REPRESENTATION( '_K0390.16X80', ( #64, #65 ), #6 );
#30 = UNCERTAINTY_MEASURE_WITH_UNIT( LENGTH_MEASURE( 0.00100000000000000 ), #32, '', '' );
#32 =  ( CONVERSION_BASED_UNIT( 'MILLIMETRE', #68 )LENGTH_UNIT(  )NAMED_UNIT( #71 ) );
#33 =  ( NAMED_UNIT( #73 )PLANE_ANGLE_UNIT(  )SI_UNIT( $, .RADIAN. ) );
#34 =  ( NAMED_UNIT( #73 )SI_UNIT( $, .STERADIAN. )SOLID_ANGLE_UNIT(  ) );
#36 = PRESENTATION_STYLE_ASSIGNMENT( ( #79 ) );
#37 = ADVANCED_FACE( '', ( #80 ), #81, .F. );
#38 = PRESENTATION_STYLE_ASSIGNMENT( ( #82 ) );
#39 = ADVANCED_FACE( '', ( #83 ), #84, .F. );
#40 = PRESENTATION_STYLE_ASSIGNMENT( ( #85 ) );
#41 = ADVANCED_FACE( '', ( #86 ), #87, .F. );
#42 = PRESENTATION_STYLE_ASSIGNMENT( ( #88 ) );
#43 = ADVANCED_FACE( '', ( #89, #90 ), #91, .T. );
#44 = PRESENTATION_STYLE_ASSIGNMENT( ( #92 ) );
#45 = ADVANCED_FACE( '', ( #93, #94 ), #95, .F. );
#46 = PRESENTATION_STYLE_ASSIGNMENT( ( #96 ) );
#47 = ADVANCED_FACE( '', ( #97 ), #98, .T. );
#48 = PRESENTATION_STYLE_ASSIGNMENT( ( #99 ) );
#49 = ADVANCED_FACE( '', ( #100, #101 ), #102, .T. );
#50 = PRESENTATION_STYLE_ASSIGNMENT( ( #103 ) );
#51 = ADVANCED_FACE( '', ( #104 ), #105, .F. );
#52 = PRESENTATION_STYLE_ASSIGNMENT( ( #106 ) );
#53 = ADVANCED_FACE( '', ( #107 ), #108, .T. );
#54 = PRESENTATION_STYLE_ASSIGNMENT( ( #109 ) );
#55 = ADVANCED_FACE( '', ( #110, #111 ), #112, .T. );
#56 = PRESENTATION_STYLE_ASSIGNMENT( ( #113 ) );
#57 = ADVANCED_FACE( '', ( #114 ), #115, .T. );
#58 = PRESENTATION_STYLE_ASSIGNMENT( ( #116 ) );
#59 = ADVANCED_FACE( '', ( #117, #118 ), #119, .T. );
#60 = PRESENTATION_STYLE_ASSIGNMENT( ( #120 ) );
#61 = ADVANCED_FACE( '', ( #121, #122 ), #123, .T. );
#62 = PRODUCT( '_K0390.16X80', '_K0390.16X80', 'PART-_K0390.16X80-DESC', ( #124 ) );
#63 = PRODUCT_DEFINITION( 'NONE', 'NONE', #125, #2 );
#64 = MANIFOLD_SOLID_BREP( '_K0390.16X80', #126 );
#65 = AXIS2_PLACEMENT_3D( '', #127, #128, #129 );
#68 = LENGTH_MEASURE_WITH_UNIT( LENGTH_MEASURE( 1.00000000000000 ), #130 );
#71 = DIMENSIONAL_EXPONENTS( 1.00000000000000, 0.000000000000000, 0.000000000000000, 0.000000000000000, 0.000000000000000, 0.000000000000000, 0.000000000000000 );
#73 = DIMENSIONAL_EXPONENTS( 0.000000000000000, 0.000000000000000, 0.000000000000000, 0.000000000000000, 0.000000000000000, 0.000000000000000, 0.000000000000000 );
#79 = SURFACE_STYLE_USAGE( .BOTH., #131 );
#80 = FACE_OUTER_BOUND( '', #132, .T. );
#81 = PLANE( '', #133 );
#82 = SURFACE_STYLE_USAGE( .BOTH., #134 );
#83 = FACE_OUTER_BOUND( '', #135, .T. );
#84 = PLANE( '', #136 );
#85 = SURFACE_STYLE_USAGE( .BOTH., #137 );
#86 = FACE_OUTER_BOUND( '', #138, .T. );
#87 = PLANE( '', #139 );
#88 = SURFACE_STYLE_USAGE( .BOTH., #140 );
#89 = FACE_OUTER_BOUND( '', #141, .T. );
#90 = FACE_OUTER_BOUND( '', #142, .T. );
#91 = CYLINDRICAL_SURFACE( '', #143, 6.00000000000000 );
#92 = SURFACE_STYLE_USAGE( .BOTH., #144 );
#93 = FACE_OUTER_BOUND( '', #145, .T. );
#94 = FACE_BOUND( '', #146, .T. );
#95 = PLANE( '', #147 );
#96 = SURFACE_STYLE_USAGE( .BOTH., #148 );
#97 = FACE_OUTER_BOUND( '', #149, .T. );
#98 = CONICAL_SURFACE( '', #150, 6.77300000000000, 0.785398163400000 );
#99 = SURFACE_STYLE_USAGE( .BOTH., #151 );
#100 = FACE_OUTER_BOUND( '', #152, .T. );
#101 = FACE_OUTER_BOUND( '', #153, .T. );
#102 = CYLINDRICAL_SURFACE( '', #154, 5.50000000000000 );
#103 = SURFACE_STYLE_USAGE( .BOTH., #155 );
#104 = FACE_OUTER_BOUND( '', #156, .T. );
#105 = PLANE( '', #157 );
#106 = SURFACE_STYLE_USAGE( .BOTH., #158 );
#107 = FACE_OUTER_BOUND( '', #159, .T. );
#108 = CONICAL_SURFACE( '', #160, 6.77300000000000, 0.785398163400000 );
#109 = SURFACE_STYLE_USAGE( .BOTH., #161 );
#110 = FACE_BOUND( '', #162, .T. );
#111 = FACE_OUTER_BOUND( '', #163, .T. );
#112 = CONICAL_SURFACE( '', #164, 8.00000000000000, 1.13808724680000 );
#113 = SURFACE_STYLE_USAGE( .BOTH., #165 );
#114 = FACE_OUTER_BOUND( '', #166, .T. );
#115 = PLANE( '', #167 );
#116 = SURFACE_STYLE_USAGE( .BOTH., #168 );
#117 = FACE_OUTER_BOUND( '', #169, .T. );
#118 = FACE_OUTER_BOUND( '', #170, .T. );
#119 = CYLINDRICAL_SURFACE( '', #171, 8.00000000000000 );
#120 = SURFACE_STYLE_USAGE( .BOTH., #172 );
#121 = FACE_BOUND( '', #173, .T. );
#122 = FACE_OUTER_BOUND( '', #174, .T. );
#123 = SPHERICAL_SURFACE( '', #175, 10.0644000000000 );
#124 = PRODUCT_CONTEXT( '', #23, 'mechanical' );
#125 = PRODUCT_DEFINITION_FORMATION_WITH_SPECIFIED_SOURCE( ' ', 'NONE', #62, .NOT_KNOWN. );
#126 = CLOSED_SHELL( '', ( #39, #41, #61, #43, #45, #49, #55, #59, #47, #51, #53, #37, #57 ) );
#127 = CARTESIAN_POINT( '', ( 0.000000000000000, 0.000000000000000, 0.000000000000000 ) );
#128 = DIRECTION( '', ( 0.000000000000000, 0.000000000000000, 1.00000000000000 ) );
#129 = DIRECTION( '', ( 1.00000000000000, 0.000000000000000, 0.000000000000000 ) );
#130 =  ( LENGTH_UNIT(  )NAMED_UNIT( #71 )SI_UNIT( .MILLI., .METRE. ) );
#131 = SURFACE_SIDE_STYLE( '', ( #177 ) );
#132 = EDGE_LOOP( '', ( #178, #179 ) );
#133 = AXIS2_PLACEMENT_3D( '', #180, #181, #182 );
#134 = SURFACE_SIDE_STYLE( '', ( #183 ) );
#135 = EDGE_LOOP( '', ( #184, #185, #186, #187, #188, #189 ) );
#136 = AXIS2_PLACEMENT_3D( '', #190, #191, #192 );
#137 = SURFACE_SIDE_STYLE( '', ( #193 ) );
#138 = EDGE_LOOP( '', ( #194, #195, #196, #197, #198, #199 ) );
#139 = AXIS2_PLACEMENT_3D( '', #200, #201, #202 );
#140 = SURFACE_SIDE_STYLE( '', ( #203 ) );
#141 = EDGE_LOOP( '', ( #204 ) );
#142 = EDGE_LOOP( '', ( #205 ) );
#143 = AXIS2_PLACEMENT_3D( '', #206, #207, #208 );
#144 = SURFACE_SIDE_STYLE( '', ( #209 ) );
#145 = EDGE_LOOP( '', ( #210 ) );
#146 = EDGE_LOOP( '', ( #211 ) );
#147 = AXIS2_PLACEMENT_3D( '', #212, #213, #214 );
#148 = SURFACE_SIDE_STYLE( '', ( #215 ) );
#149 = EDGE_LOOP( '', ( #216, #217, #218, #219 ) );
#150 = AXIS2_PLACEMENT_3D( '', #220, #221, #222 );
#151 = SURFACE_SIDE_STYLE( '', ( #223 ) );
#152 = EDGE_LOOP( '', ( #224 ) );
#153 = EDGE_LOOP( '', ( #225 ) );
#154 = AXIS2_PLACEMENT_3D( '', #226, #227, #228 );
#155 = SURFACE_SIDE_STYLE( '', ( #229 ) );
#156 = EDGE_LOOP( '', ( #230, #231 ) );
#157 = AXIS2_PLACEMENT_3D( '', #232, #233, #234 );
#158 = SURFACE_SIDE_STYLE( '', ( #235 ) );
#159 = EDGE_LOOP( '', ( #236, #237, #238, #239 ) );
#160 = AXIS2_PLACEMENT_3D( '', #240, #241, #242 );
#161 = SURFACE_SIDE_STYLE( '', ( #243 ) );
#162 = EDGE_LOOP( '', ( #244 ) );
#163 = EDGE_LOOP( '', ( #245 ) );
#164 = AXIS2_PLACEMENT_3D( '', #246, #247, #248 );
#165 = SURFACE_SIDE_STYLE( '', ( #249 ) );
#166 = EDGE_LOOP( '', ( #250, #251, #252, #253 ) );
#167 = AXIS2_PLACEMENT_3D( '', #254, #255, #256 );
#168 = SURFACE_SIDE_STYLE( '', ( #257 ) );
#169 = EDGE_LOOP( '', ( #258 ) );
#170 = EDGE_LOOP( '', ( #259, #260, #261, #262, #263, #264, #265, #266 ) );
#171 = AXIS2_PLACEMENT_3D( '', #267, #268, #269 );
#172 = SURFACE_SIDE_STYLE( '', ( #270 ) );
#173 = VERTEX_LOOP( '', #271 );
#174 = EDGE_LOOP( '', ( #272 ) );
#175 = AXIS2_PLACEMENT_3D( '', #273, #274, #275 );
#177 = SURFACE_STYLE_FILL_AREA( #276 );
#178 = ORIENTED_EDGE( '', *, *, #277, .F. );
#179 = ORIENTED_EDGE( '', *, *, #278, .F. );
#180 = CARTESIAN_POINT( '', ( -2.07363319265626E-16, 1.20040145541904E-14, 0.000000000000000 ) );
#181 = DIRECTION( '', ( 1.00000000000000, -6.12323399573677E-17, -0.000000000000000 ) );
#182 = DIRECTION( '', ( 6.12323399573677E-17, 1.00000000000000, 0.000000000000000 ) );
#183 = SURFACE_STYLE_FILL_AREA( #279 );
#184 = ORIENTED_EDGE( '', *, *, #280, .F. );
#185 = ORIENTED_EDGE( '', *, *, #278, .T. );
#186 = ORIENTED_EDGE( '', *, *, #281, .F. );
#187 = ORIENTED_EDGE( '', *, *, #282, .F. );
#188 = ORIENTED_EDGE( '', *, *, #283, .F. );
#189 = ORIENTED_EDGE( '', *, *, #284, .F. );
#190 = CARTESIAN_POINT( '', ( 3.00000000000000, 0.900000000000012, 10.5000000000000 ) );
#191 = DIRECTION( '', ( 0.000000000000000, 1.00000000000000, 0.000000000000000 ) );
#192 = DIRECTION( '', ( 0.000000000000000, -0.000000000000000, 1.00000000000000 ) );
#193 = SURFACE_STYLE_FILL_AREA( #285 );
#194 = ORIENTED_EDGE( '', *, *, #286, .T. );
#195 = ORIENTED_EDGE( '', *, *, #287, .F. );
#196 = ORIENTED_EDGE( '', *, *, #288, .F. );
#197 = ORIENTED_EDGE( '', *, *, #289, .F. );
#198 = ORIENTED_EDGE( '', *, *, #290, .F. );
#199 = ORIENTED_EDGE( '', *, *, #291, .F. );
#200 = CARTESIAN_POINT( '', ( 3.00000000000000, -0.899999999999988, -10.5000000000000 ) );
#201 = DIRECTION( '', ( 0.000000000000000, -1.00000000000000, 0.000000000000000 ) );
#202 = DIRECTION( '', ( 0.000000000000000, 0.000000000000000, -1.00000000000000 ) );
#203 = SURFACE_STYLE_FILL_AREA( #292 );
#204 = ORIENTED_EDGE( '', *, *, #293, .F. );
#205 = ORIENTED_EDGE( '', *, *, #294, .T. );
#206 = CARTESIAN_POINT( '', ( 80.0000000000000, 7.10542735760100E-15, 0.000000000000000 ) );
#207 = DIRECTION( '', ( -1.00000000000000, 6.12323399573677E-17, 0.000000000000000 ) );
#208 = DIRECTION( '', ( 6.12323399573677E-17, 1.00000000000000, 0.000000000000000 ) );
#209 = SURFACE_STYLE_FILL_AREA( #295 );
#210 = ORIENTED_EDGE( '', *, *, #294, .F. );
#211 = ORIENTED_EDGE( '', *, *, #296, .T. );
#212 = CARTESIAN_POINT( '', ( 75.0000000000000, 5.50000000000001, 0.000000000000000 ) );
#213 = DIRECTION( '', ( 1.00000000000000, -6.12323399573677E-17, -0.000000000000000 ) );
#214 = DIRECTION( '', ( 6.12323399573677E-17, 1.00000000000000, 0.000000000000000 ) );
#215 = SURFACE_STYLE_FILL_AREA( #297 );
#216 = ORIENTED_EDGE( '', *, *, #277, .T. );
#217 = ORIENTED_EDGE( '', *, *, #280, .T. );
#218 = ORIENTED_EDGE( '', *, *, #298, .F. );
#219 = ORIENTED_EDGE( '', *, *, #281, .T. );
#220 = CARTESIAN_POINT( '', ( 0.000000000000000, 1.20040145541904E-14, 0.000000000000000 ) );
#221 = DIRECTION( '', ( 1.00000000000000, -6.12323399573677E-17, -0.000000000000000 ) );
#222 = DIRECTION( '', ( 6.12323399573677E-17, 1.00000000000000, 0.000000000000000 ) );
#223 = SURFACE_STYLE_FILL_AREA( #299 );
#224 = ORIENTED_EDGE( '', *, *, #296, .F. );
#225 = ORIENTED_EDGE( '', *, *, #300, .T. );
#226 = CARTESIAN_POINT( '', ( 80.0000000000000, 7.10542735760100E-15, 0.000000000000000 ) );
#227 = DIRECTION( '', ( -1.00000000000000, 6.12323399573676E-17, 0.000000000000000 ) );
#228 = DIRECTION( '', ( 6.12323399573677E-17, 1.00000000000000, 0.000000000000000 ) );
#229 = SURFACE_STYLE_FILL_AREA( #301 );
#230 = ORIENTED_EDGE( '', *, *, #302, .F. );
#231 = ORIENTED_EDGE( '', *, *, #286, .F. );
#232 = CARTESIAN_POINT( '', ( -2.07363319265626E-16, 1.20040145541904E-14, 0.000000000000000 ) );
#233 = DIRECTION( '', ( 1.00000000000000, -6.12323399573677E-17, -0.000000000000000 ) );
#234 = DIRECTION( '', ( 6.12323399573677E-17, 1.00000000000000, 0.000000000000000 ) );
#235 = SURFACE_STYLE_FILL_AREA( #303 );
#236 = ORIENTED_EDGE( '', *, *, #304, .F. );
#237 = ORIENTED_EDGE( '', *, *, #287, .T. );
#238 = ORIENTED_EDGE( '', *, *, #302, .T. );
#239 = ORIENTED_EDGE( '', *, *, #291, .T. );
#240 = CARTESIAN_POINT( '', ( 0.000000000000000, 1.20040145541904E-14, 0.000000000000000 ) );
#241 = DIRECTION( '', ( 1.00000000000000, -6.12323399573677E-17, -0.000000000000000 ) );
#242 = DIRECTION( '', ( 6.12323399573677E-17, 1.00000000000000, 0.000000000000000 ) );
#243 = SURFACE_STYLE_FILL_AREA( #305 );
#244 = ORIENTED_EDGE( '', *, *, #300, .F. );
#245 = ORIENTED_EDGE( '', *, *, #306, .T. );
#246 = CARTESIAN_POINT( '', ( 68.0000000000000, 7.84021543708942E-15, 0.000000000000000 ) );
#247 = DIRECTION( '', ( -1.00000000000000, 6.12323399573677E-17, -0.000000000000000 ) );
#248 = DIRECTION( '', ( -6.12323399573677E-17, -1.00000000000000, 0.000000000000000 ) );
#249 = SURFACE_STYLE_FILL_AREA( #307 );
#250 = ORIENTED_EDGE( '', *, *, #308, .T. );
#251 = ORIENTED_EDGE( '', *, *, #289, .T. );
#252 = ORIENTED_EDGE( '', *, *, #309, .T. );
#253 = ORIENTED_EDGE( '', *, *, #283, .T. );
#254 = CARTESIAN_POINT( '', ( 3.00000000000000, 0.000000000000000, 0.000000000000000 ) );
#255 = DIRECTION( '', ( -1.00000000000000, 0.000000000000000, 0.000000000000000 ) );
#256 = DIRECTION( '', ( 0.000000000000000, 0.000000000000000, 1.00000000000000 ) );
#257 = SURFACE_STYLE_FILL_AREA( #310 );
#258 = ORIENTED_EDGE( '', *, *, #306, .F. );
#259 = ORIENTED_EDGE( '', *, *, #304, .T. );
#260 = ORIENTED_EDGE( '', *, *, #290, .T. );
#261 = ORIENTED_EDGE( '', *, *, #308, .F. );
#262 = ORIENTED_EDGE( '', *, *, #282, .T. );
#263 = ORIENTED_EDGE( '', *, *, #298, .T. );
#264 = ORIENTED_EDGE( '', *, *, #284, .T. );
#265 = ORIENTED_EDGE( '', *, *, #309, .F. );
#266 = ORIENTED_EDGE( '', *, *, #288, .T. );
#267 = CARTESIAN_POINT( '', ( 80.0000000000000, 7.10542735760100E-15, 0.000000000000000 ) );
#268 = DIRECTION( '', ( -1.00000000000000, 6.12323399573677E-17, 0.000000000000000 ) );
#269 = DIRECTION( '', ( 6.12323399573677E-17, 1.00000000000000, 0.000000000000000 ) );
#270 = SURFACE_STYLE_FILL_AREA( #311 );
#271 = VERTEX_POINT( '', #312 );
#272 = ORIENTED_EDGE( '', *, *, #293, .T. );
#273 = CARTESIAN_POINT( '', ( 69.9356000000001, 5.81132364452230E-14, 0.000000000000000 ) );
#274 = DIRECTION( '', ( 1.00000000000000, 0.000000000000000, 0.000000000000000 ) );
#275 = DIRECTION( '', ( 0.000000000000000, -1.00000000000000, 0.000000000000000 ) );
#276 = FILL_AREA_STYLE( '', ( #313 ) );
#277 = EDGE_CURVE( '', #314, #315, #316, .T. );
#278 = EDGE_CURVE( '', #315, #314, #317, .T. );
#279 = FILL_AREA_STYLE( '', ( #318 ) );
#280 = EDGE_CURVE( '', #315, #319, #320, .T. );
#281 = EDGE_CURVE( '', #321, #314, #322, .T. );
#282 = EDGE_CURVE( '', #323, #321, #324, .F. );
#283 = EDGE_CURVE( '', #325, #323, #326, .T. );
#284 = EDGE_CURVE( '', #319, #325, #327, .T. );
#285 = FILL_AREA_STYLE( '', ( #328 ) );
#286 = EDGE_CURVE( '', #329, #330, #331, .T. );
#287 = EDGE_CURVE( '', #332, #330, #333, .T. );
#288 = EDGE_CURVE( '', #334, #332, #335, .F. );
#289 = EDGE_CURVE( '', #336, #334, #337, .T. );
#290 = EDGE_CURVE( '', #338, #336, #339, .T. );
#291 = EDGE_CURVE( '', #329, #338, #340, .T. );
#292 = FILL_AREA_STYLE( '', ( #341 ) );
#293 = EDGE_CURVE( '', #342, #342, #343, .T. );
#294 = EDGE_CURVE( '', #344, #344, #345, .T. );
#295 = FILL_AREA_STYLE( '', ( #346 ) );
#296 = EDGE_CURVE( '', #347, #347, #348, .T. );
#297 = FILL_AREA_STYLE( '', ( #349 ) );
#298 = EDGE_CURVE( '', #321, #319, #350, .T. );
#299 = FILL_AREA_STYLE( '', ( #351 ) );
#300 = EDGE_CURVE( '', #352, #352, #353, .T. );
#301 = FILL_AREA_STYLE( '', ( #354 ) );
#302 = EDGE_CURVE( '', #330, #329, #355, .T. );
#303 = FILL_AREA_STYLE( '', ( #356 ) );
#304 = EDGE_CURVE( '', #332, #338, #357, .T. );
#305 = FILL_AREA_STYLE( '', ( #358 ) );
#306 = EDGE_CURVE( '', #359, #359, #360, .T. );
#307 = FILL_AREA_STYLE( '', ( #361 ) );
#308 = EDGE_CURVE( '', #323, #336, #362, .T. );
#309 = EDGE_CURVE( '', #334, #325, #363, .T. );
#310 = FILL_AREA_STYLE( '', ( #364 ) );
#311 = FILL_AREA_STYLE( '', ( #365 ) );
#312 = CARTESIAN_POINT( '', ( 80.0000000000000, 5.68807029206892E-14, 0.000000000000000 ) );
#313 = FILL_AREA_STYLE_COLOUR( '', #366 );
#314 = VERTEX_POINT( '', #367 );
#315 = VERTEX_POINT( '', #368 );
#316 = CIRCLE( '', #369, 6.77300000000000 );
#317 = LINE( '', #370, #371 );
#318 = FILL_AREA_STYLE_COLOUR( '', #372 );
#319 = VERTEX_POINT( '', #373 );
#320 = B_SPLINE_CURVE_WITH_KNOTS( '', 3, ( #374, #375, #376, #377 ), .UNSPECIFIED., .F., .F., ( 4, 4 ), ( 0.0333752047769191, 0.0351188466568865 ), .UNSPECIFIED. );
#321 = VERTEX_POINT( '', #378 );
#322 = B_SPLINE_CURVE_WITH_KNOTS( '', 3, ( #379, #380, #381, #382 ), .UNSPECIFIED., .F., .F., ( 4, 4 ), ( 0.0136362270213629, 0.0153780387903499 ), .UNSPECIFIED. );
#323 = VERTEX_POINT( '', #383 );
#324 = LINE( '', #384, #385 );
#325 = VERTEX_POINT( '', #386 );
#326 = LINE( '', #387, #388 );
#327 = LINE( '', #389, #390 );
#328 = FILL_AREA_STYLE_COLOUR( '', #391 );
#329 = VERTEX_POINT( '', #392 );
#330 = VERTEX_POINT( '', #393 );
#331 = LINE( '', #394, #395 );
#332 = VERTEX_POINT( '', #396 );
#333 = B_SPLINE_CURVE_WITH_KNOTS( '', 3, ( #397, #398, #399, #400 ), .UNSPECIFIED., .F., .F., ( 4, 4 ), ( 0.0136362270213630, 0.0153780387903499 ), .UNSPECIFIED. );
#334 = VERTEX_POINT( '', #401 );
#335 = LINE( '', #402, #403 );
#336 = VERTEX_POINT( '', #404 );
#337 = LINE( '', #405, #406 );
#338 = VERTEX_POINT( '', #407 );
#339 = LINE( '', #408, #409 );
#340 = B_SPLINE_CURVE_WITH_KNOTS( '', 3, ( #410, #411, #412, #413 ), .UNSPECIFIED., .F., .F., ( 4, 4 ), ( 0.0333752047769191, 0.0351188466568865 ), .UNSPECIFIED. );
#341 = FILL_AREA_STYLE_COLOUR( '', #414 );
#342 = VERTEX_POINT( '', #415 );
#343 = CIRCLE( '', #416, 6.00000000000000 );
#344 = VERTEX_POINT( '', #417 );
#345 = CIRCLE( '', #418, 6.00000000000000 );
#346 = FILL_AREA_STYLE_COLOUR( '', #419 );
#347 = VERTEX_POINT( '', #420 );
#348 = CIRCLE( '', #421, 5.50000000000000 );
#349 = FILL_AREA_STYLE_COLOUR( '', #422 );
#350 = CIRCLE( '', #423, 8.00000000000000 );
#351 = FILL_AREA_STYLE_COLOUR( '', #424 );
#352 = VERTEX_POINT( '', #425 );
#353 = CIRCLE( '', #426, 5.50000000000000 );
#354 = FILL_AREA_STYLE_COLOUR( '', #427 );
#355 = CIRCLE( '', #428, 6.77300000000000 );
#356 = FILL_AREA_STYLE_COLOUR( '', #429 );
#357 = CIRCLE( '', #430, 8.00000000000000 );
#358 = FILL_AREA_STYLE_COLOUR( '', #431 );
#359 = VERTEX_POINT( '', #432 );
#360 = CIRCLE( '', #433, 8.00000000000000 );
#361 = FILL_AREA_STYLE_COLOUR( '', #434 );
#362 = CIRCLE( '', #435, 8.00000000000000 );
#363 = CIRCLE( '', #436, 8.00000000000000 );
#364 = FILL_AREA_STYLE_COLOUR( '', #437 );
#365 = FILL_AREA_STYLE_COLOUR( '', #438 );
#366 = COLOUR_RGB( '', 0.689999997600000, 0.689999997600000, 0.689999997600000 );
#367 = CARTESIAN_POINT( '', ( 0.000000000000000, 0.900000000000012, -6.71293743453639 ) );
#368 = CARTESIAN_POINT( '', ( 0.000000000000000, 0.900000000000012, 6.71293743453639 ) );
#369 = AXIS2_PLACEMENT_3D( '', #439, #440, #441 );
#370 = CARTESIAN_POINT( '', ( 0.000000000000000, 0.900000000000012, 10.5000000000000 ) );
#371 = VECTOR( '', #442, 1000.00000000000 );
#372 = COLOUR_RGB( '', 0.689999997600000, 0.689999997600000, 0.689999997600000 );
#373 = CARTESIAN_POINT( '', ( 1.22700000000001, 0.900000000000017, 7.94921379760288 ) );
#374 = CARTESIAN_POINT( '', ( -1.68258877320295E-15, 0.900000000000012, 6.71293743453639 ) );
#375 = CARTESIAN_POINT( '', ( 0.408715634480824, 0.900000000000012, 7.12530996434677 ) );
#376 = CARTESIAN_POINT( '', ( 0.817759551175687, 0.900000000000012, 7.53735877974164 ) );
#377 = CARTESIAN_POINT( '', ( 1.22700000000000, 0.900000000000012, 7.94921379760288 ) );
#378 = CARTESIAN_POINT( '', ( 1.22700000000001, 0.900000000000017, -7.94921379760288 ) );
#379 = CARTESIAN_POINT( '', ( 1.22700000000001, 0.900000000000012, -7.94921379760288 ) );
#380 = CARTESIAN_POINT( '', ( 0.817760310665019, 0.900000000000012, -7.53735954408323 ) );
#381 = CARTESIAN_POINT( '', ( 0.408716531538591, 0.900000000000012, -7.12531086943078 ) );
#382 = CARTESIAN_POINT( '', ( -2.12221623392727E-15, 0.900000000000012, -6.71293743453639 ) );
#383 = CARTESIAN_POINT( '', ( 3.00000000000000, 0.900000000000012, -7.94921379760288 ) );
#384 = CARTESIAN_POINT( '', ( 80.0000000000000, 0.900000000000012, -7.94921379760288 ) );
#385 = VECTOR( '', #443, 1000.00000000000 );
#386 = CARTESIAN_POINT( '', ( 3.00000000000000, 0.900000000000012, 7.94921379760288 ) );
#387 = CARTESIAN_POINT( '', ( 3.00000000000000, 0.900000000000012, 10.5000000000000 ) );
#388 = VECTOR( '', #444, 1000.00000000000 );
#389 = CARTESIAN_POINT( '', ( 80.0000000000000, 0.900000000000012, 7.94921379760288 ) );
#390 = VECTOR( '', #445, 1000.00000000000 );
#391 = COLOUR_RGB( '', 0.689999997600000, 0.689999997600000, 0.689999997600000 );
#392 = CARTESIAN_POINT( '', ( 0.000000000000000, -0.899999999999988, -6.71293743453639 ) );
#393 = CARTESIAN_POINT( '', ( 0.000000000000000, -0.899999999999988, 6.71293743453639 ) );
#394 = CARTESIAN_POINT( '', ( 0.000000000000000, -0.899999999999988, -10.5000000000000 ) );
#395 = VECTOR( '', #446, 1000.00000000000 );
#396 = CARTESIAN_POINT( '', ( 1.22700000000001, -0.899999999999983, 7.94921379760288 ) );
#397 = CARTESIAN_POINT( '', ( 1.22700000000000, -0.899999999999988, 7.94921379760288 ) );
#398 = CARTESIAN_POINT( '', ( 0.817760310665016, -0.899999999999988, 7.53735954408322 ) );
#399 = CARTESIAN_POINT( '', ( 0.408716531538590, -0.899999999999988, 7.12531086943078 ) );
#400 = CARTESIAN_POINT( '', ( -1.73413721171766E-15, -0.899999999999988, 6.71293743453639 ) );
#401 = CARTESIAN_POINT( '', ( 3.00000000000000, -0.899999999999988, 7.94921379760288 ) );
#402 = CARTESIAN_POINT( '', ( 80.0000000000000, -0.899999999999988, 7.94921379760288 ) );
#403 = VECTOR( '', #447, 1000.00000000000 );
#404 = CARTESIAN_POINT( '', ( 3.00000000000000, -0.899999999999988, -7.94921379760288 ) );
#405 = CARTESIAN_POINT( '', ( 3.00000000000000, -0.899999999999988, -10.5000000000000 ) );
#406 = VECTOR( '', #448, 1000.00000000000 );
#407 = CARTESIAN_POINT( '', ( 1.22700000000001, -0.899999999999983, -7.94921379760288 ) );
#408 = CARTESIAN_POINT( '', ( 80.0000000000000, -0.899999999999988, -7.94921379760288 ) );
#409 = VECTOR( '', #449, 1000.00000000000 );
#410 = CARTESIAN_POINT( '', ( -2.38736830719690E-15, -0.899999999999988, -6.71293743453639 ) );
#411 = CARTESIAN_POINT( '', ( 0.408715634480825, -0.899999999999988, -7.12530996434678 ) );
#412 = CARTESIAN_POINT( '', ( 0.817759551175689, -0.899999999999988, -7.53735877974164 ) );
#413 = CARTESIAN_POINT( '', ( 1.22700000000001, -0.899999999999988, -7.94921379760288 ) );
#414 = COLOUR_RGB( '', 0.689999997600000, 0.689999997600000, 0.689999997600000 );
#415 = CARTESIAN_POINT( '', ( 78.0159556456384, 6.00000000000001, 0.000000000000000 ) );
#416 = AXIS2_PLACEMENT_3D( '', #450, #451, #452 );
#417 = CARTESIAN_POINT( '', ( 75.0000000000000, 6.00000000000001, 0.000000000000000 ) );
#418 = AXIS2_PLACEMENT_3D( '', #453, #454, #455 );
#419 = COLOUR_RGB( '', 0.689999997600000, 0.689999997600000, 0.689999997600000 );
#420 = CARTESIAN_POINT( '', ( 75.0000000000000, 5.50000000000001, 0.000000000000000 ) );
#421 = AXIS2_PLACEMENT_3D( '', #456, #457, #458 );
#422 = COLOUR_RGB( '', 0.689999997600000, 0.689999997600000, 0.689999997600000 );
#423 = AXIS2_PLACEMENT_3D( '', #459, #460, #461 );
#424 = COLOUR_RGB( '', 0.689999997600000, 0.689999997600000, 0.689999997600000 );
#425 = CARTESIAN_POINT( '', ( 69.1547600000000, 5.50000000000001, 0.000000000000000 ) );
#426 = AXIS2_PLACEMENT_3D( '', #462, #463, #464 );
#427 = COLOUR_RGB( '', 0.689999997600000, 0.689999997600000, 0.689999997600000 );
#428 = AXIS2_PLACEMENT_3D( '', #465, #466, #467 );
#429 = COLOUR_RGB( '', 0.689999997600000, 0.689999997600000, 0.689999997600000 );
#430 = AXIS2_PLACEMENT_3D( '', #468, #469, #470 );
#431 = COLOUR_RGB( '', 0.689999997600000, 0.689999997600000, 0.689999997600000 );
#432 = CARTESIAN_POINT( '', ( 68.0000000000000, 8.00000000000001, 0.000000000000000 ) );
#433 = AXIS2_PLACEMENT_3D( '', #471, #472, #473 );
#434 = COLOUR_RGB( '', 0.689999997600000, 0.689999997600000, 0.689999997600000 );
#435 = AXIS2_PLACEMENT_3D( '', #474, #475, #476 );
#436 = AXIS2_PLACEMENT_3D( '', #477, #478, #479 );
#437 = COLOUR_RGB( '', 0.689999997600000, 0.689999997600000, 0.689999997600000 );
#438 = COLOUR_RGB( '', 0.689999997600000, 0.689999997600000, 0.689999997600000 );
#439 = CARTESIAN_POINT( '', ( 0.000000000000000, 1.20040145541904E-14, 0.000000000000000 ) );
#440 = DIRECTION( '', ( 1.00000000000000, -6.12323399573677E-17, -0.000000000000000 ) );
#441 = DIRECTION( '', ( 6.12323399573677E-17, 1.00000000000000, 0.000000000000000 ) );
#442 = DIRECTION( '', ( 0.000000000000000, 0.000000000000000, -1.00000000000000 ) );
#443 = DIRECTION( '', ( 1.00000000000000, -6.12323399573677E-17, -0.000000000000000 ) );
#444 = DIRECTION( '', ( 0.000000000000000, 0.000000000000000, -1.00000000000000 ) );
#445 = DIRECTION( '', ( 1.00000000000000, -6.12323399573677E-17, -0.000000000000000 ) );
#446 = DIRECTION( '', ( 0.000000000000000, 0.000000000000000, 1.00000000000000 ) );
#447 = DIRECTION( '', ( 1.00000000000000, -6.12323399573677E-17, -0.000000000000000 ) );
#448 = DIRECTION( '', ( 0.000000000000000, 0.000000000000000, 1.00000000000000 ) );
#449 = DIRECTION( '', ( 1.00000000000000, -6.12323399573677E-17, -0.000000000000000 ) );
#450 = CARTESIAN_POINT( '', ( 78.0159556456384, 7.22691503599777E-15, 0.000000000000000 ) );
#451 = DIRECTION( '', ( 1.00000000000000, -6.12323399573677E-17, -0.000000000000000 ) );
#452 = DIRECTION( '', ( 6.12323399573677E-17, 1.00000000000000, 0.000000000000000 ) );
#453 = CARTESIAN_POINT( '', ( 75.0000000000000, 7.41158905738784E-15, 0.000000000000000 ) );
#454 = DIRECTION( '', ( 1.00000000000000, -6.12323399573677E-17, -0.000000000000000 ) );
#455 = DIRECTION( '', ( 6.12323399573677E-17, 1.00000000000000, 0.000000000000000 ) );
#456 = CARTESIAN_POINT( '', ( 75.0000000000000, 7.41158905738784E-15, 0.000000000000000 ) );
#457 = DIRECTION( '', ( 1.00000000000000, -6.12323399573677E-17, -0.000000000000000 ) );
#458 = DIRECTION( '', ( 6.12323399573676E-17, 1.00000000000000, 0.000000000000000 ) );
#459 = CARTESIAN_POINT( '', ( 1.22700000000001, 1.19288824730627E-14, 0.000000000000000 ) );
#460 = DIRECTION( '', ( 1.00000000000000, -6.12323399573677E-17, -0.000000000000000 ) );
#461 = DIRECTION( '', ( 6.12323399573677E-17, 1.00000000000000, 0.000000000000000 ) );
#462 = CARTESIAN_POINT( '', ( 69.1547600000000, 7.76950678020024E-15, 0.000000000000000 ) );
#463 = DIRECTION( '', ( 1.00000000000000, -6.12323399573677E-17, -0.000000000000000 ) );
#464 = DIRECTION( '', ( 6.12323399573676E-17, 1.00000000000000, 0.000000000000000 ) );
#465 = CARTESIAN_POINT( '', ( 0.000000000000000, 1.20040145541904E-14, 0.000000000000000 ) );
#466 = DIRECTION( '', ( 1.00000000000000, -6.12323399573677E-17, -0.000000000000000 ) );
#467 = DIRECTION( '', ( 6.12323399573677E-17, 1.00000000000000, 0.000000000000000 ) );
#468 = CARTESIAN_POINT( '', ( 1.22700000000001, 1.19288824730627E-14, 0.000000000000000 ) );
#469 = DIRECTION( '', ( 1.00000000000000, -6.12323399573677E-17, -0.000000000000000 ) );
#470 = DIRECTION( '', ( 6.12323399573677E-17, 1.00000000000000, 0.000000000000000 ) );
#471 = CARTESIAN_POINT( '', ( 68.0000000000000, 7.84021543708942E-15, 0.000000000000000 ) );
#472 = DIRECTION( '', ( 1.00000000000000, -6.12323399573677E-17, -0.000000000000000 ) );
#473 = DIRECTION( '', ( 6.12323399573677E-17, 1.00000000000000, 0.000000000000000 ) );
#474 = CARTESIAN_POINT( '', ( 3.00000000000000, 1.18203175343183E-14, 0.000000000000000 ) );
#475 = DIRECTION( '', ( -1.00000000000000, 0.000000000000000, 0.000000000000000 ) );
#476 = DIRECTION( '', ( 0.000000000000000, 0.000000000000000, 1.00000000000000 ) );
#477 = CARTESIAN_POINT( '', ( 3.00000000000000, 1.18203175343183E-14, 0.000000000000000 ) );
#478 = DIRECTION( '', ( -1.00000000000000, 0.000000000000000, 0.000000000000000 ) );
#479 = DIRECTION( '', ( 0.000000000000000, 0.000000000000000, 1.00000000000000 ) );
ENDSEC;
END-ISO-10303-21;
