ISO-10303-21;
HEADER;
FILE_DESCRIPTION( ( 'STEP AP214' ), '1' );
FILE_NAME( '//goodhand-server/Shared Folders/GoodHand Data/Kipp CAD/K0334/K0335.310_0.stp', '2020-12-03T09:01:35', ( '' ), ( '' ), ' ', 'PARTsolutions', ' ' );
FILE_SCHEMA( ( 'AUTOMOTIVE_DESIGN { 1 0 10303 214 1 1 1 1 }' ) );
ENDSEC;
DATA;
#1 = MECHANICAL_DESIGN_GEOMETRIC_PRESENTATION_REPRESENTATION( ' ', ( #10, #11, #12, #13, #14, #15, #16, #17, #18 ), #6 );
#2 = PRODUCT_DEFINITION_CONTEXT( '', #19, 'design' );
#3 = APPLICATION_PROTOCOL_DEFINITION( 'international standard', 'automotive_design', 2001, #19 );
#4 = PRODUCT_CATEGORY_RELATIONSHIP( 'NONE', 'NONE', #20, #21 );
#5 = SHAPE_DEFINITION_REPRESENTATION( #22, #23 );
#6 =  ( GEOMETRIC_REPRESENTATION_CONTEXT( 3 )GLOBAL_UNCERTAINTY_ASSIGNED_CONTEXT( ( #26 ) )GLOBAL_UNIT_ASSIGNED_CONTEXT( ( #28, #29, #30 ) )REPRESENTATION_CONTEXT( 'NONE', 'WORKSPACE' ) );
#10 = STYLED_ITEM( '', ( #32 ), #33 );
#11 = STYLED_ITEM( '', ( #34 ), #35 );
#12 = STYLED_ITEM( '', ( #36 ), #37 );
#13 = STYLED_ITEM( '', ( #38 ), #39 );
#14 = STYLED_ITEM( '', ( #40 ), #41 );
#15 = STYLED_ITEM( '', ( #42 ), #43 );
#16 = STYLED_ITEM( '', ( #44 ), #45 );
#17 = STYLED_ITEM( '', ( #46 ), #47 );
#18 = STYLED_ITEM( '', ( #48 ), #49 );
#19 = APPLICATION_CONTEXT( 'core data for automotive mechanical design processes' );
#20 = PRODUCT_CATEGORY( 'part', 'NONE' );
#21 = PRODUCT_RELATED_PRODUCT_CATEGORY( 'detail', ' ', ( #50 ) );
#22 = PRODUCT_DEFINITION_SHAPE( 'NONE', 'NONE', #51 );
#23 = ADVANCED_BREP_SHAPE_REPRESENTATION( '_K0335.310_0', ( #52, #53 ), #6 );
#26 = UNCERTAINTY_MEASURE_WITH_UNIT( LENGTH_MEASURE( 0.00100000000000000 ), #28, '', '' );
#28 =  ( CONVERSION_BASED_UNIT( 'MILLIMETRE', #56 )LENGTH_UNIT(  )NAMED_UNIT( #59 ) );
#29 =  ( NAMED_UNIT( #61 )PLANE_ANGLE_UNIT(  )SI_UNIT( $, .RADIAN. ) );
#30 =  ( NAMED_UNIT( #61 )SI_UNIT( $, .STERADIAN. )SOLID_ANGLE_UNIT(  ) );
#32 = PRESENTATION_STYLE_ASSIGNMENT( ( #67 ) );
#33 = ADVANCED_FACE( '', ( #68, #69 ), #70, .T. );
#34 = PRESENTATION_STYLE_ASSIGNMENT( ( #71 ) );
#35 = ADVANCED_FACE( '', ( #72, #73 ), #74, .T. );
#36 = PRESENTATION_STYLE_ASSIGNMENT( ( #75 ) );
#37 = ADVANCED_FACE( '', ( #76 ), #77, .F. );
#38 = PRESENTATION_STYLE_ASSIGNMENT( ( #78 ) );
#39 = ADVANCED_FACE( '', ( #79 ), #80, .F. );
#40 = PRESENTATION_STYLE_ASSIGNMENT( ( #81 ) );
#41 = ADVANCED_FACE( '', ( #82, #83 ), #84, .F. );
#42 = PRESENTATION_STYLE_ASSIGNMENT( ( #85 ) );
#43 = ADVANCED_FACE( '', ( #86, #87 ), #88, .T. );
#44 = PRESENTATION_STYLE_ASSIGNMENT( ( #89 ) );
#45 = ADVANCED_FACE( '', ( #90, #91 ), #92, .F. );
#46 = PRESENTATION_STYLE_ASSIGNMENT( ( #93 ) );
#47 = ADVANCED_FACE( '', ( #94, #95 ), #96, .T. );
#48 = PRESENTATION_STYLE_ASSIGNMENT( ( #97 ) );
#49 = ADVANCED_FACE( '', ( #98, #99 ), #100, .F. );
#50 = PRODUCT( '_K0335.310_0', '_K0335.310_0', 'PART-_K0335.310_0-DESC', ( #101 ) );
#51 = PRODUCT_DEFINITION( 'NONE', 'NONE', #102, #2 );
#52 = BREP_WITH_VOIDS( '_K0335.310_0', #103, ( #104 ) );
#53 = AXIS2_PLACEMENT_3D( '', #105, #106, #107 );
#56 = LENGTH_MEASURE_WITH_UNIT( LENGTH_MEASURE( 1.00000000000000 ), #108 );
#59 = DIMENSIONAL_EXPONENTS( 1.00000000000000, 0.000000000000000, 0.000000000000000, 0.000000000000000, 0.000000000000000, 0.000000000000000, 0.000000000000000 );
#61 = DIMENSIONAL_EXPONENTS( 0.000000000000000, 0.000000000000000, 0.000000000000000, 0.000000000000000, 0.000000000000000, 0.000000000000000, 0.000000000000000 );
#67 = SURFACE_STYLE_USAGE( .BOTH., #109 );
#68 = FACE_OUTER_BOUND( '', #110, .T. );
#69 = FACE_OUTER_BOUND( '', #111, .T. );
#70 = CYLINDRICAL_SURFACE( '', #112, 5.00000000000000 );
#71 = SURFACE_STYLE_USAGE( .BOTH., #113 );
#72 = FACE_BOUND( '', #114, .T. );
#73 = FACE_OUTER_BOUND( '', #115, .T. );
#74 = SPHERICAL_SURFACE( '', #116, 4.00000000000000 );
#75 = SURFACE_STYLE_USAGE( .BOTH., #117 );
#76 = FACE_OUTER_BOUND( '', #118, .T. );
#77 = PLANE( '', #119 );
#78 = SURFACE_STYLE_USAGE( .BOTH., #120 );
#79 = FACE_OUTER_BOUND( '', #121, .T. );
#80 = PLANE( '', #122 );
#81 = SURFACE_STYLE_USAGE( .BOTH., #123 );
#82 = FACE_OUTER_BOUND( '', #124, .T. );
#83 = FACE_OUTER_BOUND( '', #125, .T. );
#84 = CYLINDRICAL_SURFACE( '', #126, 3.99900000000000 );
#85 = SURFACE_STYLE_USAGE( .BOTH., #127 );
#86 = FACE_OUTER_BOUND( '', #128, .T. );
#87 = FACE_BOUND( '', #129, .T. );
#88 = CONICAL_SURFACE( '', #130, 4.30717967700000, 0.523598775600000 );
#89 = SURFACE_STYLE_USAGE( .BOTH., #131 );
#90 = FACE_OUTER_BOUND( '', #132, .T. );
#91 = FACE_OUTER_BOUND( '', #133, .T. );
#92 = CYLINDRICAL_SURFACE( '', #134, 3.99900000000000 );
#93 = SURFACE_STYLE_USAGE( .BOTH., #135 );
#94 = FACE_BOUND( '', #136, .T. );
#95 = FACE_OUTER_BOUND( '', #137, .T. );
#96 = SPHERICAL_SURFACE( '', #138, 4.00000000000000 );
#97 = SURFACE_STYLE_USAGE( .BOTH., #139 );
#98 = FACE_BOUND( '', #140, .T. );
#99 = FACE_OUTER_BOUND( '', #141, .T. );
#100 = PLANE( '', #142 );
#101 = PRODUCT_CONTEXT( '', #19, 'mechanical' );
#102 = PRODUCT_DEFINITION_FORMATION_WITH_SPECIFIED_SOURCE( ' ', 'NONE', #50, .NOT_KNOWN. );
#103 = CLOSED_SHELL( '', ( #41, #37, #49, #33, #43, #47 ) );
#104 = ORIENTED_CLOSED_SHELL( '', *, #143, .T. );
#105 = CARTESIAN_POINT( '', ( 0.000000000000000, 0.000000000000000, 0.000000000000000 ) );
#106 = DIRECTION( '', ( 0.000000000000000, 0.000000000000000, 1.00000000000000 ) );
#107 = DIRECTION( '', ( 1.00000000000000, 0.000000000000000, 0.000000000000000 ) );
#108 =  ( LENGTH_UNIT(  )NAMED_UNIT( #59 )SI_UNIT( .MILLI., .METRE. ) );
#109 = SURFACE_SIDE_STYLE( '', ( #145 ) );
#110 = EDGE_LOOP( '', ( #146 ) );
#111 = EDGE_LOOP( '', ( #147 ) );
#112 = AXIS2_PLACEMENT_3D( '', #148, #149, #150 );
#113 = SURFACE_SIDE_STYLE( '', ( #151 ) );
#114 = VERTEX_LOOP( '', #152 );
#115 = EDGE_LOOP( '', ( #153 ) );
#116 = AXIS2_PLACEMENT_3D( '', #154, #155, #156 );
#117 = SURFACE_SIDE_STYLE( '', ( #157 ) );
#118 = EDGE_LOOP( '', ( #158 ) );
#119 = AXIS2_PLACEMENT_3D( '', #159, #160, #161 );
#120 = SURFACE_SIDE_STYLE( '', ( #162 ) );
#121 = EDGE_LOOP( '', ( #163 ) );
#122 = AXIS2_PLACEMENT_3D( '', #164, #165, #166 );
#123 = SURFACE_SIDE_STYLE( '', ( #167 ) );
#124 = EDGE_LOOP( '', ( #168 ) );
#125 = EDGE_LOOP( '', ( #169 ) );
#126 = AXIS2_PLACEMENT_3D( '', #170, #171, #172 );
#127 = SURFACE_SIDE_STYLE( '', ( #173 ) );
#128 = EDGE_LOOP( '', ( #174 ) );
#129 = EDGE_LOOP( '', ( #175 ) );
#130 = AXIS2_PLACEMENT_3D( '', #176, #177, #178 );
#131 = SURFACE_SIDE_STYLE( '', ( #179 ) );
#132 = EDGE_LOOP( '', ( #180 ) );
#133 = EDGE_LOOP( '', ( #181 ) );
#134 = AXIS2_PLACEMENT_3D( '', #182, #183, #184 );
#135 = SURFACE_SIDE_STYLE( '', ( #185 ) );
#136 = VERTEX_LOOP( '', #186 );
#137 = EDGE_LOOP( '', ( #187 ) );
#138 = AXIS2_PLACEMENT_3D( '', #188, #189, #190 );
#139 = SURFACE_SIDE_STYLE( '', ( #191 ) );
#140 = EDGE_LOOP( '', ( #192 ) );
#141 = EDGE_LOOP( '', ( #193 ) );
#142 = AXIS2_PLACEMENT_3D( '', #194, #195, #196 );
#143 = CLOSED_SHELL( '', ( #45, #35, #39 ) );
#145 = SURFACE_STYLE_FILL_AREA( #197 );
#146 = ORIENTED_EDGE( '', *, *, #198, .F. );
#147 = ORIENTED_EDGE( '', *, *, #199, .T. );
#148 = CARTESIAN_POINT( '', ( 11.0000000000000, 0.000000000000000, 0.000000000000000 ) );
#149 = DIRECTION( '', ( -1.00000000000000, -0.000000000000000, 0.000000000000000 ) );
#150 = DIRECTION( '', ( -0.000000000000000, 0.000000000000000, -1.00000000000000 ) );
#151 = SURFACE_STYLE_FILL_AREA( #200 );
#152 = VERTEX_POINT( '', #201 );
#153 = ORIENTED_EDGE( '', *, *, #202, .F. );
#154 = CARTESIAN_POINT( '', ( 18.0000000000000, 4.33680868994202E-16, 0.000000000000000 ) );
#155 = DIRECTION( '', ( 1.00000000000000, 0.000000000000000, 0.000000000000000 ) );
#156 = DIRECTION( '', ( 0.000000000000000, -1.00000000000000, 0.000000000000000 ) );
#157 = SURFACE_STYLE_FILL_AREA( #203 );
#158 = ORIENTED_EDGE( '', *, *, #204, .F. );
#159 = CARTESIAN_POINT( '', ( 0.000000000000000, 0.000000000000000, 0.000000000000000 ) );
#160 = DIRECTION( '', ( 1.00000000000000, 0.000000000000000, -0.000000000000000 ) );
#161 = DIRECTION( '', ( -0.000000000000000, 0.000000000000000, -1.00000000000000 ) );
#162 = SURFACE_STYLE_FILL_AREA( #205 );
#163 = ORIENTED_EDGE( '', *, *, #206, .T. );
#164 = CARTESIAN_POINT( '', ( 11.0000000000000, 3.99900000000000, 0.000000000000000 ) );
#165 = DIRECTION( '', ( -1.00000000000000, 0.000000000000000, 0.000000000000000 ) );
#166 = DIRECTION( '', ( 0.000000000000000, 0.000000000000000, 1.00000000000000 ) );
#167 = SURFACE_STYLE_FILL_AREA( #207 );
#168 = ORIENTED_EDGE( '', *, *, #208, .T. );
#169 = ORIENTED_EDGE( '', *, *, #209, .T. );
#170 = CARTESIAN_POINT( '', ( 11.0000000000000, 0.000000000000000, 0.000000000000000 ) );
#171 = DIRECTION( '', ( -1.00000000000000, -0.000000000000000, 0.000000000000000 ) );
#172 = DIRECTION( '', ( -0.000000000000000, 0.000000000000000, -1.00000000000000 ) );
#173 = SURFACE_STYLE_FILL_AREA( #210 );
#174 = ORIENTED_EDGE( '', *, *, #199, .F. );
#175 = ORIENTED_EDGE( '', *, *, #204, .T. );
#176 = CARTESIAN_POINT( '', ( 0.000000000000000, 0.000000000000000, 0.000000000000000 ) );
#177 = DIRECTION( '', ( 1.00000000000000, -0.000000000000000, -0.000000000000000 ) );
#178 = DIRECTION( '', ( -0.000000000000000, 0.000000000000000, -1.00000000000000 ) );
#179 = SURFACE_STYLE_FILL_AREA( #211 );
#180 = ORIENTED_EDGE( '', *, *, #206, .F. );
#181 = ORIENTED_EDGE( '', *, *, #202, .T. );
#182 = CARTESIAN_POINT( '', ( 11.0000000000000, 0.000000000000000, 0.000000000000000 ) );
#183 = DIRECTION( '', ( -1.00000000000000, -0.000000000000000, 0.000000000000000 ) );
#184 = DIRECTION( '', ( -0.000000000000000, 0.000000000000000, -1.00000000000000 ) );
#185 = SURFACE_STYLE_FILL_AREA( #212 );
#186 = VERTEX_POINT( '', #213 );
#187 = ORIENTED_EDGE( '', *, *, #208, .F. );
#188 = CARTESIAN_POINT( '', ( 18.0000000000000, 4.33680868994202E-16, 0.000000000000000 ) );
#189 = DIRECTION( '', ( 1.00000000000000, 0.000000000000000, 0.000000000000000 ) );
#190 = DIRECTION( '', ( 0.000000000000000, -1.00000000000000, 0.000000000000000 ) );
#191 = SURFACE_STYLE_FILL_AREA( #214 );
#192 = ORIENTED_EDGE( '', *, *, #209, .F. );
#193 = ORIENTED_EDGE( '', *, *, #198, .T. );
#194 = CARTESIAN_POINT( '', ( 22.0000000000000, 5.00000000000000, 0.000000000000000 ) );
#195 = DIRECTION( '', ( -1.00000000000000, 0.000000000000000, 0.000000000000000 ) );
#196 = DIRECTION( '', ( 0.000000000000000, 0.000000000000000, 1.00000000000000 ) );
#197 = FILL_AREA_STYLE( '', ( #215 ) );
#198 = EDGE_CURVE( '', #216, #216, #217, .T. );
#199 = EDGE_CURVE( '', #218, #218, #219, .T. );
#200 = FILL_AREA_STYLE( '', ( #220 ) );
#201 = CARTESIAN_POINT( '', ( 14.0000000000000, 1.88751509164731E-16, 0.000000000000000 ) );
#202 = EDGE_CURVE( '', #221, #221, #222, .T. );
#203 = FILL_AREA_STYLE( '', ( #223 ) );
#204 = EDGE_CURVE( '', #224, #224, #225, .T. );
#205 = FILL_AREA_STYLE( '', ( #226 ) );
#206 = EDGE_CURVE( '', #227, #227, #228, .T. );
#207 = FILL_AREA_STYLE( '', ( #229 ) );
#208 = EDGE_CURVE( '', #230, #230, #231, .T. );
#209 = EDGE_CURVE( '', #232, #232, #233, .T. );
#210 = FILL_AREA_STYLE( '', ( #234 ) );
#211 = FILL_AREA_STYLE( '', ( #235 ) );
#212 = FILL_AREA_STYLE( '', ( #236 ) );
#213 = CARTESIAN_POINT( '', ( 22.0000000000000, 1.88751509164731E-16, 0.000000000000000 ) );
#214 = FILL_AREA_STYLE( '', ( #237 ) );
#215 = FILL_AREA_STYLE_COLOUR( '', #238 );
#216 = VERTEX_POINT( '', #239 );
#217 = CIRCLE( '', #240, 5.00000000000000 );
#218 = VERTEX_POINT( '', #241 );
#219 = CIRCLE( '', #242, 5.00000000000000 );
#220 = FILL_AREA_STYLE_COLOUR( '', #243 );
#221 = VERTEX_POINT( '', #244 );
#222 = CIRCLE( '', #245, 3.99900000000000 );
#223 = FILL_AREA_STYLE_COLOUR( '', #246 );
#224 = VERTEX_POINT( '', #247 );
#225 = CIRCLE( '', #248, 4.30717967700000 );
#226 = FILL_AREA_STYLE_COLOUR( '', #249 );
#227 = VERTEX_POINT( '', #250 );
#228 = CIRCLE( '', #251, 3.99900000000000 );
#229 = FILL_AREA_STYLE_COLOUR( '', #252 );
#230 = VERTEX_POINT( '', #253 );
#231 = CIRCLE( '', #254, 3.99900000000000 );
#232 = VERTEX_POINT( '', #255 );
#233 = CIRCLE( '', #256, 3.99900000000000 );
#234 = FILL_AREA_STYLE_COLOUR( '', #257 );
#235 = FILL_AREA_STYLE_COLOUR( '', #258 );
#236 = FILL_AREA_STYLE_COLOUR( '', #259 );
#237 = FILL_AREA_STYLE_COLOUR( '', #260 );
#238 = COLOUR_RGB( '', 0.689999997600000, 0.689999997600000, 0.689999997600000 );
#239 = CARTESIAN_POINT( '', ( 22.0000000000000, 0.000000000000000, -5.00000000000000 ) );
#240 = AXIS2_PLACEMENT_3D( '', #261, #262, #263 );
#241 = CARTESIAN_POINT( '', ( 1.20000000000000, 0.000000000000000, -5.00000000000001 ) );
#242 = AXIS2_PLACEMENT_3D( '', #264, #265, #266 );
#243 = COLOUR_RGB( '', 0.689999997600000, 0.689999997600000, 0.689999997600000 );
#244 = CARTESIAN_POINT( '', ( 17.9105628712449, 0.000000000000000, -3.99900000000000 ) );
#245 = AXIS2_PLACEMENT_3D( '', #267, #268, #269 );
#246 = COLOUR_RGB( '', 0.689999997600000, 0.689999997600000, 0.689999997600000 );
#247 = CARTESIAN_POINT( '', ( 0.000000000000000, 0.000000000000000, -4.30717967697246 ) );
#248 = AXIS2_PLACEMENT_3D( '', #270, #271, #272 );
#249 = COLOUR_RGB( '', 0.689999997600000, 0.689999997600000, 0.689999997600000 );
#250 = CARTESIAN_POINT( '', ( 11.0000000000000, 0.000000000000000, -3.99900000000000 ) );
#251 = AXIS2_PLACEMENT_3D( '', #273, #274, #275 );
#252 = COLOUR_RGB( '', 0.689999997600000, 0.689999997600000, 0.689999997600000 );
#253 = CARTESIAN_POINT( '', ( 18.0894371287551, 0.000000000000000, 3.99900000000000 ) );
#254 = AXIS2_PLACEMENT_3D( '', #276, #277, #278 );
#255 = CARTESIAN_POINT( '', ( 22.0000000000000, 0.000000000000000, -3.99900000000001 ) );
#256 = AXIS2_PLACEMENT_3D( '', #279, #280, #281 );
#257 = COLOUR_RGB( '', 0.689999997600000, 0.689999997600000, 0.689999997600000 );
#258 = COLOUR_RGB( '', 0.689999997600000, 0.689999997600000, 0.689999997600000 );
#259 = COLOUR_RGB( '', 0.689999997600000, 0.689999997600000, 0.689999997600000 );
#260 = COLOUR_RGB( '', 0.689999997600000, 0.689999997600000, 0.689999997600000 );
#261 = CARTESIAN_POINT( '', ( 22.0000000000000, 0.000000000000000, 0.000000000000000 ) );
#262 = DIRECTION( '', ( 1.00000000000000, 0.000000000000000, -0.000000000000000 ) );
#263 = DIRECTION( '', ( -0.000000000000000, 0.000000000000000, -1.00000000000000 ) );
#264 = CARTESIAN_POINT( '', ( 1.20000000000000, 0.000000000000000, 0.000000000000000 ) );
#265 = DIRECTION( '', ( 1.00000000000000, 0.000000000000000, -0.000000000000000 ) );
#266 = DIRECTION( '', ( -0.000000000000000, 0.000000000000000, -1.00000000000000 ) );
#267 = CARTESIAN_POINT( '', ( 17.9105628712449, 0.000000000000000, 0.000000000000000 ) );
#268 = DIRECTION( '', ( 1.00000000000000, 0.000000000000000, -0.000000000000000 ) );
#269 = DIRECTION( '', ( -0.000000000000000, 0.000000000000000, -1.00000000000000 ) );
#270 = CARTESIAN_POINT( '', ( 0.000000000000000, 0.000000000000000, 0.000000000000000 ) );
#271 = DIRECTION( '', ( 1.00000000000000, 0.000000000000000, -0.000000000000000 ) );
#272 = DIRECTION( '', ( -0.000000000000000, 0.000000000000000, -1.00000000000000 ) );
#273 = CARTESIAN_POINT( '', ( 11.0000000000000, 0.000000000000000, 0.000000000000000 ) );
#274 = DIRECTION( '', ( 1.00000000000000, 0.000000000000000, -0.000000000000000 ) );
#275 = DIRECTION( '', ( -0.000000000000000, 0.000000000000000, -1.00000000000000 ) );
#276 = CARTESIAN_POINT( '', ( 18.0894371287551, 0.000000000000000, 0.000000000000000 ) );
#277 = DIRECTION( '', ( -1.00000000000000, 0.000000000000000, 0.000000000000000 ) );
#278 = DIRECTION( '', ( 0.000000000000000, 0.000000000000000, 1.00000000000000 ) );
#279 = CARTESIAN_POINT( '', ( 22.0000000000000, 0.000000000000000, 0.000000000000000 ) );
#280 = DIRECTION( '', ( 1.00000000000000, 0.000000000000000, -0.000000000000000 ) );
#281 = DIRECTION( '', ( -0.000000000000000, 0.000000000000000, -1.00000000000000 ) );
ENDSEC;
END-ISO-10303-21;
