ISO-10303-21;
HEADER;
FILE_DESCRIPTION( ( 'STEP AP214' ), '1' );
FILE_NAME( '//goodhand-server/Shared Folders/GoodHand Data/Kipp CAD/K0391/K0391.08X50.stp', '2020-12-07T10:17:24', ( '' ), ( '' ), ' ', 'PARTsolutions', ' ' );
FILE_SCHEMA( ( 'AUTOMOTIVE_DESIGN { 1 0 10303 214 1 1 1 1 }' ) );
ENDSEC;
DATA;
#1 = MECHANICAL_DESIGN_GEOMETRIC_PRESENTATION_REPRESENTATION( ' ', ( #10, #11, #12, #13, #14, #15, #16, #17, #18, #19, #20, #21, #22 ), #6 );
#2 = PRODUCT_DEFINITION_CONTEXT( '', #23, 'design' );
#3 = APPLICATION_PROTOCOL_DEFINITION( 'international standard', 'automotive_design', 2001, #23 );
#4 = PRODUCT_CATEGORY_RELATIONSHIP( 'NONE', 'NONE', #24, #25 );
#5 = SHAPE_DEFINITION_REPRESENTATION( #26, #27 );
#6 =  ( GEOMETRIC_REPRESENTATION_CONTEXT( 3 )GLOBAL_UNCERTAINTY_ASSIGNED_CONTEXT( ( #30 ) )GLOBAL_UNIT_ASSIGNED_CONTEXT( ( #32, #33, #34 ) )REPRESENTATION_CONTEXT( 'NONE', 'WORKSPACE' ) );
#10 = STYLED_ITEM( '', ( #36 ), #37 );
#11 = STYLED_ITEM( '', ( #38 ), #39 );
#12 = STYLED_ITEM( '', ( #40 ), #41 );
#13 = STYLED_ITEM( '', ( #42 ), #43 );
#14 = STYLED_ITEM( '', ( #44 ), #45 );
#15 = STYLED_ITEM( '', ( #46 ), #47 );
#16 = STYLED_ITEM( '', ( #48 ), #49 );
#17 = STYLED_ITEM( '', ( #50 ), #51 );
#18 = STYLED_ITEM( '', ( #52 ), #53 );
#19 = STYLED_ITEM( '', ( #54 ), #55 );
#20 = STYLED_ITEM( '', ( #56 ), #57 );
#21 = STYLED_ITEM( '', ( #58 ), #59 );
#22 = STYLED_ITEM( '', ( #60 ), #61 );
#23 = APPLICATION_CONTEXT( 'core data for automotive mechanical design processes' );
#24 = PRODUCT_CATEGORY( 'part', 'NONE' );
#25 = PRODUCT_RELATED_PRODUCT_CATEGORY( 'detail', ' ', ( #62 ) );
#26 = PRODUCT_DEFINITION_SHAPE( 'NONE', 'NONE', #63 );
#27 = ADVANCED_BREP_SHAPE_REPRESENTATION( '_K0391.08X50', ( #64, #65 ), #6 );
#30 = UNCERTAINTY_MEASURE_WITH_UNIT( LENGTH_MEASURE( 0.00100000000000000 ), #32, '', '' );
#32 =  ( CONVERSION_BASED_UNIT( 'MILLIMETRE', #68 )LENGTH_UNIT(  )NAMED_UNIT( #71 ) );
#33 =  ( NAMED_UNIT( #73 )PLANE_ANGLE_UNIT(  )SI_UNIT( $, .RADIAN. ) );
#34 =  ( NAMED_UNIT( #73 )SI_UNIT( $, .STERADIAN. )SOLID_ANGLE_UNIT(  ) );
#36 = PRESENTATION_STYLE_ASSIGNMENT( ( #79 ) );
#37 = ADVANCED_FACE( '', ( #80, #81 ), #82, .T. );
#38 = PRESENTATION_STYLE_ASSIGNMENT( ( #83 ) );
#39 = ADVANCED_FACE( '', ( #84, #85 ), #86, .T. );
#40 = PRESENTATION_STYLE_ASSIGNMENT( ( #87 ) );
#41 = ADVANCED_FACE( '', ( #88 ), #89, .F. );
#42 = PRESENTATION_STYLE_ASSIGNMENT( ( #90 ) );
#43 = ADVANCED_FACE( '', ( #91, #92 ), #93, .F. );
#44 = PRESENTATION_STYLE_ASSIGNMENT( ( #94 ) );
#45 = ADVANCED_FACE( '', ( #95 ), #96, .T. );
#46 = PRESENTATION_STYLE_ASSIGNMENT( ( #97 ) );
#47 = ADVANCED_FACE( '', ( #98, #99 ), #100, .T. );
#48 = PRESENTATION_STYLE_ASSIGNMENT( ( #101 ) );
#49 = ADVANCED_FACE( '', ( #102 ), #103, .T. );
#50 = PRESENTATION_STYLE_ASSIGNMENT( ( #104 ) );
#51 = ADVANCED_FACE( '', ( #105, #106 ), #107, .T. );
#52 = PRESENTATION_STYLE_ASSIGNMENT( ( #108 ) );
#53 = ADVANCED_FACE( '', ( #109 ), #110, .T. );
#54 = PRESENTATION_STYLE_ASSIGNMENT( ( #111 ) );
#55 = ADVANCED_FACE( '', ( #112 ), #113, .T. );
#56 = PRESENTATION_STYLE_ASSIGNMENT( ( #114 ) );
#57 = ADVANCED_FACE( '', ( #115 ), #116, .T. );
#58 = PRESENTATION_STYLE_ASSIGNMENT( ( #117 ) );
#59 = ADVANCED_FACE( '', ( #118, #119 ), #120, .T. );
#60 = PRESENTATION_STYLE_ASSIGNMENT( ( #121 ) );
#61 = ADVANCED_FACE( '', ( #122 ), #123, .T. );
#62 = PRODUCT( '_K0391.08X50', '_K0391.08X50', 'PART-_K0391.08X50-DESC', ( #124 ) );
#63 = PRODUCT_DEFINITION( 'NONE', 'NONE', #125, #2 );
#64 = MANIFOLD_SOLID_BREP( '_K0391.08X50', #126 );
#65 = AXIS2_PLACEMENT_3D( '', #127, #128, #129 );
#68 = LENGTH_MEASURE_WITH_UNIT( LENGTH_MEASURE( 1.00000000000000 ), #130 );
#71 = DIMENSIONAL_EXPONENTS( 1.00000000000000, 0.000000000000000, 0.000000000000000, 0.000000000000000, 0.000000000000000, 0.000000000000000, 0.000000000000000 );
#73 = DIMENSIONAL_EXPONENTS( 0.000000000000000, 0.000000000000000, 0.000000000000000, 0.000000000000000, 0.000000000000000, 0.000000000000000, 0.000000000000000 );
#79 = SURFACE_STYLE_USAGE( .BOTH., #131 );
#80 = FACE_BOUND( '', #132, .T. );
#81 = FACE_OUTER_BOUND( '', #133, .T. );
#82 = CONICAL_SURFACE( '', #134, 4.00000000000000, 0.785398163400000 );
#83 = SURFACE_STYLE_USAGE( .BOTH., #135 );
#84 = FACE_OUTER_BOUND( '', #136, .T. );
#85 = FACE_BOUND( '', #137, .T. );
#86 = CONICAL_SURFACE( '', #138, 3.23300000000000, 0.785398163400000 );
#87 = SURFACE_STYLE_USAGE( .BOTH., #139 );
#88 = FACE_OUTER_BOUND( '', #140, .T. );
#89 = PLANE( '', #141 );
#90 = SURFACE_STYLE_USAGE( .BOTH., #142 );
#91 = FACE_OUTER_BOUND( '', #143, .T. );
#92 = FACE_BOUND( '', #144, .T. );
#93 = PLANE( '', #145 );
#94 = SURFACE_STYLE_USAGE( .BOTH., #146 );
#95 = FACE_OUTER_BOUND( '', #147, .T. );
#96 = PLANE( '', #148 );
#97 = SURFACE_STYLE_USAGE( .BOTH., #149 );
#98 = FACE_OUTER_BOUND( '', #150, .T. );
#99 = FACE_OUTER_BOUND( '', #151, .T. );
#100 = CYLINDRICAL_SURFACE( '', #152, 4.00000000000000 );
#101 = SURFACE_STYLE_USAGE( .BOTH., #153 );
#102 = FACE_OUTER_BOUND( '', #154, .T. );
#103 = PLANE( '', #155 );
#104 = SURFACE_STYLE_USAGE( .BOTH., #156 );
#105 = FACE_BOUND( '', #157, .T. );
#106 = FACE_OUTER_BOUND( '', #158, .T. );
#107 = SPHERICAL_SURFACE( '', #159, 3.00000000000000 );
#108 = SURFACE_STYLE_USAGE( .BOTH., #160 );
#109 = FACE_OUTER_BOUND( '', #161, .T. );
#110 = PLANE( '', #162 );
#111 = SURFACE_STYLE_USAGE( .BOTH., #163 );
#112 = FACE_OUTER_BOUND( '', #164, .T. );
#113 = PLANE( '', #165 );
#114 = SURFACE_STYLE_USAGE( .BOTH., #166 );
#115 = FACE_OUTER_BOUND( '', #167, .T. );
#116 = PLANE( '', #168 );
#117 = SURFACE_STYLE_USAGE( .BOTH., #169 );
#118 = FACE_OUTER_BOUND( '', #170, .T. );
#119 = FACE_OUTER_BOUND( '', #171, .T. );
#120 = CYLINDRICAL_SURFACE( '', #172, 2.40000000000000 );
#121 = SURFACE_STYLE_USAGE( .BOTH., #173 );
#122 = FACE_OUTER_BOUND( '', #174, .T. );
#123 = PLANE( '', #175 );
#124 = PRODUCT_CONTEXT( '', #23, 'mechanical' );
#125 = PRODUCT_DEFINITION_FORMATION_WITH_SPECIFIED_SOURCE( ' ', 'NONE', #62, .NOT_KNOWN. );
#126 = CLOSED_SHELL( '', ( #39, #43, #53, #61, #45, #51, #59, #37, #47, #57, #55, #49, #41 ) );
#127 = CARTESIAN_POINT( '', ( 0.000000000000000, 0.000000000000000, 0.000000000000000 ) );
#128 = DIRECTION( '', ( 0.000000000000000, 0.000000000000000, 1.00000000000000 ) );
#129 = DIRECTION( '', ( 1.00000000000000, 0.000000000000000, 0.000000000000000 ) );
#130 =  ( LENGTH_UNIT(  )NAMED_UNIT( #71 )SI_UNIT( .MILLI., .METRE. ) );
#131 = SURFACE_SIDE_STYLE( '', ( #177 ) );
#132 = EDGE_LOOP( '', ( #178 ) );
#133 = EDGE_LOOP( '', ( #179 ) );
#134 = AXIS2_PLACEMENT_3D( '', #180, #181, #182 );
#135 = SURFACE_SIDE_STYLE( '', ( #183 ) );
#136 = EDGE_LOOP( '', ( #184 ) );
#137 = EDGE_LOOP( '', ( #185 ) );
#138 = AXIS2_PLACEMENT_3D( '', #186, #187, #188 );
#139 = SURFACE_SIDE_STYLE( '', ( #189 ) );
#140 = EDGE_LOOP( '', ( #190, #191, #192, #193, #194, #195 ) );
#141 = AXIS2_PLACEMENT_3D( '', #196, #197, #198 );
#142 = SURFACE_SIDE_STYLE( '', ( #199 ) );
#143 = EDGE_LOOP( '', ( #200 ) );
#144 = EDGE_LOOP( '', ( #201, #202, #203, #204, #205, #206 ) );
#145 = AXIS2_PLACEMENT_3D( '', #207, #208, #209 );
#146 = SURFACE_SIDE_STYLE( '', ( #210 ) );
#147 = EDGE_LOOP( '', ( #211, #212, #213, #214 ) );
#148 = AXIS2_PLACEMENT_3D( '', #215, #216, #217 );
#149 = SURFACE_SIDE_STYLE( '', ( #218 ) );
#150 = EDGE_LOOP( '', ( #219 ) );
#151 = EDGE_LOOP( '', ( #220 ) );
#152 = AXIS2_PLACEMENT_3D( '', #221, #222, #223 );
#153 = SURFACE_SIDE_STYLE( '', ( #224 ) );
#154 = EDGE_LOOP( '', ( #225, #226, #227, #228 ) );
#155 = AXIS2_PLACEMENT_3D( '', #229, #230, #231 );
#156 = SURFACE_SIDE_STYLE( '', ( #232 ) );
#157 = VERTEX_LOOP( '', #233 );
#158 = EDGE_LOOP( '', ( #234 ) );
#159 = AXIS2_PLACEMENT_3D( '', #235, #236, #237 );
#160 = SURFACE_SIDE_STYLE( '', ( #238 ) );
#161 = EDGE_LOOP( '', ( #239, #240, #241, #242 ) );
#162 = AXIS2_PLACEMENT_3D( '', #243, #244, #245 );
#163 = SURFACE_SIDE_STYLE( '', ( #246 ) );
#164 = EDGE_LOOP( '', ( #247, #248, #249, #250 ) );
#165 = AXIS2_PLACEMENT_3D( '', #251, #252, #253 );
#166 = SURFACE_SIDE_STYLE( '', ( #254 ) );
#167 = EDGE_LOOP( '', ( #255, #256, #257, #258 ) );
#168 = AXIS2_PLACEMENT_3D( '', #259, #260, #261 );
#169 = SURFACE_SIDE_STYLE( '', ( #262 ) );
#170 = EDGE_LOOP( '', ( #263 ) );
#171 = EDGE_LOOP( '', ( #264 ) );
#172 = AXIS2_PLACEMENT_3D( '', #265, #266, #267 );
#173 = SURFACE_SIDE_STYLE( '', ( #268 ) );
#174 = EDGE_LOOP( '', ( #269, #270, #271, #272 ) );
#175 = AXIS2_PLACEMENT_3D( '', #273, #274, #275 );
#177 = SURFACE_STYLE_FILL_AREA( #276 );
#178 = ORIENTED_EDGE( '', *, *, #277, .F. );
#179 = ORIENTED_EDGE( '', *, *, #278, .T. );
#180 = CARTESIAN_POINT( '', ( 42.6000000000000, 0.000000000000000, 0.000000000000000 ) );
#181 = DIRECTION( '', ( -1.00000000000000, 0.000000000000000, -0.000000000000000 ) );
#182 = DIRECTION( '', ( 0.000000000000000, 0.000000000000000, 1.00000000000000 ) );
#183 = SURFACE_STYLE_FILL_AREA( #279 );
#184 = ORIENTED_EDGE( '', *, *, #280, .F. );
#185 = ORIENTED_EDGE( '', *, *, #281, .T. );
#186 = CARTESIAN_POINT( '', ( 0.000000000000000, 0.000000000000000, 0.000000000000000 ) );
#187 = DIRECTION( '', ( 1.00000000000000, -0.000000000000000, -0.000000000000000 ) );
#188 = DIRECTION( '', ( -0.000000000000000, 0.000000000000000, -1.00000000000000 ) );
#189 = SURFACE_STYLE_FILL_AREA( #282 );
#190 = ORIENTED_EDGE( '', *, *, #283, .F. );
#191 = ORIENTED_EDGE( '', *, *, #284, .F. );
#192 = ORIENTED_EDGE( '', *, *, #285, .F. );
#193 = ORIENTED_EDGE( '', *, *, #286, .F. );
#194 = ORIENTED_EDGE( '', *, *, #287, .F. );
#195 = ORIENTED_EDGE( '', *, *, #288, .F. );
#196 = CARTESIAN_POINT( '', ( 4.00000000000000, 0.000000000000000, 0.000000000000000 ) );
#197 = DIRECTION( '', ( 1.00000000000000, 0.000000000000000, 0.000000000000000 ) );
#198 = DIRECTION( '', ( 0.000000000000000, 0.000000000000000, -1.00000000000000 ) );
#199 = SURFACE_STYLE_FILL_AREA( #289 );
#200 = ORIENTED_EDGE( '', *, *, #281, .F. );
#201 = ORIENTED_EDGE( '', *, *, #290, .T. );
#202 = ORIENTED_EDGE( '', *, *, #291, .T. );
#203 = ORIENTED_EDGE( '', *, *, #292, .T. );
#204 = ORIENTED_EDGE( '', *, *, #293, .T. );
#205 = ORIENTED_EDGE( '', *, *, #294, .T. );
#206 = ORIENTED_EDGE( '', *, *, #295, .T. );
#207 = CARTESIAN_POINT( '', ( 0.000000000000000, 0.000000000000000, 0.000000000000000 ) );
#208 = DIRECTION( '', ( 1.00000000000000, 0.000000000000000, -0.000000000000000 ) );
#209 = DIRECTION( '', ( -0.000000000000000, 0.000000000000000, -1.00000000000000 ) );
#210 = SURFACE_STYLE_FILL_AREA( #296 );
#211 = ORIENTED_EDGE( '', *, *, #290, .F. );
#212 = ORIENTED_EDGE( '', *, *, #297, .F. );
#213 = ORIENTED_EDGE( '', *, *, #283, .T. );
#214 = ORIENTED_EDGE( '', *, *, #298, .T. );
#215 = CARTESIAN_POINT( '', ( 4.00000000000000, 1.15470053837925, 2.00000000000000 ) );
#216 = DIRECTION( '', ( 0.000000000000000, 0.000000000000000, -1.00000000000000 ) );
#217 = DIRECTION( '', ( -1.00000000000000, 0.000000000000000, 0.000000000000000 ) );
#218 = SURFACE_STYLE_FILL_AREA( #299 );
#219 = ORIENTED_EDGE( '', *, *, #278, .F. );
#220 = ORIENTED_EDGE( '', *, *, #280, .T. );
#221 = CARTESIAN_POINT( '', ( 50.0000000000000, 0.000000000000000, 0.000000000000000 ) );
#222 = DIRECTION( '', ( -1.00000000000000, -0.000000000000000, 0.000000000000000 ) );
#223 = DIRECTION( '', ( -0.000000000000000, 0.000000000000000, -1.00000000000000 ) );
#224 = SURFACE_STYLE_FILL_AREA( #300 );
#225 = ORIENTED_EDGE( '', *, *, #295, .F. );
#226 = ORIENTED_EDGE( '', *, *, #301, .F. );
#227 = ORIENTED_EDGE( '', *, *, #284, .T. );
#228 = ORIENTED_EDGE( '', *, *, #297, .T. );
#229 = CARTESIAN_POINT( '', ( 4.00000000000000, 2.30940107675850, 0.000000000000000 ) );
#230 = DIRECTION( '', ( 0.000000000000000, -0.866025403784439, -0.500000000000000 ) );
#231 = DIRECTION( '', ( 0.000000000000000, 0.500000000000000, -0.866025403784439 ) );
#232 = SURFACE_STYLE_FILL_AREA( #302 );
#233 = VERTEX_POINT( '', #303 );
#234 = ORIENTED_EDGE( '', *, *, #304, .T. );
#235 = CARTESIAN_POINT( '', ( 47.0000000000000, 0.000000000000000, 0.000000000000000 ) );
#236 = DIRECTION( '', ( 1.00000000000000, 0.000000000000000, 0.000000000000000 ) );
#237 = DIRECTION( '', ( 0.000000000000000, -1.00000000000000, 0.000000000000000 ) );
#238 = SURFACE_STYLE_FILL_AREA( #305 );
#239 = ORIENTED_EDGE( '', *, *, #291, .F. );
#240 = ORIENTED_EDGE( '', *, *, #298, .F. );
#241 = ORIENTED_EDGE( '', *, *, #288, .T. );
#242 = ORIENTED_EDGE( '', *, *, #306, .T. );
#243 = CARTESIAN_POINT( '', ( 4.00000000000000, -1.15470053837925, 2.00000000000000 ) );
#244 = DIRECTION( '', ( 0.000000000000000, 0.866025403784439, -0.500000000000000 ) );
#245 = DIRECTION( '', ( 0.000000000000000, 0.500000000000000, 0.866025403784439 ) );
#246 = SURFACE_STYLE_FILL_AREA( #307 );
#247 = ORIENTED_EDGE( '', *, *, #294, .F. );
#248 = ORIENTED_EDGE( '', *, *, #308, .F. );
#249 = ORIENTED_EDGE( '', *, *, #285, .T. );
#250 = ORIENTED_EDGE( '', *, *, #301, .T. );
#251 = CARTESIAN_POINT( '', ( 4.00000000000000, 1.15470053837925, -2.00000000000000 ) );
#252 = DIRECTION( '', ( 0.000000000000000, -0.866025403784439, 0.500000000000000 ) );
#253 = DIRECTION( '', ( 0.000000000000000, -0.500000000000000, -0.866025403784439 ) );
#254 = SURFACE_STYLE_FILL_AREA( #309 );
#255 = ORIENTED_EDGE( '', *, *, #293, .F. );
#256 = ORIENTED_EDGE( '', *, *, #310, .F. );
#257 = ORIENTED_EDGE( '', *, *, #286, .T. );
#258 = ORIENTED_EDGE( '', *, *, #308, .T. );
#259 = CARTESIAN_POINT( '', ( 4.00000000000000, -1.15470053837925, -2.00000000000000 ) );
#260 = DIRECTION( '', ( 0.000000000000000, 0.000000000000000, 1.00000000000000 ) );
#261 = DIRECTION( '', ( 1.00000000000000, 0.000000000000000, -0.000000000000000 ) );
#262 = SURFACE_STYLE_FILL_AREA( #311 );
#263 = ORIENTED_EDGE( '', *, *, #304, .F. );
#264 = ORIENTED_EDGE( '', *, *, #277, .T. );
#265 = CARTESIAN_POINT( '', ( 50.0000000000000, 0.000000000000000, 0.000000000000000 ) );
#266 = DIRECTION( '', ( -1.00000000000000, -0.000000000000000, 0.000000000000000 ) );
#267 = DIRECTION( '', ( -0.000000000000000, 0.000000000000000, -1.00000000000000 ) );
#268 = SURFACE_STYLE_FILL_AREA( #312 );
#269 = ORIENTED_EDGE( '', *, *, #292, .F. );
#270 = ORIENTED_EDGE( '', *, *, #306, .F. );
#271 = ORIENTED_EDGE( '', *, *, #287, .T. );
#272 = ORIENTED_EDGE( '', *, *, #310, .T. );
#273 = CARTESIAN_POINT( '', ( 4.00000000000000, -2.30940107675850, 0.000000000000000 ) );
#274 = DIRECTION( '', ( -0.000000000000000, 0.866025403784439, 0.500000000000000 ) );
#275 = DIRECTION( '', ( 0.000000000000000, -0.500000000000000, 0.866025403784439 ) );
#276 = FILL_AREA_STYLE( '', ( #313 ) );
#277 = EDGE_CURVE( '', #314, #314, #315, .T. );
#278 = EDGE_CURVE( '', #316, #316, #317, .T. );
#279 = FILL_AREA_STYLE( '', ( #318 ) );
#280 = EDGE_CURVE( '', #319, #319, #320, .T. );
#281 = EDGE_CURVE( '', #321, #321, #322, .T. );
#282 = FILL_AREA_STYLE( '', ( #323 ) );
#283 = EDGE_CURVE( '', #324, #325, #326, .T. );
#284 = EDGE_CURVE( '', #327, #324, #328, .T. );
#285 = EDGE_CURVE( '', #329, #327, #330, .T. );
#286 = EDGE_CURVE( '', #331, #329, #332, .T. );
#287 = EDGE_CURVE( '', #333, #331, #334, .T. );
#288 = EDGE_CURVE( '', #325, #333, #335, .T. );
#289 = FILL_AREA_STYLE( '', ( #336 ) );
#290 = EDGE_CURVE( '', #337, #338, #339, .T. );
#291 = EDGE_CURVE( '', #338, #340, #341, .T. );
#292 = EDGE_CURVE( '', #340, #342, #343, .T. );
#293 = EDGE_CURVE( '', #342, #344, #345, .T. );
#294 = EDGE_CURVE( '', #344, #346, #347, .T. );
#295 = EDGE_CURVE( '', #346, #337, #348, .T. );
#296 = FILL_AREA_STYLE( '', ( #349 ) );
#297 = EDGE_CURVE( '', #324, #337, #350, .T. );
#298 = EDGE_CURVE( '', #325, #338, #351, .T. );
#299 = FILL_AREA_STYLE( '', ( #352 ) );
#300 = FILL_AREA_STYLE( '', ( #353 ) );
#301 = EDGE_CURVE( '', #327, #346, #354, .T. );
#302 = FILL_AREA_STYLE( '', ( #355 ) );
#303 = CARTESIAN_POINT( '', ( 50.0000000000000, -1.83697019872103E-16, 0.000000000000000 ) );
#304 = EDGE_CURVE( '', #356, #356, #357, .T. );
#305 = FILL_AREA_STYLE( '', ( #358 ) );
#306 = EDGE_CURVE( '', #333, #340, #359, .T. );
#307 = FILL_AREA_STYLE( '', ( #360 ) );
#308 = EDGE_CURVE( '', #329, #344, #361, .T. );
#309 = FILL_AREA_STYLE( '', ( #362 ) );
#310 = EDGE_CURVE( '', #331, #342, #363, .T. );
#311 = FILL_AREA_STYLE( '', ( #364 ) );
#312 = FILL_AREA_STYLE( '', ( #365 ) );
#313 = FILL_AREA_STYLE_COLOUR( '', #366 );
#314 = VERTEX_POINT( '', #367 );
#315 = CIRCLE( '', #368, 2.40000000000000 );
#316 = VERTEX_POINT( '', #369 );
#317 = CIRCLE( '', #370, 4.00000000000000 );
#318 = FILL_AREA_STYLE_COLOUR( '', #371 );
#319 = VERTEX_POINT( '', #372 );
#320 = CIRCLE( '', #373, 4.00000000000000 );
#321 = VERTEX_POINT( '', #374 );
#322 = CIRCLE( '', #375, 3.23300000000000 );
#323 = FILL_AREA_STYLE_COLOUR( '', #376 );
#324 = VERTEX_POINT( '', #377 );
#325 = VERTEX_POINT( '', #378 );
#326 = LINE( '', #379, #380 );
#327 = VERTEX_POINT( '', #381 );
#328 = LINE( '', #382, #383 );
#329 = VERTEX_POINT( '', #384 );
#330 = LINE( '', #385, #386 );
#331 = VERTEX_POINT( '', #387 );
#332 = LINE( '', #388, #389 );
#333 = VERTEX_POINT( '', #390 );
#334 = LINE( '', #391, #392 );
#335 = LINE( '', #393, #394 );
#336 = FILL_AREA_STYLE_COLOUR( '', #395 );
#337 = VERTEX_POINT( '', #396 );
#338 = VERTEX_POINT( '', #397 );
#339 = LINE( '', #398, #399 );
#340 = VERTEX_POINT( '', #400 );
#341 = LINE( '', #401, #402 );
#342 = VERTEX_POINT( '', #403 );
#343 = LINE( '', #404, #405 );
#344 = VERTEX_POINT( '', #406 );
#345 = LINE( '', #407, #408 );
#346 = VERTEX_POINT( '', #409 );
#347 = LINE( '', #410, #411 );
#348 = LINE( '', #412, #413 );
#349 = FILL_AREA_STYLE_COLOUR( '', #414 );
#350 = LINE( '', #415, #416 );
#351 = LINE( '', #417, #418 );
#352 = FILL_AREA_STYLE_COLOUR( '', #419 );
#353 = FILL_AREA_STYLE_COLOUR( '', #420 );
#354 = LINE( '', #421, #422 );
#355 = FILL_AREA_STYLE_COLOUR( '', #423 );
#356 = VERTEX_POINT( '', #424 );
#357 = CIRCLE( '', #425, 2.40000000000000 );
#358 = FILL_AREA_STYLE_COLOUR( '', #426 );
#359 = LINE( '', #427, #428 );
#360 = FILL_AREA_STYLE_COLOUR( '', #429 );
#361 = LINE( '', #430, #431 );
#362 = FILL_AREA_STYLE_COLOUR( '', #432 );
#363 = LINE( '', #433, #434 );
#364 = FILL_AREA_STYLE_COLOUR( '', #435 );
#365 = FILL_AREA_STYLE_COLOUR( '', #436 );
#366 = COLOUR_RGB( '', 0.689999997600000, 0.689999997600000, 0.689999997600000 );
#367 = CARTESIAN_POINT( '', ( 44.2000000000000, 0.000000000000000, -2.40000000000000 ) );
#368 = AXIS2_PLACEMENT_3D( '', #437, #438, #439 );
#369 = CARTESIAN_POINT( '', ( 42.6000000000000, 0.000000000000000, -4.00000000000000 ) );
#370 = AXIS2_PLACEMENT_3D( '', #440, #441, #442 );
#371 = COLOUR_RGB( '', 0.689999997600000, 0.689999997600000, 0.689999997600000 );
#372 = CARTESIAN_POINT( '', ( 0.766999999999997, 0.000000000000000, -4.00000000000000 ) );
#373 = AXIS2_PLACEMENT_3D( '', #443, #444, #445 );
#374 = CARTESIAN_POINT( '', ( 0.000000000000000, 0.000000000000000, -3.23300000000000 ) );
#375 = AXIS2_PLACEMENT_3D( '', #446, #447, #448 );
#376 = COLOUR_RGB( '', 0.689999997600000, 0.689999997600000, 0.689999997600000 );
#377 = CARTESIAN_POINT( '', ( 4.00000000000000, 1.15470053837925, 2.00000000000000 ) );
#378 = CARTESIAN_POINT( '', ( 4.00000000000000, -1.15470053837925, 2.00000000000000 ) );
#379 = CARTESIAN_POINT( '', ( 4.00000000000000, 1.15470053837925, 2.00000000000000 ) );
#380 = VECTOR( '', #449, 1000.00000000000 );
#381 = CARTESIAN_POINT( '', ( 4.00000000000000, 2.30940107675850, 0.000000000000000 ) );
#382 = CARTESIAN_POINT( '', ( 4.00000000000000, 2.30940107675850, 0.000000000000000 ) );
#383 = VECTOR( '', #450, 1000.00000000000 );
#384 = CARTESIAN_POINT( '', ( 4.00000000000000, 1.15470053837925, -2.00000000000000 ) );
#385 = CARTESIAN_POINT( '', ( 4.00000000000000, 1.15470053837925, -2.00000000000000 ) );
#386 = VECTOR( '', #451, 1000.00000000000 );
#387 = CARTESIAN_POINT( '', ( 4.00000000000000, -1.15470053837925, -2.00000000000000 ) );
#388 = CARTESIAN_POINT( '', ( 4.00000000000000, -1.15470053837925, -2.00000000000000 ) );
#389 = VECTOR( '', #452, 1000.00000000000 );
#390 = CARTESIAN_POINT( '', ( 4.00000000000000, -2.30940107675850, 0.000000000000000 ) );
#391 = CARTESIAN_POINT( '', ( 4.00000000000000, -2.30940107675850, 0.000000000000000 ) );
#392 = VECTOR( '', #453, 1000.00000000000 );
#393 = CARTESIAN_POINT( '', ( 4.00000000000000, -1.15470053837925, 2.00000000000000 ) );
#394 = VECTOR( '', #454, 1000.00000000000 );
#395 = COLOUR_RGB( '', 0.689999997600000, 0.689999997600000, 0.689999997600000 );
#396 = CARTESIAN_POINT( '', ( 0.000000000000000, 1.15470053837925, 2.00000000000000 ) );
#397 = CARTESIAN_POINT( '', ( 0.000000000000000, -1.15470053837925, 2.00000000000000 ) );
#398 = CARTESIAN_POINT( '', ( 0.000000000000000, 1.15470053837925, 2.00000000000000 ) );
#399 = VECTOR( '', #455, 1000.00000000000 );
#400 = CARTESIAN_POINT( '', ( 0.000000000000000, -2.30940107675850, 0.000000000000000 ) );
#401 = CARTESIAN_POINT( '', ( 0.000000000000000, -1.15470053837925, 2.00000000000000 ) );
#402 = VECTOR( '', #456, 1000.00000000000 );
#403 = CARTESIAN_POINT( '', ( 0.000000000000000, -1.15470053837925, -2.00000000000000 ) );
#404 = CARTESIAN_POINT( '', ( 0.000000000000000, -2.30940107675850, 0.000000000000000 ) );
#405 = VECTOR( '', #457, 1000.00000000000 );
#406 = CARTESIAN_POINT( '', ( 0.000000000000000, 1.15470053837925, -2.00000000000000 ) );
#407 = CARTESIAN_POINT( '', ( 0.000000000000000, -1.15470053837925, -2.00000000000000 ) );
#408 = VECTOR( '', #458, 1000.00000000000 );
#409 = CARTESIAN_POINT( '', ( 0.000000000000000, 2.30940107675850, 0.000000000000000 ) );
#410 = CARTESIAN_POINT( '', ( 0.000000000000000, 1.15470053837925, -2.00000000000000 ) );
#411 = VECTOR( '', #459, 1000.00000000000 );
#412 = CARTESIAN_POINT( '', ( 0.000000000000000, 2.30940107675850, 0.000000000000000 ) );
#413 = VECTOR( '', #460, 1000.00000000000 );
#414 = COLOUR_RGB( '', 0.689999997600000, 0.689999997600000, 0.689999997600000 );
#415 = CARTESIAN_POINT( '', ( 4.00000000000000, 1.15470053837925, 2.00000000000000 ) );
#416 = VECTOR( '', #461, 1000.00000000000 );
#417 = CARTESIAN_POINT( '', ( 4.00000000000000, -1.15470053837925, 2.00000000000000 ) );
#418 = VECTOR( '', #462, 1000.00000000000 );
#419 = COLOUR_RGB( '', 0.689999997600000, 0.689999997600000, 0.689999997600000 );
#420 = COLOUR_RGB( '', 0.689999997600000, 0.689999997600000, 0.689999997600000 );
#421 = CARTESIAN_POINT( '', ( 4.00000000000000, 2.30940107675850, 0.000000000000000 ) );
#422 = VECTOR( '', #463, 1000.00000000000 );
#423 = COLOUR_RGB( '', 0.689999997600000, 0.689999997600000, 0.689999997600000 );
#424 = CARTESIAN_POINT( '', ( 45.2000000000000, 0.000000000000000, -2.40000000000000 ) );
#425 = AXIS2_PLACEMENT_3D( '', #464, #465, #466 );
#426 = COLOUR_RGB( '', 0.689999997600000, 0.689999997600000, 0.689999997600000 );
#427 = CARTESIAN_POINT( '', ( 4.00000000000000, -2.30940107675850, 0.000000000000000 ) );
#428 = VECTOR( '', #467, 1000.00000000000 );
#429 = COLOUR_RGB( '', 0.689999997600000, 0.689999997600000, 0.689999997600000 );
#430 = CARTESIAN_POINT( '', ( 4.00000000000000, 1.15470053837925, -2.00000000000000 ) );
#431 = VECTOR( '', #468, 1000.00000000000 );
#432 = COLOUR_RGB( '', 0.689999997600000, 0.689999997600000, 0.689999997600000 );
#433 = CARTESIAN_POINT( '', ( 4.00000000000000, -1.15470053837925, -2.00000000000000 ) );
#434 = VECTOR( '', #469, 1000.00000000000 );
#435 = COLOUR_RGB( '', 0.689999997600000, 0.689999997600000, 0.689999997600000 );
#436 = COLOUR_RGB( '', 0.689999997600000, 0.689999997600000, 0.689999997600000 );
#437 = CARTESIAN_POINT( '', ( 44.2000000000000, 0.000000000000000, 0.000000000000000 ) );
#438 = DIRECTION( '', ( 1.00000000000000, 0.000000000000000, -0.000000000000000 ) );
#439 = DIRECTION( '', ( -0.000000000000000, 0.000000000000000, -1.00000000000000 ) );
#440 = CARTESIAN_POINT( '', ( 42.6000000000000, 0.000000000000000, 0.000000000000000 ) );
#441 = DIRECTION( '', ( 1.00000000000000, 0.000000000000000, -0.000000000000000 ) );
#442 = DIRECTION( '', ( -0.000000000000000, 0.000000000000000, -1.00000000000000 ) );
#443 = CARTESIAN_POINT( '', ( 0.766999999999997, 0.000000000000000, 0.000000000000000 ) );
#444 = DIRECTION( '', ( 1.00000000000000, 0.000000000000000, -0.000000000000000 ) );
#445 = DIRECTION( '', ( -0.000000000000000, 0.000000000000000, -1.00000000000000 ) );
#446 = CARTESIAN_POINT( '', ( 0.000000000000000, 0.000000000000000, 0.000000000000000 ) );
#447 = DIRECTION( '', ( 1.00000000000000, 0.000000000000000, -0.000000000000000 ) );
#448 = DIRECTION( '', ( -0.000000000000000, 0.000000000000000, -1.00000000000000 ) );
#449 = DIRECTION( '', ( 0.000000000000000, -1.00000000000000, 0.000000000000000 ) );
#450 = DIRECTION( '', ( 0.000000000000000, -0.500000000000000, 0.866025403784439 ) );
#451 = DIRECTION( '', ( 0.000000000000000, 0.500000000000000, 0.866025403784439 ) );
#452 = DIRECTION( '', ( 0.000000000000000, 1.00000000000000, 0.000000000000000 ) );
#453 = DIRECTION( '', ( 0.000000000000000, 0.500000000000000, -0.866025403784439 ) );
#454 = DIRECTION( '', ( 0.000000000000000, -0.500000000000000, -0.866025403784439 ) );
#455 = DIRECTION( '', ( 0.000000000000000, -1.00000000000000, 0.000000000000000 ) );
#456 = DIRECTION( '', ( 0.000000000000000, -0.500000000000000, -0.866025403784439 ) );
#457 = DIRECTION( '', ( 0.000000000000000, 0.500000000000000, -0.866025403784439 ) );
#458 = DIRECTION( '', ( 0.000000000000000, 1.00000000000000, 0.000000000000000 ) );
#459 = DIRECTION( '', ( 0.000000000000000, 0.500000000000000, 0.866025403784439 ) );
#460 = DIRECTION( '', ( 0.000000000000000, -0.500000000000000, 0.866025403784439 ) );
#461 = DIRECTION( '', ( -1.00000000000000, -0.000000000000000, -0.000000000000000 ) );
#462 = DIRECTION( '', ( -1.00000000000000, -0.000000000000000, -0.000000000000000 ) );
#463 = DIRECTION( '', ( -1.00000000000000, -0.000000000000000, -0.000000000000000 ) );
#464 = CARTESIAN_POINT( '', ( 45.2000000000000, 0.000000000000000, 0.000000000000000 ) );
#465 = DIRECTION( '', ( 1.00000000000000, 0.000000000000000, -0.000000000000000 ) );
#466 = DIRECTION( '', ( -0.000000000000000, 0.000000000000000, -1.00000000000000 ) );
#467 = DIRECTION( '', ( -1.00000000000000, -0.000000000000000, -0.000000000000000 ) );
#468 = DIRECTION( '', ( -1.00000000000000, -0.000000000000000, -0.000000000000000 ) );
#469 = DIRECTION( '', ( -1.00000000000000, -0.000000000000000, -0.000000000000000 ) );
ENDSEC;
END-ISO-10303-21;
