ISO-10303-21;
HEADER;
FILE_DESCRIPTION( ( 'STEP AP214' ), '1' );
FILE_NAME( '//goodhand-server/Shared Folders/GoodHand Data/Kipp CAD/K0390/K0390.101X50.stp', '2020-12-07T10:15:35', ( '' ), ( '' ), ' ', 'PARTsolutions', ' ' );
FILE_SCHEMA( ( 'AUTOMOTIVE_DESIGN { 1 0 10303 214 1 1 1 1 }' ) );
ENDSEC;
DATA;
#1 = MECHANICAL_DESIGN_GEOMETRIC_PRESENTATION_REPRESENTATION( ' ', ( #10, #11, #12, #13, #14, #15, #16, #17, #18, #19, #20, #21, #22 ), #6 );
#2 = PRODUCT_DEFINITION_CONTEXT( '', #23, 'design' );
#3 = APPLICATION_PROTOCOL_DEFINITION( 'international standard', 'automotive_design', 2001, #23 );
#4 = PRODUCT_CATEGORY_RELATIONSHIP( 'NONE', 'NONE', #24, #25 );
#5 = SHAPE_DEFINITION_REPRESENTATION( #26, #27 );
#6 =  ( GEOMETRIC_REPRESENTATION_CONTEXT( 3 )GLOBAL_UNCERTAINTY_ASSIGNED_CONTEXT( ( #30 ) )GLOBAL_UNIT_ASSIGNED_CONTEXT( ( #32, #33, #34 ) )REPRESENTATION_CONTEXT( 'NONE', 'WORKSPACE' ) );
#10 = STYLED_ITEM( '', ( #36 ), #37 );
#11 = STYLED_ITEM( '', ( #38 ), #39 );
#12 = STYLED_ITEM( '', ( #40 ), #41 );
#13 = STYLED_ITEM( '', ( #42 ), #43 );
#14 = STYLED_ITEM( '', ( #44 ), #45 );
#15 = STYLED_ITEM( '', ( #46 ), #47 );
#16 = STYLED_ITEM( '', ( #48 ), #49 );
#17 = STYLED_ITEM( '', ( #50 ), #51 );
#18 = STYLED_ITEM( '', ( #52 ), #53 );
#19 = STYLED_ITEM( '', ( #54 ), #55 );
#20 = STYLED_ITEM( '', ( #56 ), #57 );
#21 = STYLED_ITEM( '', ( #58 ), #59 );
#22 = STYLED_ITEM( '', ( #60 ), #61 );
#23 = APPLICATION_CONTEXT( 'core data for automotive mechanical design processes' );
#24 = PRODUCT_CATEGORY( 'part', 'NONE' );
#25 = PRODUCT_RELATED_PRODUCT_CATEGORY( 'detail', ' ', ( #62 ) );
#26 = PRODUCT_DEFINITION_SHAPE( 'NONE', 'NONE', #63 );
#27 = ADVANCED_BREP_SHAPE_REPRESENTATION( '_K0390.101X50', ( #64, #65 ), #6 );
#30 = UNCERTAINTY_MEASURE_WITH_UNIT( LENGTH_MEASURE( 0.00100000000000000 ), #32, '', '' );
#32 =  ( CONVERSION_BASED_UNIT( 'MILLIMETRE', #68 )LENGTH_UNIT(  )NAMED_UNIT( #71 ) );
#33 =  ( NAMED_UNIT( #73 )PLANE_ANGLE_UNIT(  )SI_UNIT( $, .RADIAN. ) );
#34 =  ( NAMED_UNIT( #73 )SI_UNIT( $, .STERADIAN. )SOLID_ANGLE_UNIT(  ) );
#36 = PRESENTATION_STYLE_ASSIGNMENT( ( #79 ) );
#37 = ADVANCED_FACE( '', ( #80 ), #81, .T. );
#38 = PRESENTATION_STYLE_ASSIGNMENT( ( #82 ) );
#39 = ADVANCED_FACE( '', ( #83, #84 ), #85, .T. );
#40 = PRESENTATION_STYLE_ASSIGNMENT( ( #86 ) );
#41 = ADVANCED_FACE( '', ( #87, #88 ), #89, .T. );
#42 = PRESENTATION_STYLE_ASSIGNMENT( ( #90 ) );
#43 = ADVANCED_FACE( '', ( #91 ), #92, .F. );
#44 = PRESENTATION_STYLE_ASSIGNMENT( ( #93 ) );
#45 = ADVANCED_FACE( '', ( #94 ), #95, .F. );
#46 = PRESENTATION_STYLE_ASSIGNMENT( ( #96 ) );
#47 = ADVANCED_FACE( '', ( #97, #98 ), #99, .T. );
#48 = PRESENTATION_STYLE_ASSIGNMENT( ( #100 ) );
#49 = ADVANCED_FACE( '', ( #101 ), #102, .F. );
#50 = PRESENTATION_STYLE_ASSIGNMENT( ( #103 ) );
#51 = ADVANCED_FACE( '', ( #104, #105 ), #106, .T. );
#52 = PRESENTATION_STYLE_ASSIGNMENT( ( #107 ) );
#53 = ADVANCED_FACE( '', ( #108, #109 ), #110, .F. );
#54 = PRESENTATION_STYLE_ASSIGNMENT( ( #111 ) );
#55 = ADVANCED_FACE( '', ( #112 ), #113, .T. );
#56 = PRESENTATION_STYLE_ASSIGNMENT( ( #114 ) );
#57 = ADVANCED_FACE( '', ( #115 ), #116, .T. );
#58 = PRESENTATION_STYLE_ASSIGNMENT( ( #117 ) );
#59 = ADVANCED_FACE( '', ( #118, #119 ), #120, .T. );
#60 = PRESENTATION_STYLE_ASSIGNMENT( ( #121 ) );
#61 = ADVANCED_FACE( '', ( #122 ), #123, .F. );
#62 = PRODUCT( '_K0390.101X50', '_K0390.101X50', 'PART-_K0390.101X50-DESC', ( #124 ) );
#63 = PRODUCT_DEFINITION( 'NONE', 'NONE', #125, #2 );
#64 = MANIFOLD_SOLID_BREP( '_K0390.101X50', #126 );
#65 = AXIS2_PLACEMENT_3D( '', #127, #128, #129 );
#68 = LENGTH_MEASURE_WITH_UNIT( LENGTH_MEASURE( 1.00000000000000 ), #130 );
#71 = DIMENSIONAL_EXPONENTS( 1.00000000000000, 0.000000000000000, 0.000000000000000, 0.000000000000000, 0.000000000000000, 0.000000000000000, 0.000000000000000 );
#73 = DIMENSIONAL_EXPONENTS( 0.000000000000000, 0.000000000000000, 0.000000000000000, 0.000000000000000, 0.000000000000000, 0.000000000000000, 0.000000000000000 );
#79 = SURFACE_STYLE_USAGE( .BOTH., #131 );
#80 = FACE_OUTER_BOUND( '', #132, .T. );
#81 = CONICAL_SURFACE( '', #133, 4.08000000000000, 0.785398163400000 );
#82 = SURFACE_STYLE_USAGE( .BOTH., #134 );
#83 = FACE_BOUND( '', #135, .T. );
#84 = FACE_OUTER_BOUND( '', #136, .T. );
#85 = SPHERICAL_SURFACE( '', #137, 6.70960000000000 );
#86 = SURFACE_STYLE_USAGE( .BOTH., #138 );
#87 = FACE_OUTER_BOUND( '', #139, .T. );
#88 = FACE_OUTER_BOUND( '', #140, .T. );
#89 = CYLINDRICAL_SURFACE( '', #141, 4.00000000000000 );
#90 = SURFACE_STYLE_USAGE( .BOTH., #142 );
#91 = FACE_OUTER_BOUND( '', #143, .T. );
#92 = PLANE( '', #144 );
#93 = SURFACE_STYLE_USAGE( .BOTH., #145 );
#94 = FACE_OUTER_BOUND( '', #146, .T. );
#95 = PLANE( '', #147 );
#96 = SURFACE_STYLE_USAGE( .BOTH., #148 );
#97 = FACE_OUTER_BOUND( '', #149, .T. );
#98 = FACE_OUTER_BOUND( '', #150, .T. );
#99 = CYLINDRICAL_SURFACE( '', #151, 5.00000000000000 );
#100 = SURFACE_STYLE_USAGE( .BOTH., #152 );
#101 = FACE_OUTER_BOUND( '', #153, .T. );
#102 = PLANE( '', #154 );
#103 = SURFACE_STYLE_USAGE( .BOTH., #155 );
#104 = FACE_OUTER_BOUND( '', #156, .T. );
#105 = FACE_OUTER_BOUND( '', #157, .T. );
#106 = CYLINDRICAL_SURFACE( '', #158, 3.60000000000000 );
#107 = SURFACE_STYLE_USAGE( .BOTH., #159 );
#108 = FACE_OUTER_BOUND( '', #160, .T. );
#109 = FACE_BOUND( '', #161, .T. );
#110 = PLANE( '', #162 );
#111 = SURFACE_STYLE_USAGE( .BOTH., #163 );
#112 = FACE_OUTER_BOUND( '', #164, .T. );
#113 = CONICAL_SURFACE( '', #165, 4.08000000000000, 0.785398163400000 );
#114 = SURFACE_STYLE_USAGE( .BOTH., #166 );
#115 = FACE_OUTER_BOUND( '', #167, .T. );
#116 = PLANE( '', #168 );
#117 = SURFACE_STYLE_USAGE( .BOTH., #169 );
#118 = FACE_BOUND( '', #170, .T. );
#119 = FACE_OUTER_BOUND( '', #171, .T. );
#120 = CONICAL_SURFACE( '', #172, 5.00000000000000, 1.01679700410000 );
#121 = SURFACE_STYLE_USAGE( .BOTH., #173 );
#122 = FACE_OUTER_BOUND( '', #174, .T. );
#123 = PLANE( '', #175 );
#124 = PRODUCT_CONTEXT( '', #23, 'mechanical' );
#125 = PRODUCT_DEFINITION_FORMATION_WITH_SPECIFIED_SOURCE( ' ', 'NONE', #62, .NOT_KNOWN. );
#126 = CLOSED_SHELL( '', ( #43, #49, #39, #41, #53, #51, #59, #47, #37, #61, #55, #45, #57 ) );
#127 = CARTESIAN_POINT( '', ( 0.000000000000000, 0.000000000000000, 0.000000000000000 ) );
#128 = DIRECTION( '', ( 0.000000000000000, 0.000000000000000, 1.00000000000000 ) );
#129 = DIRECTION( '', ( 1.00000000000000, 0.000000000000000, 0.000000000000000 ) );
#130 =  ( LENGTH_UNIT(  )NAMED_UNIT( #71 )SI_UNIT( .MILLI., .METRE. ) );
#131 = SURFACE_SIDE_STYLE( '', ( #177 ) );
#132 = EDGE_LOOP( '', ( #178, #179, #180, #181 ) );
#133 = AXIS2_PLACEMENT_3D( '', #182, #183, #184 );
#134 = SURFACE_SIDE_STYLE( '', ( #185 ) );
#135 = VERTEX_LOOP( '', #186 );
#136 = EDGE_LOOP( '', ( #187 ) );
#137 = AXIS2_PLACEMENT_3D( '', #188, #189, #190 );
#138 = SURFACE_SIDE_STYLE( '', ( #191 ) );
#139 = EDGE_LOOP( '', ( #192 ) );
#140 = EDGE_LOOP( '', ( #193 ) );
#141 = AXIS2_PLACEMENT_3D( '', #194, #195, #196 );
#142 = SURFACE_SIDE_STYLE( '', ( #197 ) );
#143 = EDGE_LOOP( '', ( #198, #199, #200, #201, #202, #203 ) );
#144 = AXIS2_PLACEMENT_3D( '', #204, #205, #206 );
#145 = SURFACE_SIDE_STYLE( '', ( #207 ) );
#146 = EDGE_LOOP( '', ( #208, #209 ) );
#147 = AXIS2_PLACEMENT_3D( '', #210, #211, #212 );
#148 = SURFACE_SIDE_STYLE( '', ( #213 ) );
#149 = EDGE_LOOP( '', ( #214 ) );
#150 = EDGE_LOOP( '', ( #215, #216, #217, #218, #219, #220, #221, #222 ) );
#151 = AXIS2_PLACEMENT_3D( '', #223, #224, #225 );
#152 = SURFACE_SIDE_STYLE( '', ( #226 ) );
#153 = EDGE_LOOP( '', ( #227, #228, #229, #230, #231, #232 ) );
#154 = AXIS2_PLACEMENT_3D( '', #233, #234, #235 );
#155 = SURFACE_SIDE_STYLE( '', ( #236 ) );
#156 = EDGE_LOOP( '', ( #237 ) );
#157 = EDGE_LOOP( '', ( #238 ) );
#158 = AXIS2_PLACEMENT_3D( '', #239, #240, #241 );
#159 = SURFACE_SIDE_STYLE( '', ( #242 ) );
#160 = EDGE_LOOP( '', ( #243 ) );
#161 = EDGE_LOOP( '', ( #244 ) );
#162 = AXIS2_PLACEMENT_3D( '', #245, #246, #247 );
#163 = SURFACE_SIDE_STYLE( '', ( #248 ) );
#164 = EDGE_LOOP( '', ( #249, #250, #251, #252 ) );
#165 = AXIS2_PLACEMENT_3D( '', #253, #254, #255 );
#166 = SURFACE_SIDE_STYLE( '', ( #256 ) );
#167 = EDGE_LOOP( '', ( #257, #258, #259, #260 ) );
#168 = AXIS2_PLACEMENT_3D( '', #261, #262, #263 );
#169 = SURFACE_SIDE_STYLE( '', ( #264 ) );
#170 = EDGE_LOOP( '', ( #265 ) );
#171 = EDGE_LOOP( '', ( #266 ) );
#172 = AXIS2_PLACEMENT_3D( '', #267, #268, #269 );
#173 = SURFACE_SIDE_STYLE( '', ( #270 ) );
#174 = EDGE_LOOP( '', ( #271, #272 ) );
#175 = AXIS2_PLACEMENT_3D( '', #273, #274, #275 );
#177 = SURFACE_STYLE_FILL_AREA( #276 );
#178 = ORIENTED_EDGE( '', *, *, #277, .T. );
#179 = ORIENTED_EDGE( '', *, *, #278, .T. );
#180 = ORIENTED_EDGE( '', *, *, #279, .F. );
#181 = ORIENTED_EDGE( '', *, *, #280, .T. );
#182 = CARTESIAN_POINT( '', ( 0.000000000000000, 4.83797383726863E-15, 0.000000000000000 ) );
#183 = DIRECTION( '', ( 1.00000000000000, -6.12323399573676E-17, -0.000000000000000 ) );
#184 = DIRECTION( '', ( 6.12323399573676E-17, 1.00000000000000, 0.000000000000000 ) );
#185 = SURFACE_STYLE_FILL_AREA( #281 );
#186 = VERTEX_POINT( '', #282 );
#187 = ORIENTED_EDGE( '', *, *, #283, .T. );
#188 = CARTESIAN_POINT( '', ( 43.2904000000001, 2.42861286636753E-14, 0.000000000000000 ) );
#189 = DIRECTION( '', ( 1.00000000000000, 0.000000000000000, 0.000000000000000 ) );
#190 = DIRECTION( '', ( 0.000000000000000, -1.00000000000000, 0.000000000000000 ) );
#191 = SURFACE_STYLE_FILL_AREA( #284 );
#192 = ORIENTED_EDGE( '', *, *, #283, .F. );
#193 = ORIENTED_EDGE( '', *, *, #285, .T. );
#194 = CARTESIAN_POINT( '', ( 50.0000000000000, 1.77635683940025E-15, 0.000000000000000 ) );
#195 = DIRECTION( '', ( -1.00000000000000, 6.12323399573676E-17, 0.000000000000000 ) );
#196 = DIRECTION( '', ( 6.12323399573676E-17, 1.00000000000000, 0.000000000000000 ) );
#197 = SURFACE_STYLE_FILL_AREA( #286 );
#198 = ORIENTED_EDGE( '', *, *, #278, .F. );
#199 = ORIENTED_EDGE( '', *, *, #287, .T. );
#200 = ORIENTED_EDGE( '', *, *, #280, .F. );
#201 = ORIENTED_EDGE( '', *, *, #288, .F. );
#202 = ORIENTED_EDGE( '', *, *, #289, .F. );
#203 = ORIENTED_EDGE( '', *, *, #290, .F. );
#204 = CARTESIAN_POINT( '', ( 3.00000000000000, 0.900000000000005, 10.5000000000000 ) );
#205 = DIRECTION( '', ( 0.000000000000000, 1.00000000000000, 0.000000000000000 ) );
#206 = DIRECTION( '', ( 0.000000000000000, -0.000000000000000, 1.00000000000000 ) );
#207 = SURFACE_STYLE_FILL_AREA( #291 );
#208 = ORIENTED_EDGE( '', *, *, #277, .F. );
#209 = ORIENTED_EDGE( '', *, *, #287, .F. );
#210 = CARTESIAN_POINT( '', ( -1.24913973513030E-16, 4.83797383726863E-15, 0.000000000000000 ) );
#211 = DIRECTION( '', ( 1.00000000000000, -6.12323399573676E-17, -0.000000000000000 ) );
#212 = DIRECTION( '', ( 6.12323399573676E-17, 1.00000000000000, 0.000000000000000 ) );
#213 = SURFACE_STYLE_FILL_AREA( #292 );
#214 = ORIENTED_EDGE( '', *, *, #293, .F. );
#215 = ORIENTED_EDGE( '', *, *, #294, .T. );
#216 = ORIENTED_EDGE( '', *, *, #295, .T. );
#217 = ORIENTED_EDGE( '', *, *, #296, .F. );
#218 = ORIENTED_EDGE( '', *, *, #288, .T. );
#219 = ORIENTED_EDGE( '', *, *, #279, .T. );
#220 = ORIENTED_EDGE( '', *, *, #290, .T. );
#221 = ORIENTED_EDGE( '', *, *, #297, .F. );
#222 = ORIENTED_EDGE( '', *, *, #298, .T. );
#223 = CARTESIAN_POINT( '', ( 50.0000000000000, 1.77635683940025E-15, 0.000000000000000 ) );
#224 = DIRECTION( '', ( -1.00000000000000, 6.12323399573676E-17, 0.000000000000000 ) );
#225 = DIRECTION( '', ( 6.12323399573676E-17, 1.00000000000000, 0.000000000000000 ) );
#226 = SURFACE_STYLE_FILL_AREA( #299 );
#227 = ORIENTED_EDGE( '', *, *, #300, .T. );
#228 = ORIENTED_EDGE( '', *, *, #301, .F. );
#229 = ORIENTED_EDGE( '', *, *, #298, .F. );
#230 = ORIENTED_EDGE( '', *, *, #302, .F. );
#231 = ORIENTED_EDGE( '', *, *, #295, .F. );
#232 = ORIENTED_EDGE( '', *, *, #303, .F. );
#233 = CARTESIAN_POINT( '', ( 3.00000000000000, -0.899999999999995, -10.5000000000000 ) );
#234 = DIRECTION( '', ( 0.000000000000000, -1.00000000000000, 0.000000000000000 ) );
#235 = DIRECTION( '', ( 0.000000000000000, 0.000000000000000, -1.00000000000000 ) );
#236 = SURFACE_STYLE_FILL_AREA( #304 );
#237 = ORIENTED_EDGE( '', *, *, #305, .F. );
#238 = ORIENTED_EDGE( '', *, *, #306, .T. );
#239 = CARTESIAN_POINT( '', ( 50.0000000000000, 1.77635683940025E-15, 0.000000000000000 ) );
#240 = DIRECTION( '', ( -1.00000000000000, 6.12323399573676E-17, 0.000000000000000 ) );
#241 = DIRECTION( '', ( 6.12323399573676E-17, 1.00000000000000, 0.000000000000000 ) );
#242 = SURFACE_STYLE_FILL_AREA( #307 );
#243 = ORIENTED_EDGE( '', *, *, #285, .F. );
#244 = ORIENTED_EDGE( '', *, *, #305, .T. );
#245 = CARTESIAN_POINT( '', ( 45.5000000000000, 3.60000000000000, 0.000000000000000 ) );
#246 = DIRECTION( '', ( 1.00000000000000, -6.12323399573676E-17, -0.000000000000000 ) );
#247 = DIRECTION( '', ( 6.12323399573676E-17, 1.00000000000000, 0.000000000000000 ) );
#248 = SURFACE_STYLE_FILL_AREA( #308 );
#249 = ORIENTED_EDGE( '', *, *, #294, .F. );
#250 = ORIENTED_EDGE( '', *, *, #301, .T. );
#251 = ORIENTED_EDGE( '', *, *, #309, .T. );
#252 = ORIENTED_EDGE( '', *, *, #303, .T. );
#253 = CARTESIAN_POINT( '', ( 0.000000000000000, 4.83797383726863E-15, 0.000000000000000 ) );
#254 = DIRECTION( '', ( 1.00000000000000, -6.12323399573676E-17, -0.000000000000000 ) );
#255 = DIRECTION( '', ( 6.12323399573676E-17, 1.00000000000000, 0.000000000000000 ) );
#256 = SURFACE_STYLE_FILL_AREA( #310 );
#257 = ORIENTED_EDGE( '', *, *, #296, .T. );
#258 = ORIENTED_EDGE( '', *, *, #302, .T. );
#259 = ORIENTED_EDGE( '', *, *, #297, .T. );
#260 = ORIENTED_EDGE( '', *, *, #289, .T. );
#261 = CARTESIAN_POINT( '', ( 3.00000000000000, 0.000000000000000, 0.000000000000000 ) );
#262 = DIRECTION( '', ( -1.00000000000000, 0.000000000000000, 0.000000000000000 ) );
#263 = DIRECTION( '', ( 0.000000000000000, 0.000000000000000, 1.00000000000000 ) );
#264 = SURFACE_STYLE_FILL_AREA( #311 );
#265 = ORIENTED_EDGE( '', *, *, #306, .F. );
#266 = ORIENTED_EDGE( '', *, *, #293, .T. );
#267 = CARTESIAN_POINT( '', ( 41.0000000000000, 2.32744789901656E-15, 0.000000000000000 ) );
#268 = DIRECTION( '', ( -1.00000000000000, 6.12323399573676E-17, -0.000000000000000 ) );
#269 = DIRECTION( '', ( -6.12323399573676E-17, -1.00000000000000, 0.000000000000000 ) );
#270 = SURFACE_STYLE_FILL_AREA( #312 );
#271 = ORIENTED_EDGE( '', *, *, #309, .F. );
#272 = ORIENTED_EDGE( '', *, *, #300, .F. );
#273 = CARTESIAN_POINT( '', ( -1.24913973513030E-16, 4.83797383726863E-15, 0.000000000000000 ) );
#274 = DIRECTION( '', ( 1.00000000000000, -6.12323399573676E-17, -0.000000000000000 ) );
#275 = DIRECTION( '', ( 6.12323399573676E-17, 1.00000000000000, 0.000000000000000 ) );
#276 = FILL_AREA_STYLE( '', ( #313 ) );
#277 = EDGE_CURVE( '', #314, #315, #316, .T. );
#278 = EDGE_CURVE( '', #315, #317, #318, .T. );
#279 = EDGE_CURVE( '', #319, #317, #320, .T. );
#280 = EDGE_CURVE( '', #319, #314, #321, .T. );
#281 = FILL_AREA_STYLE( '', ( #322 ) );
#282 = CARTESIAN_POINT( '', ( 50.0000000000000, 2.34644396473194E-14, 0.000000000000000 ) );
#283 = EDGE_CURVE( '', #323, #323, #324, .T. );
#284 = FILL_AREA_STYLE( '', ( #325 ) );
#285 = EDGE_CURVE( '', #326, #326, #327, .T. );
#286 = FILL_AREA_STYLE( '', ( #328 ) );
#287 = EDGE_CURVE( '', #315, #314, #329, .T. );
#288 = EDGE_CURVE( '', #330, #319, #331, .F. );
#289 = EDGE_CURVE( '', #332, #330, #333, .T. );
#290 = EDGE_CURVE( '', #317, #332, #334, .T. );
#291 = FILL_AREA_STYLE( '', ( #335 ) );
#292 = FILL_AREA_STYLE( '', ( #336 ) );
#293 = EDGE_CURVE( '', #337, #337, #338, .T. );
#294 = EDGE_CURVE( '', #339, #340, #341, .T. );
#295 = EDGE_CURVE( '', #340, #342, #343, .T. );
#296 = EDGE_CURVE( '', #330, #342, #344, .T. );
#297 = EDGE_CURVE( '', #345, #332, #346, .T. );
#298 = EDGE_CURVE( '', #345, #339, #347, .F. );
#299 = FILL_AREA_STYLE( '', ( #348 ) );
#300 = EDGE_CURVE( '', #349, #350, #351, .T. );
#301 = EDGE_CURVE( '', #339, #350, #352, .T. );
#302 = EDGE_CURVE( '', #342, #345, #353, .T. );
#303 = EDGE_CURVE( '', #349, #340, #354, .T. );
#304 = FILL_AREA_STYLE( '', ( #355 ) );
#305 = EDGE_CURVE( '', #356, #356, #357, .T. );
#306 = EDGE_CURVE( '', #358, #358, #359, .T. );
#307 = FILL_AREA_STYLE( '', ( #360 ) );
#308 = FILL_AREA_STYLE( '', ( #361 ) );
#309 = EDGE_CURVE( '', #350, #349, #362, .T. );
#310 = FILL_AREA_STYLE( '', ( #363 ) );
#311 = FILL_AREA_STYLE( '', ( #364 ) );
#312 = FILL_AREA_STYLE( '', ( #365 ) );
#313 = FILL_AREA_STYLE_COLOUR( '', #366 );
#314 = VERTEX_POINT( '', #367 );
#315 = VERTEX_POINT( '', #368 );
#316 = CIRCLE( '', #369, 4.08000000000000 );
#317 = VERTEX_POINT( '', #370 );
#318 = B_SPLINE_CURVE_WITH_KNOTS( '', 3, ( #371, #372, #373, #374 ), .UNSPECIFIED., .F., .F., ( 4, 4 ), ( 0.0201757967681981, 0.0214894077203397 ), .UNSPECIFIED. );
#319 = VERTEX_POINT( '', #375 );
#320 = CIRCLE( '', #376, 5.00000000000000 );
#321 = B_SPLINE_CURVE_WITH_KNOTS( '', 3, ( #377, #378, #379, #380 ), .UNSPECIFIED., .F., .F., ( 4, 4 ), ( 0.00855302721908261, 0.00986748988713592 ), .UNSPECIFIED. );
#322 = FILL_AREA_STYLE_COLOUR( '', #381 );
#323 = VERTEX_POINT( '', #382 );
#324 = CIRCLE( '', #383, 4.00000000000000 );
#325 = FILL_AREA_STYLE_COLOUR( '', #384 );
#326 = VERTEX_POINT( '', #385 );
#327 = CIRCLE( '', #386, 4.00000000000000 );
#328 = FILL_AREA_STYLE_COLOUR( '', #387 );
#329 = LINE( '', #388, #389 );
#330 = VERTEX_POINT( '', #390 );
#331 = LINE( '', #391, #392 );
#332 = VERTEX_POINT( '', #393 );
#333 = LINE( '', #394, #395 );
#334 = LINE( '', #396, #397 );
#335 = FILL_AREA_STYLE_COLOUR( '', #398 );
#336 = FILL_AREA_STYLE_COLOUR( '', #399 );
#337 = VERTEX_POINT( '', #400 );
#338 = CIRCLE( '', #401, 5.00000000000000 );
#339 = VERTEX_POINT( '', #402 );
#340 = VERTEX_POINT( '', #403 );
#341 = CIRCLE( '', #404, 5.00000000000000 );
#342 = VERTEX_POINT( '', #405 );
#343 = LINE( '', #406, #407 );
#344 = CIRCLE( '', #408, 5.00000000000000 );
#345 = VERTEX_POINT( '', #409 );
#346 = CIRCLE( '', #410, 5.00000000000000 );
#347 = LINE( '', #411, #412 );
#348 = FILL_AREA_STYLE_COLOUR( '', #413 );
#349 = VERTEX_POINT( '', #414 );
#350 = VERTEX_POINT( '', #415 );
#351 = LINE( '', #416, #417 );
#352 = B_SPLINE_CURVE_WITH_KNOTS( '', 3, ( #418, #419, #420, #421 ), .UNSPECIFIED., .F., .F., ( 4, 4 ), ( 0.00855302721908261, 0.00986748988713592 ), .UNSPECIFIED. );
#353 = LINE( '', #422, #423 );
#354 = B_SPLINE_CURVE_WITH_KNOTS( '', 3, ( #424, #425, #426, #427 ), .UNSPECIFIED., .F., .F., ( 4, 4 ), ( 0.0201757967681981, 0.0214894077203397 ), .UNSPECIFIED. );
#355 = FILL_AREA_STYLE_COLOUR( '', #428 );
#356 = VERTEX_POINT( '', #429 );
#357 = CIRCLE( '', #430, 3.60000000000000 );
#358 = VERTEX_POINT( '', #431 );
#359 = CIRCLE( '', #432, 3.60000000000000 );
#360 = FILL_AREA_STYLE_COLOUR( '', #433 );
#361 = FILL_AREA_STYLE_COLOUR( '', #434 );
#362 = CIRCLE( '', #435, 4.08000000000000 );
#363 = FILL_AREA_STYLE_COLOUR( '', #436 );
#364 = FILL_AREA_STYLE_COLOUR( '', #437 );
#365 = FILL_AREA_STYLE_COLOUR( '', #438 );
#366 = COLOUR_RGB( '', 0.689999997600000, 0.689999997600000, 0.689999997600000 );
#367 = CARTESIAN_POINT( '', ( 0.000000000000000, 0.900000000000005, -3.97949745570970 ) );
#368 = CARTESIAN_POINT( '', ( 0.000000000000000, 0.900000000000005, 3.97949745570970 ) );
#369 = AXIS2_PLACEMENT_3D( '', #439, #440, #441 );
#370 = CARTESIAN_POINT( '', ( 0.920000000000004, 0.900000000000008, 4.91833305094317 ) );
#371 = CARTESIAN_POINT( '', ( 4.51898925834030E-16, 0.900000000000005, 3.97949745570970 ) );
#372 = CARTESIAN_POINT( '', ( 0.305938770650471, 0.900000000000005, 4.29316273584777 ) );
#373 = CARTESIAN_POINT( '', ( 0.612741841782415, 0.900000000000005, 4.60597299415660 ) );
#374 = CARTESIAN_POINT( '', ( 0.920000000000001, 0.900000000000005, 4.91833305094318 ) );
#375 = CARTESIAN_POINT( '', ( 0.920000000000004, 0.900000000000008, -4.91833305094317 ) );
#376 = AXIS2_PLACEMENT_3D( '', #442, #443, #444 );
#377 = CARTESIAN_POINT( '', ( 0.919999999999999, 0.900000000000005, -4.91833305094318 ) );
#378 = CARTESIAN_POINT( '', ( 0.612739261072119, 0.900000000000005, -4.60597037059464 ) );
#379 = CARTESIAN_POINT( '', ( 0.305935608496525, 0.900000000000005, -4.29315949383336 ) );
#380 = CARTESIAN_POINT( '', ( -4.19450492442836E-16, 0.900000000000005, -3.97949745570970 ) );
#381 = COLOUR_RGB( '', 0.689999997600000, 0.689999997600000, 0.689999997600000 );
#382 = CARTESIAN_POINT( '', ( 48.6773037637589, 4.00000000000000, 0.000000000000000 ) );
#383 = AXIS2_PLACEMENT_3D( '', #445, #446, #447 );
#384 = COLOUR_RGB( '', 0.689999997600000, 0.689999997600000, 0.689999997600000 );
#385 = CARTESIAN_POINT( '', ( 45.5000000000000, 4.00000000000000, 0.000000000000000 ) );
#386 = AXIS2_PLACEMENT_3D( '', #448, #449, #450 );
#387 = COLOUR_RGB( '', 0.689999997600000, 0.689999997600000, 0.689999997600000 );
#388 = CARTESIAN_POINT( '', ( 0.000000000000000, 0.900000000000005, 10.5000000000000 ) );
#389 = VECTOR( '', #451, 1000.00000000000 );
#390 = CARTESIAN_POINT( '', ( 3.00000000000000, 0.900000000000005, -4.91833305094317 ) );
#391 = CARTESIAN_POINT( '', ( 50.0000000000000, 0.900000000000005, -4.91833305094317 ) );
#392 = VECTOR( '', #452, 1000.00000000000 );
#393 = CARTESIAN_POINT( '', ( 3.00000000000000, 0.900000000000005, 4.91833305094317 ) );
#394 = CARTESIAN_POINT( '', ( 3.00000000000000, 0.900000000000005, 10.5000000000000 ) );
#395 = VECTOR( '', #453, 1000.00000000000 );
#396 = CARTESIAN_POINT( '', ( 50.0000000000000, 0.900000000000005, 4.91833305094317 ) );
#397 = VECTOR( '', #454, 1000.00000000000 );
#398 = COLOUR_RGB( '', 0.689999997600000, 0.689999997600000, 0.689999997600000 );
#399 = COLOUR_RGB( '', 0.689999997600000, 0.689999997600000, 0.689999997600000 );
#400 = CARTESIAN_POINT( '', ( 41.0000000000000, 5.00000000000000, 0.000000000000000 ) );
#401 = AXIS2_PLACEMENT_3D( '', #455, #456, #457 );
#402 = CARTESIAN_POINT( '', ( 0.920000000000004, -0.899999999999992, 4.91833305094317 ) );
#403 = CARTESIAN_POINT( '', ( 0.920000000000004, -0.899999999999992, -4.91833305094317 ) );
#404 = AXIS2_PLACEMENT_3D( '', #458, #459, #460 );
#405 = CARTESIAN_POINT( '', ( 3.00000000000000, -0.899999999999995, -4.91833305094317 ) );
#406 = CARTESIAN_POINT( '', ( 50.0000000000000, -0.899999999999995, -4.91833305094317 ) );
#407 = VECTOR( '', #461, 1000.00000000000 );
#408 = AXIS2_PLACEMENT_3D( '', #462, #463, #464 );
#409 = CARTESIAN_POINT( '', ( 3.00000000000000, -0.899999999999995, 4.91833305094317 ) );
#410 = AXIS2_PLACEMENT_3D( '', #465, #466, #467 );
#411 = CARTESIAN_POINT( '', ( 50.0000000000000, -0.899999999999995, 4.91833305094317 ) );
#412 = VECTOR( '', #468, 1000.00000000000 );
#413 = COLOUR_RGB( '', 0.689999997600000, 0.689999997600000, 0.689999997600000 );
#414 = CARTESIAN_POINT( '', ( 0.000000000000000, -0.899999999999995, -3.97949745570970 ) );
#415 = CARTESIAN_POINT( '', ( 0.000000000000000, -0.899999999999995, 3.97949745570970 ) );
#416 = CARTESIAN_POINT( '', ( 0.000000000000000, -0.899999999999995, -10.5000000000000 ) );
#417 = VECTOR( '', #469, 1000.00000000000 );
#418 = CARTESIAN_POINT( '', ( 0.920000000000000, -0.899999999999995, 4.91833305094318 ) );
#419 = CARTESIAN_POINT( '', ( 0.612739261072119, -0.899999999999995, 4.60597037059464 ) );
#420 = CARTESIAN_POINT( '', ( 0.305935608496526, -0.899999999999995, 4.29315949383336 ) );
#421 = CARTESIAN_POINT( '', ( 8.32824344662668E-16, -0.899999999999995, 3.97949745570970 ) );
#422 = CARTESIAN_POINT( '', ( 3.00000000000000, -0.899999999999995, -10.5000000000000 ) );
#423 = VECTOR( '', #470, 1000.00000000000 );
#424 = CARTESIAN_POINT( '', ( -2.97160596091840E-17, -0.899999999999995, -3.97949745570970 ) );
#425 = CARTESIAN_POINT( '', ( 0.305938770650470, -0.899999999999995, -4.29316273584777 ) );
#426 = CARTESIAN_POINT( '', ( 0.612741841782415, -0.899999999999995, -4.60597299415660 ) );
#427 = CARTESIAN_POINT( '', ( 0.920000000000001, -0.899999999999995, -4.91833305094318 ) );
#428 = COLOUR_RGB( '', 0.689999997600000, 0.689999997600000, 0.689999997600000 );
#429 = CARTESIAN_POINT( '', ( 45.5000000000000, 3.60000000000000, 0.000000000000000 ) );
#430 = AXIS2_PLACEMENT_3D( '', #471, #472, #473 );
#431 = CARTESIAN_POINT( '', ( 41.8660700000000, 3.60000000000000, 0.000000000000000 ) );
#432 = AXIS2_PLACEMENT_3D( '', #474, #475, #476 );
#433 = COLOUR_RGB( '', 0.689999997600000, 0.689999997600000, 0.689999997600000 );
#434 = COLOUR_RGB( '', 0.689999997600000, 0.689999997600000, 0.689999997600000 );
#435 = AXIS2_PLACEMENT_3D( '', #477, #478, #479 );
#436 = COLOUR_RGB( '', 0.689999997600000, 0.689999997600000, 0.689999997600000 );
#437 = COLOUR_RGB( '', 0.689999997600000, 0.689999997600000, 0.689999997600000 );
#438 = COLOUR_RGB( '', 0.689999997600000, 0.689999997600000, 0.689999997600000 );
#439 = CARTESIAN_POINT( '', ( 0.000000000000000, 4.83797383726863E-15, 0.000000000000000 ) );
#440 = DIRECTION( '', ( 1.00000000000000, -6.12323399573676E-17, -0.000000000000000 ) );
#441 = DIRECTION( '', ( 6.12323399573676E-17, 1.00000000000000, 0.000000000000000 ) );
#442 = CARTESIAN_POINT( '', ( 0.919999999999997, 4.78164008450786E-15, 0.000000000000000 ) );
#443 = DIRECTION( '', ( 1.00000000000000, -6.12323399573676E-17, -0.000000000000000 ) );
#444 = DIRECTION( '', ( 6.12323399573676E-17, 1.00000000000000, 0.000000000000000 ) );
#445 = CARTESIAN_POINT( '', ( 48.6773037637589, 1.85734862499809E-15, 0.000000000000000 ) );
#446 = DIRECTION( '', ( 1.00000000000000, -6.12323399573676E-17, -0.000000000000000 ) );
#447 = DIRECTION( '', ( 6.12323399573676E-17, 1.00000000000000, 0.000000000000000 ) );
#448 = CARTESIAN_POINT( '', ( 45.5000000000000, 2.05190236920840E-15, 0.000000000000000 ) );
#449 = DIRECTION( '', ( 1.00000000000000, -6.12323399573676E-17, -0.000000000000000 ) );
#450 = DIRECTION( '', ( 6.12323399573676E-17, 1.00000000000000, 0.000000000000000 ) );
#451 = DIRECTION( '', ( 0.000000000000000, 0.000000000000000, -1.00000000000000 ) );
#452 = DIRECTION( '', ( 1.00000000000000, -6.12323399573676E-17, -0.000000000000000 ) );
#453 = DIRECTION( '', ( 0.000000000000000, 0.000000000000000, -1.00000000000000 ) );
#454 = DIRECTION( '', ( 1.00000000000000, -6.12323399573676E-17, -0.000000000000000 ) );
#455 = CARTESIAN_POINT( '', ( 41.0000000000000, 2.32744789901656E-15, 0.000000000000000 ) );
#456 = DIRECTION( '', ( 1.00000000000000, -6.12323399573676E-17, -0.000000000000000 ) );
#457 = DIRECTION( '', ( 6.12323399573676E-17, 1.00000000000000, 0.000000000000000 ) );
#458 = CARTESIAN_POINT( '', ( 0.919999999999997, 4.78164008450786E-15, 0.000000000000000 ) );
#459 = DIRECTION( '', ( 1.00000000000000, -6.12323399573676E-17, -0.000000000000000 ) );
#460 = DIRECTION( '', ( 6.12323399573676E-17, 1.00000000000000, 0.000000000000000 ) );
#461 = DIRECTION( '', ( 1.00000000000000, -6.12323399573676E-17, -0.000000000000000 ) );
#462 = CARTESIAN_POINT( '', ( 3.00000000000000, 4.65427681739653E-15, 0.000000000000000 ) );
#463 = DIRECTION( '', ( -1.00000000000000, 0.000000000000000, 0.000000000000000 ) );
#464 = DIRECTION( '', ( 0.000000000000000, 0.000000000000000, 1.00000000000000 ) );
#465 = CARTESIAN_POINT( '', ( 3.00000000000000, 4.65427681739653E-15, 0.000000000000000 ) );
#466 = DIRECTION( '', ( -1.00000000000000, 0.000000000000000, 0.000000000000000 ) );
#467 = DIRECTION( '', ( 0.000000000000000, 0.000000000000000, 1.00000000000000 ) );
#468 = DIRECTION( '', ( 1.00000000000000, -6.12323399573676E-17, -0.000000000000000 ) );
#469 = DIRECTION( '', ( 0.000000000000000, 0.000000000000000, 1.00000000000000 ) );
#470 = DIRECTION( '', ( 0.000000000000000, 0.000000000000000, 1.00000000000000 ) );
#471 = CARTESIAN_POINT( '', ( 45.5000000000000, 2.05190236920840E-15, 0.000000000000000 ) );
#472 = DIRECTION( '', ( 1.00000000000000, -6.12323399573676E-17, -0.000000000000000 ) );
#473 = DIRECTION( '', ( 6.12323399573676E-17, 1.00000000000000, 0.000000000000000 ) );
#474 = CARTESIAN_POINT( '', ( 41.8660700000000, 2.27441640634968E-15, 0.000000000000000 ) );
#475 = DIRECTION( '', ( 1.00000000000000, -6.12323399573676E-17, -0.000000000000000 ) );
#476 = DIRECTION( '', ( 6.12323399573676E-17, 1.00000000000000, 0.000000000000000 ) );
#477 = CARTESIAN_POINT( '', ( 0.000000000000000, 4.83797383726863E-15, 0.000000000000000 ) );
#478 = DIRECTION( '', ( 1.00000000000000, -6.12323399573676E-17, -0.000000000000000 ) );
#479 = DIRECTION( '', ( 6.12323399573676E-17, 1.00000000000000, 0.000000000000000 ) );
ENDSEC;
END-ISO-10303-21;
