ISO-10303-21;
HEADER;
FILE_DESCRIPTION( ( 'STEP AP214' ), '1' );
FILE_NAME( '//goodhand-server/Shared Folders/GoodHand Data/Kipp CAD/K0298/K0298.215.stp', '2020-11-27T12:59:19', ( '' ), ( '' ), ' ', 'PARTsolutions', ' ' );
FILE_SCHEMA( ( 'AUTOMOTIVE_DESIGN { 1 0 10303 214 1 1 1 1 }' ) );
ENDSEC;
DATA;
#1 = MECHANICAL_DESIGN_GEOMETRIC_PRESENTATION_REPRESENTATION( ' ', ( #10, #11, #12, #13, #14, #15, #16, #17, #18, #19, #20, #21, #22, #23 ), #6 );
#2 = PRODUCT_DEFINITION_CONTEXT( '', #24, 'design' );
#3 = APPLICATION_PROTOCOL_DEFINITION( 'international standard', 'automotive_design', 2001, #24 );
#4 = PRODUCT_CATEGORY_RELATIONSHIP( 'NONE', 'NONE', #25, #26 );
#5 = SHAPE_DEFINITION_REPRESENTATION( #27, #28 );
#6 =  ( GEOMETRIC_REPRESENTATION_CONTEXT( 3 )GLOBAL_UNCERTAINTY_ASSIGNED_CONTEXT( ( #31 ) )GLOBAL_UNIT_ASSIGNED_CONTEXT( ( #33, #34, #35 ) )REPRESENTATION_CONTEXT( 'NONE', 'WORKSPACE' ) );
#10 = STYLED_ITEM( '', ( #37 ), #38 );
#11 = STYLED_ITEM( '', ( #39 ), #40 );
#12 = STYLED_ITEM( '', ( #41 ), #42 );
#13 = STYLED_ITEM( '', ( #43 ), #44 );
#14 = STYLED_ITEM( '', ( #45 ), #46 );
#15 = STYLED_ITEM( '', ( #47 ), #48 );
#16 = STYLED_ITEM( '', ( #49 ), #50 );
#17 = STYLED_ITEM( '', ( #51 ), #52 );
#18 = STYLED_ITEM( '', ( #53 ), #54 );
#19 = STYLED_ITEM( '', ( #55 ), #56 );
#20 = STYLED_ITEM( '', ( #57 ), #58 );
#21 = STYLED_ITEM( '', ( #59 ), #60 );
#22 = STYLED_ITEM( '', ( #61 ), #62 );
#23 = STYLED_ITEM( '', ( #63 ), #64 );
#24 = APPLICATION_CONTEXT( 'core data for automotive mechanical design processes' );
#25 = PRODUCT_CATEGORY( 'part', 'NONE' );
#26 = PRODUCT_RELATED_PRODUCT_CATEGORY( 'detail', ' ', ( #65 ) );
#27 = PRODUCT_DEFINITION_SHAPE( 'NONE', 'NONE', #66 );
#28 = ADVANCED_BREP_SHAPE_REPRESENTATION( '_K0298.215', ( #67, #68 ), #6 );
#31 = UNCERTAINTY_MEASURE_WITH_UNIT( LENGTH_MEASURE( 0.00100000000000000 ), #33, '', '' );
#33 =  ( CONVERSION_BASED_UNIT( 'MILLIMETRE', #71 )LENGTH_UNIT(  )NAMED_UNIT( #74 ) );
#34 =  ( NAMED_UNIT( #76 )PLANE_ANGLE_UNIT(  )SI_UNIT( $, .RADIAN. ) );
#35 =  ( NAMED_UNIT( #76 )SI_UNIT( $, .STERADIAN. )SOLID_ANGLE_UNIT(  ) );
#37 = PRESENTATION_STYLE_ASSIGNMENT( ( #82 ) );
#38 = ADVANCED_FACE( '', ( #83, #84 ), #85, .T. );
#39 = PRESENTATION_STYLE_ASSIGNMENT( ( #86 ) );
#40 = ADVANCED_FACE( '', ( #87 ), #88, .F. );
#41 = PRESENTATION_STYLE_ASSIGNMENT( ( #89 ) );
#42 = ADVANCED_FACE( '', ( #90, #91 ), #92, .F. );
#43 = PRESENTATION_STYLE_ASSIGNMENT( ( #93 ) );
#44 = ADVANCED_FACE( '', ( #94 ), #95, .F. );
#45 = PRESENTATION_STYLE_ASSIGNMENT( ( #96 ) );
#46 = ADVANCED_FACE( '', ( #97 ), #98, .F. );
#47 = PRESENTATION_STYLE_ASSIGNMENT( ( #99 ) );
#48 = ADVANCED_FACE( '', ( #100, #101 ), #102, .T. );
#49 = PRESENTATION_STYLE_ASSIGNMENT( ( #103 ) );
#50 = ADVANCED_FACE( '', ( #104, #105 ), #106, .T. );
#51 = PRESENTATION_STYLE_ASSIGNMENT( ( #107 ) );
#52 = ADVANCED_FACE( '', ( #108 ), #109, .F. );
#53 = PRESENTATION_STYLE_ASSIGNMENT( ( #110 ) );
#54 = ADVANCED_FACE( '', ( #111 ), #112, .F. );
#55 = PRESENTATION_STYLE_ASSIGNMENT( ( #113 ) );
#56 = ADVANCED_FACE( '', ( #114, #115 ), #116, .T. );
#57 = PRESENTATION_STYLE_ASSIGNMENT( ( #117 ) );
#58 = ADVANCED_FACE( '', ( #118, #119 ), #120, .T. );
#59 = PRESENTATION_STYLE_ASSIGNMENT( ( #121 ) );
#60 = ADVANCED_FACE( '', ( #122 ), #123, .F. );
#61 = PRESENTATION_STYLE_ASSIGNMENT( ( #124 ) );
#62 = ADVANCED_FACE( '', ( #125, #126 ), #127, .F. );
#63 = PRESENTATION_STYLE_ASSIGNMENT( ( #128 ) );
#64 = ADVANCED_FACE( '', ( #129 ), #130, .F. );
#65 = PRODUCT( '_K0298.215', '_K0298.215', 'PART-_K0298.215-DESC', ( #131 ) );
#66 = PRODUCT_DEFINITION( 'NONE', 'NONE', #132, #2 );
#67 = MANIFOLD_SOLID_BREP( '_K0298.215', #133 );
#68 = AXIS2_PLACEMENT_3D( '', #134, #135, #136 );
#71 = LENGTH_MEASURE_WITH_UNIT( LENGTH_MEASURE( 1.00000000000000 ), #137 );
#74 = DIMENSIONAL_EXPONENTS( 1.00000000000000, 0.000000000000000, 0.000000000000000, 0.000000000000000, 0.000000000000000, 0.000000000000000, 0.000000000000000 );
#76 = DIMENSIONAL_EXPONENTS( 0.000000000000000, 0.000000000000000, 0.000000000000000, 0.000000000000000, 0.000000000000000, 0.000000000000000, 0.000000000000000 );
#82 = SURFACE_STYLE_USAGE( .BOTH., #138 );
#83 = FACE_BOUND( '', #139, .T. );
#84 = FACE_OUTER_BOUND( '', #140, .T. );
#85 = SPHERICAL_SURFACE( '', #141, 60.0000000000000 );
#86 = SURFACE_STYLE_USAGE( .BOTH., #142 );
#87 = FACE_OUTER_BOUND( '', #143, .T. );
#88 = PLANE( '', #144 );
#89 = SURFACE_STYLE_USAGE( .BOTH., #145 );
#90 = FACE_BOUND( '', #146, .T. );
#91 = FACE_OUTER_BOUND( '', #147, .T. );
#92 = PLANE( '', #148 );
#93 = SURFACE_STYLE_USAGE( .BOTH., #149 );
#94 = FACE_OUTER_BOUND( '', #150, .T. );
#95 = PLANE( '', #151 );
#96 = SURFACE_STYLE_USAGE( .BOTH., #152 );
#97 = FACE_OUTER_BOUND( '', #153, .T. );
#98 = PLANE( '', #154 );
#99 = SURFACE_STYLE_USAGE( .BOTH., #155 );
#100 = FACE_OUTER_BOUND( '', #156, .T. );
#101 = FACE_OUTER_BOUND( '', #157, .T. );
#102 = CYLINDRICAL_SURFACE( '', #158, 4.70000000000000 );
#103 = SURFACE_STYLE_USAGE( .BOTH., #159 );
#104 = FACE_OUTER_BOUND( '', #160, .T. );
#105 = FACE_BOUND( '', #161, .T. );
#106 = CONICAL_SURFACE( '', #162, 4.83397459620000, 0.523598775600000 );
#107 = SURFACE_STYLE_USAGE( .BOTH., #163 );
#108 = FACE_OUTER_BOUND( '', #164, .T. );
#109 = PLANE( '', #165 );
#110 = SURFACE_STYLE_USAGE( .BOTH., #166 );
#111 = FACE_OUTER_BOUND( '', #167, .T. );
#112 = PLANE( '', #168 );
#113 = SURFACE_STYLE_USAGE( .BOTH., #169 );
#114 = FACE_OUTER_BOUND( '', #170, .T. );
#115 = FACE_OUTER_BOUND( '', #171, .T. );
#116 = CYLINDRICAL_SURFACE( '', #172, 6.00000000000000 );
#117 = SURFACE_STYLE_USAGE( .BOTH., #173 );
#118 = FACE_BOUND( '', #174, .T. );
#119 = FACE_OUTER_BOUND( '', #175, .T. );
#120 = CONICAL_SURFACE( '', #176, 6.00000000000000, 0.785398163400000 );
#121 = SURFACE_STYLE_USAGE( .BOTH., #177 );
#122 = FACE_OUTER_BOUND( '', #178, .T. );
#123 = PLANE( '', #179 );
#124 = SURFACE_STYLE_USAGE( .BOTH., #180 );
#125 = FACE_OUTER_BOUND( '', #181, .T. );
#126 = FACE_OUTER_BOUND( '', #182, .T. );
#127 = TOROIDAL_SURFACE( '', #183, 5.70000000000000, 1.00000000000000 );
#128 = SURFACE_STYLE_USAGE( .BOTH., #184 );
#129 = FACE_OUTER_BOUND( '', #185, .T. );
#130 = PLANE( '', #186 );
#131 = PRODUCT_CONTEXT( '', #24, 'mechanical' );
#132 = PRODUCT_DEFINITION_FORMATION_WITH_SPECIFIED_SOURCE( ' ', 'NONE', #65, .NOT_KNOWN. );
#133 = CLOSED_SHELL( '', ( #42, #48, #62, #50, #56, #58, #44, #60, #52, #54, #46, #40, #64, #38 ) );
#134 = CARTESIAN_POINT( '', ( 0.000000000000000, 0.000000000000000, 0.000000000000000 ) );
#135 = DIRECTION( '', ( 0.000000000000000, 0.000000000000000, 1.00000000000000 ) );
#136 = DIRECTION( '', ( 1.00000000000000, 0.000000000000000, 0.000000000000000 ) );
#137 =  ( LENGTH_UNIT(  )NAMED_UNIT( #74 )SI_UNIT( .MILLI., .METRE. ) );
#138 = SURFACE_SIDE_STYLE( '', ( #188 ) );
#139 = VERTEX_LOOP( '', #189 );
#140 = EDGE_LOOP( '', ( #190, #191, #192, #193, #194, #195 ) );
#141 = AXIS2_PLACEMENT_3D( '', #196, #197, #198 );
#142 = SURFACE_SIDE_STYLE( '', ( #199 ) );
#143 = EDGE_LOOP( '', ( #200, #201, #202, #203 ) );
#144 = AXIS2_PLACEMENT_3D( '', #204, #205, #206 );
#145 = SURFACE_SIDE_STYLE( '', ( #207 ) );
#146 = EDGE_LOOP( '', ( #208 ) );
#147 = EDGE_LOOP( '', ( #209, #210, #211, #212, #213, #214 ) );
#148 = AXIS2_PLACEMENT_3D( '', #215, #216, #217 );
#149 = SURFACE_SIDE_STYLE( '', ( #218 ) );
#150 = EDGE_LOOP( '', ( #219 ) );
#151 = AXIS2_PLACEMENT_3D( '', #220, #221, #222 );
#152 = SURFACE_SIDE_STYLE( '', ( #223 ) );
#153 = EDGE_LOOP( '', ( #224, #225, #226, #227 ) );
#154 = AXIS2_PLACEMENT_3D( '', #228, #229, #230 );
#155 = SURFACE_SIDE_STYLE( '', ( #231 ) );
#156 = EDGE_LOOP( '', ( #232 ) );
#157 = EDGE_LOOP( '', ( #233 ) );
#158 = AXIS2_PLACEMENT_3D( '', #234, #235, #236 );
#159 = SURFACE_SIDE_STYLE( '', ( #237 ) );
#160 = EDGE_LOOP( '', ( #238 ) );
#161 = EDGE_LOOP( '', ( #239 ) );
#162 = AXIS2_PLACEMENT_3D( '', #240, #241, #242 );
#163 = SURFACE_SIDE_STYLE( '', ( #243 ) );
#164 = EDGE_LOOP( '', ( #244, #245, #246, #247 ) );
#165 = AXIS2_PLACEMENT_3D( '', #248, #249, #250 );
#166 = SURFACE_SIDE_STYLE( '', ( #251 ) );
#167 = EDGE_LOOP( '', ( #252, #253, #254, #255 ) );
#168 = AXIS2_PLACEMENT_3D( '', #256, #257, #258 );
#169 = SURFACE_SIDE_STYLE( '', ( #259 ) );
#170 = EDGE_LOOP( '', ( #260 ) );
#171 = EDGE_LOOP( '', ( #261 ) );
#172 = AXIS2_PLACEMENT_3D( '', #262, #263, #264 );
#173 = SURFACE_SIDE_STYLE( '', ( #265 ) );
#174 = EDGE_LOOP( '', ( #266 ) );
#175 = EDGE_LOOP( '', ( #267 ) );
#176 = AXIS2_PLACEMENT_3D( '', #268, #269, #270 );
#177 = SURFACE_SIDE_STYLE( '', ( #271 ) );
#178 = EDGE_LOOP( '', ( #272, #273, #274, #275 ) );
#179 = AXIS2_PLACEMENT_3D( '', #276, #277, #278 );
#180 = SURFACE_SIDE_STYLE( '', ( #279 ) );
#181 = EDGE_LOOP( '', ( #280 ) );
#182 = EDGE_LOOP( '', ( #281 ) );
#183 = AXIS2_PLACEMENT_3D( '', #282, #283, #284 );
#184 = SURFACE_SIDE_STYLE( '', ( #285 ) );
#185 = EDGE_LOOP( '', ( #286, #287, #288, #289 ) );
#186 = AXIS2_PLACEMENT_3D( '', #290, #291, #292 );
#188 = SURFACE_STYLE_FILL_AREA( #293 );
#189 = VERTEX_POINT( '', #294 );
#190 = ORIENTED_EDGE( '', *, *, #295, .F. );
#191 = ORIENTED_EDGE( '', *, *, #296, .F. );
#192 = ORIENTED_EDGE( '', *, *, #297, .F. );
#193 = ORIENTED_EDGE( '', *, *, #298, .F. );
#194 = ORIENTED_EDGE( '', *, *, #299, .F. );
#195 = ORIENTED_EDGE( '', *, *, #300, .F. );
#196 = CARTESIAN_POINT( '', ( -9.54097911787244E-15, -45.0000000000004, 0.000000000000000 ) );
#197 = DIRECTION( '', ( 0.000000000000000, -1.00000000000000, 0.000000000000000 ) );
#198 = DIRECTION( '', ( 1.00000000000000, 0.000000000000000, 0.000000000000000 ) );
#199 = SURFACE_STYLE_FILL_AREA( #301 );
#200 = ORIENTED_EDGE( '', *, *, #300, .T. );
#201 = ORIENTED_EDGE( '', *, *, #302, .T. );
#202 = ORIENTED_EDGE( '', *, *, #303, .T. );
#203 = ORIENTED_EDGE( '', *, *, #304, .F. );
#204 = CARTESIAN_POINT( '', ( 0.000000000000000, 15.0000000000000, -12.7017059221718 ) );
#205 = DIRECTION( '', ( 0.500000000000000, -0.000000000000000, 0.866025403784439 ) );
#206 = DIRECTION( '', ( 0.866025403784439, 0.000000000000000, -0.500000000000000 ) );
#207 = SURFACE_STYLE_FILL_AREA( #305 );
#208 = ORIENTED_EDGE( '', *, *, #306, .F. );
#209 = ORIENTED_EDGE( '', *, *, #307, .F. );
#210 = ORIENTED_EDGE( '', *, *, #308, .F. );
#211 = ORIENTED_EDGE( '', *, *, #303, .F. );
#212 = ORIENTED_EDGE( '', *, *, #309, .F. );
#213 = ORIENTED_EDGE( '', *, *, #310, .T. );
#214 = ORIENTED_EDGE( '', *, *, #311, .F. );
#215 = CARTESIAN_POINT( '', ( 16.0000000000000, 0.000000000000000, 0.000000000000000 ) );
#216 = DIRECTION( '', ( 0.000000000000000, 1.00000000000000, 0.000000000000000 ) );
#217 = DIRECTION( '', ( 0.000000000000000, -0.000000000000000, 1.00000000000000 ) );
#218 = SURFACE_STYLE_FILL_AREA( #312 );
#219 = ORIENTED_EDGE( '', *, *, #313, .T. );
#220 = CARTESIAN_POINT( '', ( 4.92650000000000, -14.0000000000000, 0.000000000000000 ) );
#221 = DIRECTION( '', ( 0.000000000000000, 1.00000000000000, 0.000000000000000 ) );
#222 = DIRECTION( '', ( 0.000000000000000, -0.000000000000000, 1.00000000000000 ) );
#223 = SURFACE_STYLE_FILL_AREA( #314 );
#224 = ORIENTED_EDGE( '', *, *, #299, .T. );
#225 = ORIENTED_EDGE( '', *, *, #315, .T. );
#226 = ORIENTED_EDGE( '', *, *, #309, .T. );
#227 = ORIENTED_EDGE( '', *, *, #302, .F. );
#228 = CARTESIAN_POINT( '', ( 11.0000000000000, 15.0000000000000, -6.35085296108588 ) );
#229 = DIRECTION( '', ( -0.500000000000000, 0.000000000000000, 0.866025403784439 ) );
#230 = DIRECTION( '', ( 0.866025403784439, 0.000000000000000, 0.500000000000000 ) );
#231 = SURFACE_STYLE_FILL_AREA( #316 );
#232 = ORIENTED_EDGE( '', *, *, #317, .F. );
#233 = ORIENTED_EDGE( '', *, *, #306, .T. );
#234 = CARTESIAN_POINT( '', ( 0.000000000000000, -14.0000000000000, 0.000000000000000 ) );
#235 = DIRECTION( '', ( -0.000000000000000, 1.00000000000000, 0.000000000000000 ) );
#236 = DIRECTION( '', ( 0.000000000000000, 0.000000000000000, -1.00000000000000 ) );
#237 = SURFACE_STYLE_FILL_AREA( #318 );
#238 = ORIENTED_EDGE( '', *, *, #319, .F. );
#239 = ORIENTED_EDGE( '', *, *, #320, .T. );
#240 = CARTESIAN_POINT( '', ( 0.000000000000000, -2.28038475772934, 0.000000000000000 ) );
#241 = DIRECTION( '', ( -0.000000000000000, -1.00000000000000, -0.000000000000000 ) );
#242 = DIRECTION( '', ( 0.000000000000000, 0.000000000000000, -1.00000000000000 ) );
#243 = SURFACE_STYLE_FILL_AREA( #321 );
#244 = ORIENTED_EDGE( '', *, *, #297, .T. );
#245 = ORIENTED_EDGE( '', *, *, #322, .T. );
#246 = ORIENTED_EDGE( '', *, *, #311, .T. );
#247 = ORIENTED_EDGE( '', *, *, #323, .F. );
#248 = CARTESIAN_POINT( '', ( 0.000000000000000, 15.0000000000000, 12.7017059221718 ) );
#249 = DIRECTION( '', ( -0.500000000000000, 0.000000000000000, -0.866025403784439 ) );
#250 = DIRECTION( '', ( -0.866025403784439, 0.000000000000000, 0.500000000000000 ) );
#251 = SURFACE_STYLE_FILL_AREA( #324 );
#252 = ORIENTED_EDGE( '', *, *, #298, .T. );
#253 = ORIENTED_EDGE( '', *, *, #323, .T. );
#254 = ORIENTED_EDGE( '', *, *, #310, .F. );
#255 = ORIENTED_EDGE( '', *, *, #315, .F. );
#256 = CARTESIAN_POINT( '', ( 11.0000000000000, 15.0000000000000, 6.35085296108588 ) );
#257 = DIRECTION( '', ( -1.00000000000000, 0.000000000000000, 0.000000000000000 ) );
#258 = DIRECTION( '', ( 0.000000000000000, 0.000000000000000, 1.00000000000000 ) );
#259 = SURFACE_STYLE_FILL_AREA( #325 );
#260 = ORIENTED_EDGE( '', *, *, #326, .F. );
#261 = ORIENTED_EDGE( '', *, *, #319, .T. );
#262 = CARTESIAN_POINT( '', ( 0.000000000000000, -14.0000000000000, 0.000000000000000 ) );
#263 = DIRECTION( '', ( -0.000000000000000, 1.00000000000000, 0.000000000000000 ) );
#264 = DIRECTION( '', ( 0.000000000000000, 0.000000000000000, -1.00000000000000 ) );
#265 = SURFACE_STYLE_FILL_AREA( #327 );
#266 = ORIENTED_EDGE( '', *, *, #313, .F. );
#267 = ORIENTED_EDGE( '', *, *, #326, .T. );
#268 = CARTESIAN_POINT( '', ( 0.000000000000000, -12.9265000000000, 0.000000000000000 ) );
#269 = DIRECTION( '', ( -0.000000000000000, 1.00000000000000, 0.000000000000000 ) );
#270 = DIRECTION( '', ( 0.000000000000000, -0.000000000000000, 1.00000000000000 ) );
#271 = SURFACE_STYLE_FILL_AREA( #328 );
#272 = ORIENTED_EDGE( '', *, *, #296, .T. );
#273 = ORIENTED_EDGE( '', *, *, #329, .T. );
#274 = ORIENTED_EDGE( '', *, *, #307, .T. );
#275 = ORIENTED_EDGE( '', *, *, #322, .F. );
#276 = CARTESIAN_POINT( '', ( -11.0000000000000, 15.0000000000000, 6.35085296108588 ) );
#277 = DIRECTION( '', ( 0.500000000000000, 0.000000000000000, -0.866025403784439 ) );
#278 = DIRECTION( '', ( -0.866025403784439, 0.000000000000000, -0.500000000000000 ) );
#279 = SURFACE_STYLE_FILL_AREA( #330 );
#280 = ORIENTED_EDGE( '', *, *, #320, .F. );
#281 = ORIENTED_EDGE( '', *, *, #317, .T. );
#282 = CARTESIAN_POINT( '', ( 0.000000000000000, -1.78038475772934, 0.000000000000000 ) );
#283 = DIRECTION( '', ( 0.000000000000000, -1.00000000000000, -0.000000000000000 ) );
#284 = DIRECTION( '', ( 0.000000000000000, 0.000000000000000, -1.00000000000000 ) );
#285 = SURFACE_STYLE_FILL_AREA( #331 );
#286 = ORIENTED_EDGE( '', *, *, #295, .T. );
#287 = ORIENTED_EDGE( '', *, *, #304, .T. );
#288 = ORIENTED_EDGE( '', *, *, #308, .T. );
#289 = ORIENTED_EDGE( '', *, *, #329, .F. );
#290 = CARTESIAN_POINT( '', ( -11.0000000000000, 15.0000000000000, -6.35085296108588 ) );
#291 = DIRECTION( '', ( 1.00000000000000, 0.000000000000000, 0.000000000000000 ) );
#292 = DIRECTION( '', ( 0.000000000000000, 0.000000000000000, -1.00000000000000 ) );
#293 = FILL_AREA_STYLE( '', ( #332 ) );
#294 = CARTESIAN_POINT( '', ( -5.86703872043036E-15, 15.0000000000000, 0.000000000000000 ) );
#295 = EDGE_CURVE( '', #333, #334, #335, .F. );
#296 = EDGE_CURVE( '', #336, #333, #337, .F. );
#297 = EDGE_CURVE( '', #338, #336, #339, .F. );
#298 = EDGE_CURVE( '', #340, #338, #341, .F. );
#299 = EDGE_CURVE( '', #342, #340, #343, .F. );
#300 = EDGE_CURVE( '', #334, #342, #344, .F. );
#301 = FILL_AREA_STYLE( '', ( #345 ) );
#302 = EDGE_CURVE( '', #342, #346, #347, .T. );
#303 = EDGE_CURVE( '', #346, #348, #349, .T. );
#304 = EDGE_CURVE( '', #334, #348, #350, .T. );
#305 = FILL_AREA_STYLE( '', ( #351 ) );
#306 = EDGE_CURVE( '', #352, #352, #353, .T. );
#307 = EDGE_CURVE( '', #354, #355, #356, .T. );
#308 = EDGE_CURVE( '', #348, #354, #357, .T. );
#309 = EDGE_CURVE( '', #358, #346, #359, .T. );
#310 = EDGE_CURVE( '', #358, #360, #361, .T. );
#311 = EDGE_CURVE( '', #355, #360, #362, .T. );
#312 = FILL_AREA_STYLE( '', ( #363 ) );
#313 = EDGE_CURVE( '', #364, #364, #365, .T. );
#314 = FILL_AREA_STYLE( '', ( #366 ) );
#315 = EDGE_CURVE( '', #340, #358, #367, .T. );
#316 = FILL_AREA_STYLE( '', ( #368 ) );
#317 = EDGE_CURVE( '', #369, #369, #370, .T. );
#318 = FILL_AREA_STYLE( '', ( #371 ) );
#319 = EDGE_CURVE( '', #372, #372, #373, .T. );
#320 = EDGE_CURVE( '', #374, #374, #375, .T. );
#321 = FILL_AREA_STYLE( '', ( #376 ) );
#322 = EDGE_CURVE( '', #336, #355, #377, .T. );
#323 = EDGE_CURVE( '', #338, #360, #378, .T. );
#324 = FILL_AREA_STYLE( '', ( #379 ) );
#325 = FILL_AREA_STYLE( '', ( #380 ) );
#326 = EDGE_CURVE( '', #381, #381, #382, .T. );
#327 = FILL_AREA_STYLE( '', ( #383 ) );
#328 = FILL_AREA_STYLE( '', ( #384 ) );
#329 = EDGE_CURVE( '', #333, #354, #385, .T. );
#330 = FILL_AREA_STYLE( '', ( #386 ) );
#331 = FILL_AREA_STYLE( '', ( #387 ) );
#332 = FILL_AREA_STYLE_COLOUR( '', #388 );
#333 = VERTEX_POINT( '', #389 );
#334 = VERTEX_POINT( '', #390 );
#335 = CIRCLE( '', #391, 58.9830484122000 );
#336 = VERTEX_POINT( '', #392 );
#337 = CIRCLE( '', #393, 58.9830484122000 );
#338 = VERTEX_POINT( '', #394 );
#339 = CIRCLE( '', #395, 58.9830484122000 );
#340 = VERTEX_POINT( '', #396 );
#341 = CIRCLE( '', #397, 58.9830484122000 );
#342 = VERTEX_POINT( '', #398 );
#343 = CIRCLE( '', #399, 58.9830484122000 );
#344 = CIRCLE( '', #400, 58.9830484122000 );
#345 = FILL_AREA_STYLE_COLOUR( '', #401 );
#346 = VERTEX_POINT( '', #402 );
#347 = LINE( '', #403, #404 );
#348 = VERTEX_POINT( '', #405 );
#349 = LINE( '', #406, #407 );
#350 = LINE( '', #408, #409 );
#351 = FILL_AREA_STYLE_COLOUR( '', #410 );
#352 = VERTEX_POINT( '', #411 );
#353 = CIRCLE( '', #412, 4.70000000000000 );
#354 = VERTEX_POINT( '', #413 );
#355 = VERTEX_POINT( '', #414 );
#356 = LINE( '', #415, #416 );
#357 = LINE( '', #417, #418 );
#358 = VERTEX_POINT( '', #419 );
#359 = LINE( '', #420, #421 );
#360 = VERTEX_POINT( '', #422 );
#361 = LINE( '', #423, #424 );
#362 = LINE( '', #425, #426 );
#363 = FILL_AREA_STYLE_COLOUR( '', #427 );
#364 = VERTEX_POINT( '', #428 );
#365 = CIRCLE( '', #429, 4.92650000000000 );
#366 = FILL_AREA_STYLE_COLOUR( '', #430 );
#367 = LINE( '', #431, #432 );
#368 = FILL_AREA_STYLE_COLOUR( '', #433 );
#369 = VERTEX_POINT( '', #434 );
#370 = CIRCLE( '', #435, 4.70000000000000 );
#371 = FILL_AREA_STYLE_COLOUR( '', #436 );
#372 = VERTEX_POINT( '', #437 );
#373 = CIRCLE( '', #438, 6.00000000000000 );
#374 = VERTEX_POINT( '', #439 );
#375 = CIRCLE( '', #440, 4.83397459620000 );
#376 = FILL_AREA_STYLE_COLOUR( '', #441 );
#377 = LINE( '', #442, #443 );
#378 = LINE( '', #444, #445 );
#379 = FILL_AREA_STYLE_COLOUR( '', #446 );
#380 = FILL_AREA_STYLE_COLOUR( '', #447 );
#381 = VERTEX_POINT( '', #448 );
#382 = CIRCLE( '', #449, 6.00000000000000 );
#383 = FILL_AREA_STYLE_COLOUR( '', #450 );
#384 = FILL_AREA_STYLE_COLOUR( '', #451 );
#385 = LINE( '', #452, #453 );
#386 = FILL_AREA_STYLE_COLOUR( '', #454 );
#387 = FILL_AREA_STYLE_COLOUR( '', #455 );
#388 = COLOUR_RGB( '', 0.689999997600000, 0.689999997600000, 0.689999997600000 );
#389 = CARTESIAN_POINT( '', ( -11.0000000000000, 13.6401455205107, 6.35085296108588 ) );
#390 = CARTESIAN_POINT( '', ( -11.0000000000000, 13.6401455205107, -6.35085296108588 ) );
#391 = AXIS2_PLACEMENT_3D( '', #456, #457, #458 );
#392 = CARTESIAN_POINT( '', ( -8.67361737988404E-16, 13.6401455205107, 12.7017059221718 ) );
#393 = AXIS2_PLACEMENT_3D( '', #459, #460, #461 );
#394 = CARTESIAN_POINT( '', ( 11.0000000000000, 13.6401455205107, 6.35085296108589 ) );
#395 = AXIS2_PLACEMENT_3D( '', #462, #463, #464 );
#396 = CARTESIAN_POINT( '', ( 11.0000000000000, 13.6401455205107, -6.35085296108588 ) );
#397 = AXIS2_PLACEMENT_3D( '', #465, #466, #467 );
#398 = CARTESIAN_POINT( '', ( 8.67361737988404E-16, 13.6401455205107, -12.7017059221718 ) );
#399 = AXIS2_PLACEMENT_3D( '', #468, #469, #470 );
#400 = AXIS2_PLACEMENT_3D( '', #471, #472, #473 );
#401 = COLOUR_RGB( '', 0.689999997600000, 0.689999997600000, 0.689999997600000 );
#402 = CARTESIAN_POINT( '', ( 0.000000000000000, 0.000000000000000, -12.7017059221718 ) );
#403 = CARTESIAN_POINT( '', ( 0.000000000000000, 15.0000000000000, -12.7017059221718 ) );
#404 = VECTOR( '', #474, 1000.00000000000 );
#405 = CARTESIAN_POINT( '', ( -11.0000000000000, 0.000000000000000, -6.35085296108588 ) );
#406 = CARTESIAN_POINT( '', ( 0.000000000000000, 0.000000000000000, -12.7017059221718 ) );
#407 = VECTOR( '', #475, 1000.00000000000 );
#408 = CARTESIAN_POINT( '', ( -11.0000000000000, 15.0000000000000, -6.35085296108588 ) );
#409 = VECTOR( '', #476, 1000.00000000000 );
#410 = COLOUR_RGB( '', 0.689999997600000, 0.689999997600000, 0.689999997600000 );
#411 = CARTESIAN_POINT( '', ( 0.000000000000000, 0.000000000000000, -4.70000000000000 ) );
#412 = AXIS2_PLACEMENT_3D( '', #477, #478, #479 );
#413 = CARTESIAN_POINT( '', ( -11.0000000000000, 0.000000000000000, 6.35085296108588 ) );
#414 = CARTESIAN_POINT( '', ( 0.000000000000000, 0.000000000000000, 12.7017059221718 ) );
#415 = CARTESIAN_POINT( '', ( -11.0000000000000, 0.000000000000000, 6.35085296108588 ) );
#416 = VECTOR( '', #480, 1000.00000000000 );
#417 = CARTESIAN_POINT( '', ( -11.0000000000000, 0.000000000000000, -6.35085296108588 ) );
#418 = VECTOR( '', #481, 1000.00000000000 );
#419 = CARTESIAN_POINT( '', ( 11.0000000000000, 0.000000000000000, -6.35085296108588 ) );
#420 = CARTESIAN_POINT( '', ( 11.0000000000000, 0.000000000000000, -6.35085296108588 ) );
#421 = VECTOR( '', #482, 1000.00000000000 );
#422 = CARTESIAN_POINT( '', ( 11.0000000000000, 0.000000000000000, 6.35085296108588 ) );
#423 = CARTESIAN_POINT( '', ( 11.0000000000000, 0.000000000000000, 0.000000000000000 ) );
#424 = VECTOR( '', #483, 1000.00000000000 );
#425 = CARTESIAN_POINT( '', ( 0.000000000000000, 0.000000000000000, 12.7017059221718 ) );
#426 = VECTOR( '', #484, 1000.00000000000 );
#427 = COLOUR_RGB( '', 0.689999997600000, 0.689999997600000, 0.689999997600000 );
#428 = CARTESIAN_POINT( '', ( 0.000000000000000, -14.0000000000000, -4.92650000000000 ) );
#429 = AXIS2_PLACEMENT_3D( '', #485, #486, #487 );
#430 = COLOUR_RGB( '', 0.689999997600000, 0.689999997600000, 0.689999997600000 );
#431 = CARTESIAN_POINT( '', ( 11.0000000000000, 15.0000000000000, -6.35085296108588 ) );
#432 = VECTOR( '', #488, 1000.00000000000 );
#433 = COLOUR_RGB( '', 0.689999997600000, 0.689999997600000, 0.689999997600000 );
#434 = CARTESIAN_POINT( '', ( 0.000000000000000, -1.78038475772934, -4.70000000000000 ) );
#435 = AXIS2_PLACEMENT_3D( '', #489, #490, #491 );
#436 = COLOUR_RGB( '', 0.689999997600000, 0.689999997600000, 0.689999997600000 );
#437 = CARTESIAN_POINT( '', ( 0.000000000000000, -4.30000000000000, -6.00000000000000 ) );
#438 = AXIS2_PLACEMENT_3D( '', #492, #493, #494 );
#439 = CARTESIAN_POINT( '', ( 0.000000000000000, -2.28038475772934, -4.83397459621556 ) );
#440 = AXIS2_PLACEMENT_3D( '', #495, #496, #497 );
#441 = COLOUR_RGB( '', 0.689999997600000, 0.689999997600000, 0.689999997600000 );
#442 = CARTESIAN_POINT( '', ( 0.000000000000000, 15.0000000000000, 12.7017059221718 ) );
#443 = VECTOR( '', #498, 1000.00000000000 );
#444 = CARTESIAN_POINT( '', ( 11.0000000000000, 15.0000000000000, 6.35085296108588 ) );
#445 = VECTOR( '', #499, 1000.00000000000 );
#446 = COLOUR_RGB( '', 0.689999997600000, 0.689999997600000, 0.689999997600000 );
#447 = COLOUR_RGB( '', 0.689999997600000, 0.689999997600000, 0.689999997600000 );
#448 = CARTESIAN_POINT( '', ( 0.000000000000000, -12.9265000000000, -6.00000000000000 ) );
#449 = AXIS2_PLACEMENT_3D( '', #500, #501, #502 );
#450 = COLOUR_RGB( '', 0.689999997600000, 0.689999997600000, 0.689999997600000 );
#451 = COLOUR_RGB( '', 0.689999997600000, 0.689999997600000, 0.689999997600000 );
#452 = CARTESIAN_POINT( '', ( -11.0000000000000, 15.0000000000000, 6.35085296108588 ) );
#453 = VECTOR( '', #503, 1000.00000000000 );
#454 = COLOUR_RGB( '', 0.689999997600000, 0.689999997600000, 0.689999997600000 );
#455 = COLOUR_RGB( '', 0.689999997600000, 0.689999997600000, 0.689999997600000 );
#456 = CARTESIAN_POINT( '', ( -11.0000000000000, -45.0000000000004, 0.000000000000000 ) );
#457 = DIRECTION( '', ( 1.00000000000000, 0.000000000000000, 0.000000000000000 ) );
#458 = DIRECTION( '', ( 0.000000000000000, 0.000000000000000, -1.00000000000000 ) );
#459 = CARTESIAN_POINT( '', ( -5.50000000000001, -45.0000000000004, 9.52627944162882 ) );
#460 = DIRECTION( '', ( 0.500000000000000, 0.000000000000000, -0.866025403784439 ) );
#461 = DIRECTION( '', ( -0.866025403784439, 0.000000000000000, -0.500000000000000 ) );
#462 = CARTESIAN_POINT( '', ( 5.49999999999999, -45.0000000000004, 9.52627944162883 ) );
#463 = DIRECTION( '', ( -0.500000000000000, 0.000000000000000, -0.866025403784439 ) );
#464 = DIRECTION( '', ( -0.866025403784439, 0.000000000000000, 0.500000000000000 ) );
#465 = CARTESIAN_POINT( '', ( 11.0000000000000, -45.0000000000004, 0.000000000000000 ) );
#466 = DIRECTION( '', ( -1.00000000000000, 0.000000000000000, 0.000000000000000 ) );
#467 = DIRECTION( '', ( 0.000000000000000, 0.000000000000000, 1.00000000000000 ) );
#468 = CARTESIAN_POINT( '', ( 5.49999999999999, -45.0000000000004, -9.52627944162883 ) );
#469 = DIRECTION( '', ( -0.500000000000000, 0.000000000000000, 0.866025403784439 ) );
#470 = DIRECTION( '', ( 0.866025403784439, 0.000000000000000, 0.500000000000000 ) );
#471 = CARTESIAN_POINT( '', ( -5.50000000000001, -45.0000000000004, -9.52627944162882 ) );
#472 = DIRECTION( '', ( 0.500000000000000, -0.000000000000000, 0.866025403784439 ) );
#473 = DIRECTION( '', ( 0.866025403784439, 0.000000000000000, -0.500000000000000 ) );
#474 = DIRECTION( '', ( -0.000000000000000, -1.00000000000000, -0.000000000000000 ) );
#475 = DIRECTION( '', ( -0.866025403784439, 0.000000000000000, 0.500000000000000 ) );
#476 = DIRECTION( '', ( -0.000000000000000, -1.00000000000000, -0.000000000000000 ) );
#477 = CARTESIAN_POINT( '', ( 0.000000000000000, 0.000000000000000, 0.000000000000000 ) );
#478 = DIRECTION( '', ( 0.000000000000000, -1.00000000000000, -0.000000000000000 ) );
#479 = DIRECTION( '', ( 0.000000000000000, 0.000000000000000, -1.00000000000000 ) );
#480 = DIRECTION( '', ( 0.866025403784439, 0.000000000000000, 0.500000000000000 ) );
#481 = DIRECTION( '', ( 0.000000000000000, 0.000000000000000, 1.00000000000000 ) );
#482 = DIRECTION( '', ( -0.866025403784439, 0.000000000000000, -0.500000000000000 ) );
#483 = DIRECTION( '', ( 0.000000000000000, -0.000000000000000, 1.00000000000000 ) );
#484 = DIRECTION( '', ( 0.866025403784439, 0.000000000000000, -0.500000000000000 ) );
#485 = CARTESIAN_POINT( '', ( 0.000000000000000, -14.0000000000000, 0.000000000000000 ) );
#486 = DIRECTION( '', ( 0.000000000000000, -1.00000000000000, -0.000000000000000 ) );
#487 = DIRECTION( '', ( 0.000000000000000, 0.000000000000000, -1.00000000000000 ) );
#488 = DIRECTION( '', ( -0.000000000000000, -1.00000000000000, -0.000000000000000 ) );
#489 = CARTESIAN_POINT( '', ( 0.000000000000000, -1.78038475772934, 0.000000000000000 ) );
#490 = DIRECTION( '', ( 0.000000000000000, -1.00000000000000, -0.000000000000000 ) );
#491 = DIRECTION( '', ( 0.000000000000000, 0.000000000000000, -1.00000000000000 ) );
#492 = CARTESIAN_POINT( '', ( 0.000000000000000, -4.30000000000000, 0.000000000000000 ) );
#493 = DIRECTION( '', ( 0.000000000000000, -1.00000000000000, -0.000000000000000 ) );
#494 = DIRECTION( '', ( 0.000000000000000, 0.000000000000000, -1.00000000000000 ) );
#495 = CARTESIAN_POINT( '', ( 0.000000000000000, -2.28038475772934, 0.000000000000000 ) );
#496 = DIRECTION( '', ( 0.000000000000000, -1.00000000000000, -0.000000000000000 ) );
#497 = DIRECTION( '', ( 0.000000000000000, 0.000000000000000, -1.00000000000000 ) );
#498 = DIRECTION( '', ( -0.000000000000000, -1.00000000000000, -0.000000000000000 ) );
#499 = DIRECTION( '', ( -0.000000000000000, -1.00000000000000, -0.000000000000000 ) );
#500 = CARTESIAN_POINT( '', ( 0.000000000000000, -12.9265000000000, 0.000000000000000 ) );
#501 = DIRECTION( '', ( 0.000000000000000, -1.00000000000000, -0.000000000000000 ) );
#502 = DIRECTION( '', ( 0.000000000000000, 0.000000000000000, -1.00000000000000 ) );
#503 = DIRECTION( '', ( -0.000000000000000, -1.00000000000000, -0.000000000000000 ) );
ENDSEC;
END-ISO-10303-21;
