ISO-10303-21;
HEADER;
FILE_DESCRIPTION( ( 'STEP AP214' ), '1' );
FILE_NAME( '//goodhand-server/Shared Folders/GoodHand Data/Kipp CAD/K0179/K0179.1410X100.stp', '2020-11-26T11:25:26', ( '' ), ( '' ), ' ', 'PARTsolutions', ' ' );
FILE_SCHEMA( ( 'AUTOMOTIVE_DESIGN { 1 0 10303 214 1 1 1 1 }' ) );
ENDSEC;
DATA;
#1 = MECHANICAL_DESIGN_GEOMETRIC_PRESENTATION_REPRESENTATION( ' ', ( #10, #11, #12, #13, #14, #15, #16, #17, #18, #19 ), #6 );
#2 = PRODUCT_DEFINITION_CONTEXT( '', #20, 'design' );
#3 = APPLICATION_PROTOCOL_DEFINITION( 'international standard', 'automotive_design', 2001, #20 );
#4 = PRODUCT_CATEGORY_RELATIONSHIP( 'NONE', 'NONE', #21, #22 );
#5 = SHAPE_DEFINITION_REPRESENTATION( #23, #24 );
#6 =  ( GEOMETRIC_REPRESENTATION_CONTEXT( 3 )GLOBAL_UNCERTAINTY_ASSIGNED_CONTEXT( ( #27 ) )GLOBAL_UNIT_ASSIGNED_CONTEXT( ( #29, #30, #31 ) )REPRESENTATION_CONTEXT( 'NONE', 'WORKSPACE' ) );
#10 = STYLED_ITEM( '', ( #33 ), #34 );
#11 = STYLED_ITEM( '', ( #35 ), #36 );
#12 = STYLED_ITEM( '', ( #37 ), #38 );
#13 = STYLED_ITEM( '', ( #39 ), #40 );
#14 = STYLED_ITEM( '', ( #41 ), #42 );
#15 = STYLED_ITEM( '', ( #43 ), #44 );
#16 = STYLED_ITEM( '', ( #45 ), #46 );
#17 = STYLED_ITEM( '', ( #47 ), #48 );
#18 = STYLED_ITEM( '', ( #49 ), #50 );
#19 = STYLED_ITEM( '', ( #51 ), #52 );
#20 = APPLICATION_CONTEXT( 'core data for automotive mechanical design processes' );
#21 = PRODUCT_CATEGORY( 'part', 'NONE' );
#22 = PRODUCT_RELATED_PRODUCT_CATEGORY( 'detail', ' ', ( #53 ) );
#23 = PRODUCT_DEFINITION_SHAPE( 'NONE', 'NONE', #54 );
#24 = ADVANCED_BREP_SHAPE_REPRESENTATION( '_K0179.1410X100', ( #55, #56 ), #6 );
#27 = UNCERTAINTY_MEASURE_WITH_UNIT( LENGTH_MEASURE( 0.00100000000000000 ), #29, '', '' );
#29 =  ( CONVERSION_BASED_UNIT( 'MILLIMETRE', #59 )LENGTH_UNIT(  )NAMED_UNIT( #62 ) );
#30 =  ( NAMED_UNIT( #64 )PLANE_ANGLE_UNIT(  )SI_UNIT( $, .RADIAN. ) );
#31 =  ( NAMED_UNIT( #64 )SI_UNIT( $, .STERADIAN. )SOLID_ANGLE_UNIT(  ) );
#33 = PRESENTATION_STYLE_ASSIGNMENT( ( #70 ) );
#34 = ADVANCED_FACE( '', ( #71, #72 ), #73, .T. );
#35 = PRESENTATION_STYLE_ASSIGNMENT( ( #74 ) );
#36 = ADVANCED_FACE( '', ( #75, #76 ), #77, .T. );
#37 = PRESENTATION_STYLE_ASSIGNMENT( ( #78 ) );
#38 = ADVANCED_FACE( '', ( #79, #80 ), #81, .T. );
#39 = PRESENTATION_STYLE_ASSIGNMENT( ( #82 ) );
#40 = ADVANCED_FACE( '', ( #83, #84 ), #85, .T. );
#41 = PRESENTATION_STYLE_ASSIGNMENT( ( #86 ) );
#42 = ADVANCED_FACE( '', ( #87, #88 ), #89, .T. );
#43 = PRESENTATION_STYLE_ASSIGNMENT( ( #90 ) );
#44 = ADVANCED_FACE( '', ( #91 ), #92, .F. );
#45 = PRESENTATION_STYLE_ASSIGNMENT( ( #93 ) );
#46 = ADVANCED_FACE( '', ( #94, #95 ), #96, .T. );
#47 = PRESENTATION_STYLE_ASSIGNMENT( ( #97 ) );
#48 = ADVANCED_FACE( '', ( #98, #99 ), #100, .F. );
#49 = PRESENTATION_STYLE_ASSIGNMENT( ( #101 ) );
#50 = ADVANCED_FACE( '', ( #102 ), #103, .F. );
#51 = PRESENTATION_STYLE_ASSIGNMENT( ( #104 ) );
#52 = ADVANCED_FACE( '', ( #105, #106 ), #107, .F. );
#53 = PRODUCT( '_K0179.1410X100', '_K0179.1410X100', 'PART-_K0179.1410X100-DESC', ( #108 ) );
#54 = PRODUCT_DEFINITION( 'NONE', 'NONE', #109, #2 );
#55 = MANIFOLD_SOLID_BREP( '_K0179.1410X100', #110 );
#56 = AXIS2_PLACEMENT_3D( '', #111, #112, #113 );
#59 = LENGTH_MEASURE_WITH_UNIT( LENGTH_MEASURE( 1.00000000000000 ), #114 );
#62 = DIMENSIONAL_EXPONENTS( 1.00000000000000, 0.000000000000000, 0.000000000000000, 0.000000000000000, 0.000000000000000, 0.000000000000000, 0.000000000000000 );
#64 = DIMENSIONAL_EXPONENTS( 0.000000000000000, 0.000000000000000, 0.000000000000000, 0.000000000000000, 0.000000000000000, 0.000000000000000, 0.000000000000000 );
#70 = SURFACE_STYLE_USAGE( .BOTH., #115 );
#71 = FACE_OUTER_BOUND( '', #116, .T. );
#72 = FACE_OUTER_BOUND( '', #117, .T. );
#73 = TOROIDAL_SURFACE( '', #118, 6.59673533500000, 1.60000000000000 );
#74 = SURFACE_STYLE_USAGE( .BOTH., #119 );
#75 = FACE_BOUND( '', #120, .T. );
#76 = FACE_OUTER_BOUND( '', #121, .T. );
#77 = CONICAL_SURFACE( '', #122, 4.00000000000000, 0.785398163400000 );
#78 = SURFACE_STYLE_USAGE( .BOTH., #123 );
#79 = FACE_OUTER_BOUND( '', #124, .T. );
#80 = FACE_OUTER_BOUND( '', #125, .T. );
#81 = CYLINDRICAL_SURFACE( '', #126, 4.00000000000000 );
#82 = SURFACE_STYLE_USAGE( .BOTH., #127 );
#83 = FACE_OUTER_BOUND( '', #128, .T. );
#84 = FACE_BOUND( '', #129, .T. );
#85 = CONICAL_SURFACE( '', #130, 8.70000000000000, 0.785398163400000 );
#86 = SURFACE_STYLE_USAGE( .BOTH., #131 );
#87 = FACE_BOUND( '', #132, .T. );
#88 = FACE_OUTER_BOUND( '', #133, .T. );
#89 = CONICAL_SURFACE( '', #134, 12.5000000000000, 0.130827396100000 );
#90 = SURFACE_STYLE_USAGE( .BOTH., #135 );
#91 = FACE_OUTER_BOUND( '', #136, .T. );
#92 = PLANE( '', #137 );
#93 = SURFACE_STYLE_USAGE( .BOTH., #138 );
#94 = FACE_OUTER_BOUND( '', #139, .T. );
#95 = FACE_OUTER_BOUND( '', #140, .T. );
#96 = CYLINDRICAL_SURFACE( '', #141, 5.00000000000000 );
#97 = SURFACE_STYLE_USAGE( .BOTH., #142 );
#98 = FACE_BOUND( '', #143, .T. );
#99 = FACE_OUTER_BOUND( '', #144, .T. );
#100 = PLANE( '', #145 );
#101 = SURFACE_STYLE_USAGE( .BOTH., #146 );
#102 = FACE_OUTER_BOUND( '', #147, .T. );
#103 = PLANE( '', #148 );
#104 = SURFACE_STYLE_USAGE( .BOTH., #149 );
#105 = FACE_BOUND( '', #150, .T. );
#106 = FACE_OUTER_BOUND( '', #151, .T. );
#107 = PLANE( '', #152 );
#108 = PRODUCT_CONTEXT( '', #20, 'mechanical' );
#109 = PRODUCT_DEFINITION_FORMATION_WITH_SPECIFIED_SOURCE( ' ', 'NONE', #53, .NOT_KNOWN. );
#110 = CLOSED_SHELL( '', ( #36, #38, #48, #46, #52, #34, #42, #50, #40, #44 ) );
#111 = CARTESIAN_POINT( '', ( 0.000000000000000, 0.000000000000000, 0.000000000000000 ) );
#112 = DIRECTION( '', ( 0.000000000000000, 0.000000000000000, 1.00000000000000 ) );
#113 = DIRECTION( '', ( 1.00000000000000, 0.000000000000000, 0.000000000000000 ) );
#114 =  ( LENGTH_UNIT(  )NAMED_UNIT( #62 )SI_UNIT( .MILLI., .METRE. ) );
#115 = SURFACE_SIDE_STYLE( '', ( #154 ) );
#116 = EDGE_LOOP( '', ( #155 ) );
#117 = EDGE_LOOP( '', ( #156 ) );
#118 = AXIS2_PLACEMENT_3D( '', #157, #158, #159 );
#119 = SURFACE_SIDE_STYLE( '', ( #160 ) );
#120 = EDGE_LOOP( '', ( #161 ) );
#121 = EDGE_LOOP( '', ( #162 ) );
#122 = AXIS2_PLACEMENT_3D( '', #163, #164, #165 );
#123 = SURFACE_SIDE_STYLE( '', ( #166 ) );
#124 = EDGE_LOOP( '', ( #167 ) );
#125 = EDGE_LOOP( '', ( #168 ) );
#126 = AXIS2_PLACEMENT_3D( '', #169, #170, #171 );
#127 = SURFACE_SIDE_STYLE( '', ( #172 ) );
#128 = EDGE_LOOP( '', ( #173 ) );
#129 = EDGE_LOOP( '', ( #174 ) );
#130 = AXIS2_PLACEMENT_3D( '', #175, #176, #177 );
#131 = SURFACE_SIDE_STYLE( '', ( #178 ) );
#132 = EDGE_LOOP( '', ( #179 ) );
#133 = EDGE_LOOP( '', ( #180 ) );
#134 = AXIS2_PLACEMENT_3D( '', #181, #182, #183 );
#135 = SURFACE_SIDE_STYLE( '', ( #184 ) );
#136 = EDGE_LOOP( '', ( #185 ) );
#137 = AXIS2_PLACEMENT_3D( '', #186, #187, #188 );
#138 = SURFACE_SIDE_STYLE( '', ( #189 ) );
#139 = EDGE_LOOP( '', ( #190 ) );
#140 = EDGE_LOOP( '', ( #191 ) );
#141 = AXIS2_PLACEMENT_3D( '', #192, #193, #194 );
#142 = SURFACE_SIDE_STYLE( '', ( #195 ) );
#143 = EDGE_LOOP( '', ( #196 ) );
#144 = EDGE_LOOP( '', ( #197 ) );
#145 = AXIS2_PLACEMENT_3D( '', #198, #199, #200 );
#146 = SURFACE_SIDE_STYLE( '', ( #201 ) );
#147 = EDGE_LOOP( '', ( #202 ) );
#148 = AXIS2_PLACEMENT_3D( '', #203, #204, #205 );
#149 = SURFACE_SIDE_STYLE( '', ( #206 ) );
#150 = EDGE_LOOP( '', ( #207 ) );
#151 = EDGE_LOOP( '', ( #208 ) );
#152 = AXIS2_PLACEMENT_3D( '', #209, #210, #211 );
#154 = SURFACE_STYLE_FILL_AREA( #212 );
#155 = ORIENTED_EDGE( '', *, *, #213, .T. );
#156 = ORIENTED_EDGE( '', *, *, #214, .F. );
#157 = CARTESIAN_POINT( '', ( 36.4000000000000, 0.000000000000000, 0.000000000000000 ) );
#158 = DIRECTION( '', ( 1.00000000000000, 0.000000000000000, -0.000000000000000 ) );
#159 = DIRECTION( '', ( -0.000000000000000, 0.000000000000000, -1.00000000000000 ) );
#160 = SURFACE_STYLE_FILL_AREA( #215 );
#161 = ORIENTED_EDGE( '', *, *, #216, .F. );
#162 = ORIENTED_EDGE( '', *, *, #217, .T. );
#163 = CARTESIAN_POINT( '', ( 150.233000000000, 0.000000000000000, 0.000000000000000 ) );
#164 = DIRECTION( '', ( -1.00000000000000, 0.000000000000000, -0.000000000000000 ) );
#165 = DIRECTION( '', ( 0.000000000000000, 0.000000000000000, 1.00000000000000 ) );
#166 = SURFACE_STYLE_FILL_AREA( #218 );
#167 = ORIENTED_EDGE( '', *, *, #217, .F. );
#168 = ORIENTED_EDGE( '', *, *, #219, .T. );
#169 = CARTESIAN_POINT( '', ( 151.000000000000, 0.000000000000000, 0.000000000000000 ) );
#170 = DIRECTION( '', ( -1.00000000000000, -0.000000000000000, 0.000000000000000 ) );
#171 = DIRECTION( '', ( -0.000000000000000, 0.000000000000000, -1.00000000000000 ) );
#172 = SURFACE_STYLE_FILL_AREA( #220 );
#173 = ORIENTED_EDGE( '', *, *, #221, .F. );
#174 = ORIENTED_EDGE( '', *, *, #222, .T. );
#175 = CARTESIAN_POINT( '', ( 0.000000000000000, 0.000000000000000, 0.000000000000000 ) );
#176 = DIRECTION( '', ( 1.00000000000000, -0.000000000000000, -0.000000000000000 ) );
#177 = DIRECTION( '', ( -0.000000000000000, 0.000000000000000, -1.00000000000000 ) );
#178 = SURFACE_STYLE_FILL_AREA( #223 );
#179 = ORIENTED_EDGE( '', *, *, #213, .F. );
#180 = ORIENTED_EDGE( '', *, *, #221, .T. );
#181 = CARTESIAN_POINT( '', ( 3.80000000000000, 0.000000000000000, 0.000000000000000 ) );
#182 = DIRECTION( '', ( -1.00000000000000, 0.000000000000000, -0.000000000000000 ) );
#183 = DIRECTION( '', ( 0.000000000000000, 0.000000000000000, 1.00000000000000 ) );
#184 = SURFACE_STYLE_FILL_AREA( #224 );
#185 = ORIENTED_EDGE( '', *, *, #216, .T. );
#186 = CARTESIAN_POINT( '', ( 151.000000000000, 3.23300000000000, 0.000000000000000 ) );
#187 = DIRECTION( '', ( -1.00000000000000, 0.000000000000000, 0.000000000000000 ) );
#188 = DIRECTION( '', ( 0.000000000000000, 0.000000000000000, 1.00000000000000 ) );
#189 = SURFACE_STYLE_FILL_AREA( #225 );
#190 = ORIENTED_EDGE( '', *, *, #226, .F. );
#191 = ORIENTED_EDGE( '', *, *, #227, .T. );
#192 = CARTESIAN_POINT( '', ( 151.000000000000, 0.000000000000000, 0.000000000000000 ) );
#193 = DIRECTION( '', ( -1.00000000000000, -0.000000000000000, 0.000000000000000 ) );
#194 = DIRECTION( '', ( -0.000000000000000, 0.000000000000000, -1.00000000000000 ) );
#195 = SURFACE_STYLE_FILL_AREA( #228 );
#196 = ORIENTED_EDGE( '', *, *, #219, .F. );
#197 = ORIENTED_EDGE( '', *, *, #226, .T. );
#198 = CARTESIAN_POINT( '', ( 138.000000000000, 5.00000000000000, 0.000000000000000 ) );
#199 = DIRECTION( '', ( -1.00000000000000, 0.000000000000000, 0.000000000000000 ) );
#200 = DIRECTION( '', ( 0.000000000000000, 0.000000000000000, 1.00000000000000 ) );
#201 = SURFACE_STYLE_FILL_AREA( #229 );
#202 = ORIENTED_EDGE( '', *, *, #222, .F. );
#203 = CARTESIAN_POINT( '', ( 0.000000000000000, 0.000000000000000, 0.000000000000000 ) );
#204 = DIRECTION( '', ( 1.00000000000000, 0.000000000000000, -0.000000000000000 ) );
#205 = DIRECTION( '', ( -0.000000000000000, 0.000000000000000, -1.00000000000000 ) );
#206 = SURFACE_STYLE_FILL_AREA( #230 );
#207 = ORIENTED_EDGE( '', *, *, #227, .F. );
#208 = ORIENTED_EDGE( '', *, *, #214, .T. );
#209 = CARTESIAN_POINT( '', ( 38.0000000000000, 6.59673533501164, 0.000000000000000 ) );
#210 = DIRECTION( '', ( -1.00000000000000, 0.000000000000000, 0.000000000000000 ) );
#211 = DIRECTION( '', ( 0.000000000000000, 0.000000000000000, 1.00000000000000 ) );
#212 = FILL_AREA_STYLE( '', ( #231 ) );
#213 = EDGE_CURVE( '', #232, #232, #233, .T. );
#214 = EDGE_CURVE( '', #234, #234, #235, .T. );
#215 = FILL_AREA_STYLE( '', ( #236 ) );
#216 = EDGE_CURVE( '', #237, #237, #238, .T. );
#217 = EDGE_CURVE( '', #239, #239, #240, .T. );
#218 = FILL_AREA_STYLE( '', ( #241 ) );
#219 = EDGE_CURVE( '', #242, #242, #243, .T. );
#220 = FILL_AREA_STYLE( '', ( #244 ) );
#221 = EDGE_CURVE( '', #245, #245, #246, .T. );
#222 = EDGE_CURVE( '', #247, #247, #248, .T. );
#223 = FILL_AREA_STYLE( '', ( #249 ) );
#224 = FILL_AREA_STYLE( '', ( #250 ) );
#225 = FILL_AREA_STYLE( '', ( #251 ) );
#226 = EDGE_CURVE( '', #252, #252, #253, .T. );
#227 = EDGE_CURVE( '', #254, #254, #255, .T. );
#228 = FILL_AREA_STYLE( '', ( #256 ) );
#229 = FILL_AREA_STYLE( '', ( #257 ) );
#230 = FILL_AREA_STYLE( '', ( #258 ) );
#231 = FILL_AREA_STYLE_COLOUR( '', #259 );
#232 = VERTEX_POINT( '', #260 );
#233 = CIRCLE( '', #261, 8.18306220790000 );
#234 = VERTEX_POINT( '', #262 );
#235 = CIRCLE( '', #263, 6.59673533500000 );
#236 = FILL_AREA_STYLE_COLOUR( '', #264 );
#237 = VERTEX_POINT( '', #265 );
#238 = CIRCLE( '', #266, 3.23300000000000 );
#239 = VERTEX_POINT( '', #267 );
#240 = CIRCLE( '', #268, 4.00000000000000 );
#241 = FILL_AREA_STYLE_COLOUR( '', #269 );
#242 = VERTEX_POINT( '', #270 );
#243 = CIRCLE( '', #271, 4.00000000000000 );
#244 = FILL_AREA_STYLE_COLOUR( '', #272 );
#245 = VERTEX_POINT( '', #273 );
#246 = CIRCLE( '', #274, 12.5000000000000 );
#247 = VERTEX_POINT( '', #275 );
#248 = CIRCLE( '', #276, 8.70000000000000 );
#249 = FILL_AREA_STYLE_COLOUR( '', #277 );
#250 = FILL_AREA_STYLE_COLOUR( '', #278 );
#251 = FILL_AREA_STYLE_COLOUR( '', #279 );
#252 = VERTEX_POINT( '', #280 );
#253 = CIRCLE( '', #281, 5.00000000000000 );
#254 = VERTEX_POINT( '', #282 );
#255 = CIRCLE( '', #283, 5.00000000000000 );
#256 = FILL_AREA_STYLE_COLOUR( '', #284 );
#257 = FILL_AREA_STYLE_COLOUR( '', #285 );
#258 = FILL_AREA_STYLE_COLOUR( '', #286 );
#259 = COLOUR_RGB( '', 0.689999997600000, 0.689999997600000, 0.689999997600000 );
#260 = CARTESIAN_POINT( '', ( 36.6087272201142, 0.000000000000000, -8.18306220787971 ) );
#261 = AXIS2_PLACEMENT_3D( '', #287, #288, #289 );
#262 = CARTESIAN_POINT( '', ( 38.0000000000000, 0.000000000000000, -6.59673533501164 ) );
#263 = AXIS2_PLACEMENT_3D( '', #290, #291, #292 );
#264 = COLOUR_RGB( '', 0.689999997600000, 0.689999997600000, 0.689999997600000 );
#265 = CARTESIAN_POINT( '', ( 151.000000000000, 0.000000000000000, -3.23300000000000 ) );
#266 = AXIS2_PLACEMENT_3D( '', #293, #294, #295 );
#267 = CARTESIAN_POINT( '', ( 150.233000000000, 0.000000000000000, -4.00000000000000 ) );
#268 = AXIS2_PLACEMENT_3D( '', #296, #297, #298 );
#269 = COLOUR_RGB( '', 0.689999997600000, 0.689999997600000, 0.689999997600000 );
#270 = CARTESIAN_POINT( '', ( 138.000000000000, 0.000000000000000, -4.00000000000000 ) );
#271 = AXIS2_PLACEMENT_3D( '', #299, #300, #301 );
#272 = COLOUR_RGB( '', 0.689999997600000, 0.689999997600000, 0.689999997600000 );
#273 = CARTESIAN_POINT( '', ( 3.80000000000000, 0.000000000000000, -12.5000000000000 ) );
#274 = AXIS2_PLACEMENT_3D( '', #302, #303, #304 );
#275 = CARTESIAN_POINT( '', ( 0.000000000000000, 0.000000000000000, -8.70000000000000 ) );
#276 = AXIS2_PLACEMENT_3D( '', #305, #306, #307 );
#277 = COLOUR_RGB( '', 0.689999997600000, 0.689999997600000, 0.689999997600000 );
#278 = COLOUR_RGB( '', 0.689999997600000, 0.689999997600000, 0.689999997600000 );
#279 = COLOUR_RGB( '', 0.689999997600000, 0.689999997600000, 0.689999997600000 );
#280 = CARTESIAN_POINT( '', ( 138.000000000000, 0.000000000000000, -5.00000000000000 ) );
#281 = AXIS2_PLACEMENT_3D( '', #308, #309, #310 );
#282 = CARTESIAN_POINT( '', ( 38.0000000000000, 0.000000000000000, -5.00000000000000 ) );
#283 = AXIS2_PLACEMENT_3D( '', #311, #312, #313 );
#284 = COLOUR_RGB( '', 0.689999997600000, 0.689999997600000, 0.689999997600000 );
#285 = COLOUR_RGB( '', 0.689999997600000, 0.689999997600000, 0.689999997600000 );
#286 = COLOUR_RGB( '', 0.689999997600000, 0.689999997600000, 0.689999997600000 );
#287 = CARTESIAN_POINT( '', ( 36.6087272201142, 0.000000000000000, 0.000000000000000 ) );
#288 = DIRECTION( '', ( 1.00000000000000, 0.000000000000000, -0.000000000000000 ) );
#289 = DIRECTION( '', ( -0.000000000000000, 0.000000000000000, -1.00000000000000 ) );
#290 = CARTESIAN_POINT( '', ( 38.0000000000000, 0.000000000000000, 0.000000000000000 ) );
#291 = DIRECTION( '', ( 1.00000000000000, 0.000000000000000, -0.000000000000000 ) );
#292 = DIRECTION( '', ( -0.000000000000000, 0.000000000000000, -1.00000000000000 ) );
#293 = CARTESIAN_POINT( '', ( 151.000000000000, 0.000000000000000, 0.000000000000000 ) );
#294 = DIRECTION( '', ( 1.00000000000000, 0.000000000000000, -0.000000000000000 ) );
#295 = DIRECTION( '', ( -0.000000000000000, 0.000000000000000, -1.00000000000000 ) );
#296 = CARTESIAN_POINT( '', ( 150.233000000000, 0.000000000000000, 0.000000000000000 ) );
#297 = DIRECTION( '', ( 1.00000000000000, 0.000000000000000, -0.000000000000000 ) );
#298 = DIRECTION( '', ( -0.000000000000000, 0.000000000000000, -1.00000000000000 ) );
#299 = CARTESIAN_POINT( '', ( 138.000000000000, 0.000000000000000, 0.000000000000000 ) );
#300 = DIRECTION( '', ( 1.00000000000000, 0.000000000000000, -0.000000000000000 ) );
#301 = DIRECTION( '', ( -0.000000000000000, 0.000000000000000, -1.00000000000000 ) );
#302 = CARTESIAN_POINT( '', ( 3.80000000000000, 0.000000000000000, 0.000000000000000 ) );
#303 = DIRECTION( '', ( 1.00000000000000, 0.000000000000000, -0.000000000000000 ) );
#304 = DIRECTION( '', ( -0.000000000000000, 0.000000000000000, -1.00000000000000 ) );
#305 = CARTESIAN_POINT( '', ( 0.000000000000000, 0.000000000000000, 0.000000000000000 ) );
#306 = DIRECTION( '', ( 1.00000000000000, 0.000000000000000, -0.000000000000000 ) );
#307 = DIRECTION( '', ( -0.000000000000000, 0.000000000000000, -1.00000000000000 ) );
#308 = CARTESIAN_POINT( '', ( 138.000000000000, 0.000000000000000, 0.000000000000000 ) );
#309 = DIRECTION( '', ( 1.00000000000000, 0.000000000000000, -0.000000000000000 ) );
#310 = DIRECTION( '', ( -0.000000000000000, 0.000000000000000, -1.00000000000000 ) );
#311 = CARTESIAN_POINT( '', ( 38.0000000000000, 0.000000000000000, 0.000000000000000 ) );
#312 = DIRECTION( '', ( 1.00000000000000, 0.000000000000000, -0.000000000000000 ) );
#313 = DIRECTION( '', ( -0.000000000000000, 0.000000000000000, -1.00000000000000 ) );
ENDSEC;
END-ISO-10303-21;
