ISO-10303-21;
HEADER;
FILE_DESCRIPTION( ( 'STEP AP214' ), '1' );
FILE_NAME( '//goodhand-server/Shared Folders/GoodHand Data/Kipp CAD/K0676/K0676.2506X040.stp', '2020-12-09T11:09:47', ( '' ), ( '' ), ' ', 'PARTsolutions', ' ' );
FILE_SCHEMA( ( 'AUTOMOTIVE_DESIGN { 1 0 10303 214 1 1 1 1 }' ) );
ENDSEC;
DATA;
#1 = MECHANICAL_DESIGN_GEOMETRIC_PRESENTATION_REPRESENTATION( ' ', ( #10, #11, #12, #13, #14, #15, #16, #17, #18, #19, #20 ), #6 );
#2 = PRODUCT_DEFINITION_CONTEXT( '', #21, 'design' );
#3 = APPLICATION_PROTOCOL_DEFINITION( 'international standard', 'automotive_design', 2001, #21 );
#4 = PRODUCT_CATEGORY_RELATIONSHIP( 'NONE', 'NONE', #22, #23 );
#5 = SHAPE_DEFINITION_REPRESENTATION( #24, #25 );
#6 =  ( GEOMETRIC_REPRESENTATION_CONTEXT( 3 )GLOBAL_UNCERTAINTY_ASSIGNED_CONTEXT( ( #28 ) )GLOBAL_UNIT_ASSIGNED_CONTEXT( ( #30, #31, #32 ) )REPRESENTATION_CONTEXT( 'NONE', 'WORKSPACE' ) );
#10 = STYLED_ITEM( '', ( #34 ), #35 );
#11 = STYLED_ITEM( '', ( #36 ), #37 );
#12 = STYLED_ITEM( '', ( #38 ), #39 );
#13 = STYLED_ITEM( '', ( #40 ), #41 );
#14 = STYLED_ITEM( '', ( #42 ), #43 );
#15 = STYLED_ITEM( '', ( #44 ), #45 );
#16 = STYLED_ITEM( '', ( #46 ), #47 );
#17 = STYLED_ITEM( '', ( #48 ), #49 );
#18 = STYLED_ITEM( '', ( #50 ), #51 );
#19 = STYLED_ITEM( '', ( #52 ), #53 );
#20 = STYLED_ITEM( '', ( #54 ), #55 );
#21 = APPLICATION_CONTEXT( 'core data for automotive mechanical design processes' );
#22 = PRODUCT_CATEGORY( 'part', 'NONE' );
#23 = PRODUCT_RELATED_PRODUCT_CATEGORY( 'detail', ' ', ( #56 ) );
#24 = PRODUCT_DEFINITION_SHAPE( 'NONE', 'NONE', #57 );
#25 = ADVANCED_BREP_SHAPE_REPRESENTATION( '_K0676.2506X040', ( #58, #59 ), #6 );
#28 = UNCERTAINTY_MEASURE_WITH_UNIT( LENGTH_MEASURE( 0.00100000000000000 ), #30, '', '' );
#30 =  ( CONVERSION_BASED_UNIT( 'MILLIMETRE', #62 )LENGTH_UNIT(  )NAMED_UNIT( #65 ) );
#31 =  ( NAMED_UNIT( #67 )PLANE_ANGLE_UNIT(  )SI_UNIT( $, .RADIAN. ) );
#32 =  ( NAMED_UNIT( #67 )SI_UNIT( $, .STERADIAN. )SOLID_ANGLE_UNIT(  ) );
#34 = PRESENTATION_STYLE_ASSIGNMENT( ( #73 ) );
#35 = ADVANCED_FACE( '', ( #74 ), #75, .T. );
#36 = PRESENTATION_STYLE_ASSIGNMENT( ( #76 ) );
#37 = ADVANCED_FACE( '', ( #77 ), #78, .F. );
#38 = PRESENTATION_STYLE_ASSIGNMENT( ( #79 ) );
#39 = ADVANCED_FACE( '', ( #80 ), #81, .F. );
#40 = PRESENTATION_STYLE_ASSIGNMENT( ( #82 ) );
#41 = ADVANCED_FACE( '', ( #83 ), #84, .T. );
#42 = PRESENTATION_STYLE_ASSIGNMENT( ( #85 ) );
#43 = ADVANCED_FACE( '', ( #86 ), #87, .T. );
#44 = PRESENTATION_STYLE_ASSIGNMENT( ( #88 ) );
#45 = ADVANCED_FACE( '', ( #89 ), #90, .T. );
#46 = PRESENTATION_STYLE_ASSIGNMENT( ( #91 ) );
#47 = ADVANCED_FACE( '', ( #92 ), #93, .T. );
#48 = PRESENTATION_STYLE_ASSIGNMENT( ( #94 ) );
#49 = ADVANCED_FACE( '', ( #95 ), #96, .T. );
#50 = PRESENTATION_STYLE_ASSIGNMENT( ( #97 ) );
#51 = ADVANCED_FACE( '', ( #98, #99 ), #100, .T. );
#52 = PRESENTATION_STYLE_ASSIGNMENT( ( #101 ) );
#53 = ADVANCED_FACE( '', ( #102, #103 ), #104, .T. );
#54 = PRESENTATION_STYLE_ASSIGNMENT( ( #105 ) );
#55 = ADVANCED_FACE( '', ( #106, #107 ), #108, .T. );
#56 = PRODUCT( '_K0676.2506X040', '_K0676.2506X040', 'PART-_K0676.2506X040-DESC', ( #109 ) );
#57 = PRODUCT_DEFINITION( 'NONE', 'NONE', #110, #2 );
#58 = MANIFOLD_SOLID_BREP( '_K0676.2506X040', #111 );
#59 = AXIS2_PLACEMENT_3D( '', #112, #113, #114 );
#62 = LENGTH_MEASURE_WITH_UNIT( LENGTH_MEASURE( 1.00000000000000 ), #115 );
#65 = DIMENSIONAL_EXPONENTS( 1.00000000000000, 0.000000000000000, 0.000000000000000, 0.000000000000000, 0.000000000000000, 0.000000000000000, 0.000000000000000 );
#67 = DIMENSIONAL_EXPONENTS( 0.000000000000000, 0.000000000000000, 0.000000000000000, 0.000000000000000, 0.000000000000000, 0.000000000000000, 0.000000000000000 );
#73 = SURFACE_STYLE_USAGE( .BOTH., #116 );
#74 = FACE_OUTER_BOUND( '', #117, .T. );
#75 = PLANE( '', #118 );
#76 = SURFACE_STYLE_USAGE( .BOTH., #119 );
#77 = FACE_OUTER_BOUND( '', #120, .T. );
#78 = PLANE( '', #121 );
#79 = SURFACE_STYLE_USAGE( .BOTH., #122 );
#80 = FACE_OUTER_BOUND( '', #123, .T. );
#81 = PLANE( '', #124 );
#82 = SURFACE_STYLE_USAGE( .BOTH., #125 );
#83 = FACE_OUTER_BOUND( '', #126, .T. );
#84 = PLANE( '', #127 );
#85 = SURFACE_STYLE_USAGE( .BOTH., #128 );
#86 = FACE_OUTER_BOUND( '', #129, .T. );
#87 = PLANE( '', #130 );
#88 = SURFACE_STYLE_USAGE( .BOTH., #131 );
#89 = FACE_OUTER_BOUND( '', #132, .T. );
#90 = PLANE( '', #133 );
#91 = SURFACE_STYLE_USAGE( .BOTH., #134 );
#92 = FACE_OUTER_BOUND( '', #135, .T. );
#93 = PLANE( '', #136 );
#94 = SURFACE_STYLE_USAGE( .BOTH., #137 );
#95 = FACE_OUTER_BOUND( '', #138, .T. );
#96 = PLANE( '', #139 );
#97 = SURFACE_STYLE_USAGE( .BOTH., #140 );
#98 = FACE_OUTER_BOUND( '', #141, .T. );
#99 = FACE_BOUND( '', #142, .T. );
#100 = CONICAL_SURFACE( '', #143, 2.38650000000000, 0.785398163400000 );
#101 = SURFACE_STYLE_USAGE( .BOTH., #144 );
#102 = FACE_OUTER_BOUND( '', #145, .T. );
#103 = FACE_OUTER_BOUND( '', #146, .T. );
#104 = CYLINDRICAL_SURFACE( '', #147, 3.00000000000000 );
#105 = SURFACE_STYLE_USAGE( .BOTH., #148 );
#106 = FACE_BOUND( '', #149, .T. );
#107 = FACE_OUTER_BOUND( '', #150, .T. );
#108 = PLANE( '', #151 );
#109 = PRODUCT_CONTEXT( '', #21, 'mechanical' );
#110 = PRODUCT_DEFINITION_FORMATION_WITH_SPECIFIED_SOURCE( ' ', 'NONE', #56, .NOT_KNOWN. );
#111 = CLOSED_SHELL( '', ( #45, #39, #41, #43, #49, #35, #47, #55, #37, #51, #53 ) );
#112 = CARTESIAN_POINT( '', ( 0.000000000000000, 0.000000000000000, 0.000000000000000 ) );
#113 = DIRECTION( '', ( 0.000000000000000, 0.000000000000000, 1.00000000000000 ) );
#114 = DIRECTION( '', ( 1.00000000000000, 0.000000000000000, 0.000000000000000 ) );
#115 =  ( LENGTH_UNIT(  )NAMED_UNIT( #65 )SI_UNIT( .MILLI., .METRE. ) );
#116 = SURFACE_SIDE_STYLE( '', ( #153 ) );
#117 = EDGE_LOOP( '', ( #154, #155, #156, #157 ) );
#118 = AXIS2_PLACEMENT_3D( '', #158, #159, #160 );
#119 = SURFACE_SIDE_STYLE( '', ( #161 ) );
#120 = EDGE_LOOP( '', ( #162 ) );
#121 = AXIS2_PLACEMENT_3D( '', #163, #164, #165 );
#122 = SURFACE_SIDE_STYLE( '', ( #166 ) );
#123 = EDGE_LOOP( '', ( #167, #168, #169, #170, #171, #172 ) );
#124 = AXIS2_PLACEMENT_3D( '', #173, #174, #175 );
#125 = SURFACE_SIDE_STYLE( '', ( #176 ) );
#126 = EDGE_LOOP( '', ( #177, #178, #179, #180 ) );
#127 = AXIS2_PLACEMENT_3D( '', #181, #182, #183 );
#128 = SURFACE_SIDE_STYLE( '', ( #184 ) );
#129 = EDGE_LOOP( '', ( #185, #186, #187, #188 ) );
#130 = AXIS2_PLACEMENT_3D( '', #189, #190, #191 );
#131 = SURFACE_SIDE_STYLE( '', ( #192 ) );
#132 = EDGE_LOOP( '', ( #193, #194, #195, #196 ) );
#133 = AXIS2_PLACEMENT_3D( '', #197, #198, #199 );
#134 = SURFACE_SIDE_STYLE( '', ( #200 ) );
#135 = EDGE_LOOP( '', ( #201, #202, #203, #204 ) );
#136 = AXIS2_PLACEMENT_3D( '', #205, #206, #207 );
#137 = SURFACE_SIDE_STYLE( '', ( #208 ) );
#138 = EDGE_LOOP( '', ( #209, #210, #211, #212 ) );
#139 = AXIS2_PLACEMENT_3D( '', #213, #214, #215 );
#140 = SURFACE_SIDE_STYLE( '', ( #216 ) );
#141 = EDGE_LOOP( '', ( #217 ) );
#142 = EDGE_LOOP( '', ( #218 ) );
#143 = AXIS2_PLACEMENT_3D( '', #219, #220, #221 );
#144 = SURFACE_SIDE_STYLE( '', ( #222 ) );
#145 = EDGE_LOOP( '', ( #223 ) );
#146 = EDGE_LOOP( '', ( #224 ) );
#147 = AXIS2_PLACEMENT_3D( '', #225, #226, #227 );
#148 = SURFACE_SIDE_STYLE( '', ( #228 ) );
#149 = EDGE_LOOP( '', ( #229 ) );
#150 = EDGE_LOOP( '', ( #230, #231, #232, #233, #234, #235 ) );
#151 = AXIS2_PLACEMENT_3D( '', #236, #237, #238 );
#153 = SURFACE_STYLE_FILL_AREA( #239 );
#154 = ORIENTED_EDGE( '', *, *, #240, .F. );
#155 = ORIENTED_EDGE( '', *, *, #241, .F. );
#156 = ORIENTED_EDGE( '', *, *, #242, .T. );
#157 = ORIENTED_EDGE( '', *, *, #243, .T. );
#158 = CARTESIAN_POINT( '', ( 0.000000000000000, 7.50000000000000, 14.4337567297406 ) );
#159 = DIRECTION( '', ( 0.499524110790929, -0.0436193873653360, 0.865201139495554 ) );
#160 = DIRECTION( '', ( 0.866025403784439, -2.42136240865198E-18, -0.500000000000000 ) );
#161 = SURFACE_STYLE_FILL_AREA( #244 );
#162 = ORIENTED_EDGE( '', *, *, #245, .F. );
#163 = CARTESIAN_POINT( '', ( 0.000000000000000, 47.5000000000000, 0.000000000000000 ) );
#164 = DIRECTION( '', ( 0.000000000000000, -1.00000000000000, -0.000000000000000 ) );
#165 = DIRECTION( '', ( 0.000000000000000, 0.000000000000000, -1.00000000000000 ) );
#166 = SURFACE_STYLE_FILL_AREA( #246 );
#167 = ORIENTED_EDGE( '', *, *, #247, .F. );
#168 = ORIENTED_EDGE( '', *, *, #248, .F. );
#169 = ORIENTED_EDGE( '', *, *, #249, .F. );
#170 = ORIENTED_EDGE( '', *, *, #250, .F. );
#171 = ORIENTED_EDGE( '', *, *, #242, .F. );
#172 = ORIENTED_EDGE( '', *, *, #251, .F. );
#173 = CARTESIAN_POINT( '', ( 0.000000000000000, 0.000000000000000, 0.000000000000000 ) );
#174 = DIRECTION( '', ( 0.000000000000000, 1.00000000000000, 0.000000000000000 ) );
#175 = DIRECTION( '', ( 0.000000000000000, -0.000000000000000, 1.00000000000000 ) );
#176 = SURFACE_STYLE_FILL_AREA( #252 );
#177 = ORIENTED_EDGE( '', *, *, #253, .F. );
#178 = ORIENTED_EDGE( '', *, *, #254, .F. );
#179 = ORIENTED_EDGE( '', *, *, #249, .T. );
#180 = ORIENTED_EDGE( '', *, *, #255, .T. );
#181 = CARTESIAN_POINT( '', ( 12.5000000000000, 7.50000000000000, -7.21687836487032 ) );
#182 = DIRECTION( '', ( 0.499524110790929, -0.0436193873653360, -0.865201139495554 ) );
#183 = DIRECTION( '', ( -0.866025403784439, 2.42136240865198E-18, -0.500000000000000 ) );
#184 = SURFACE_STYLE_FILL_AREA( #256 );
#185 = ORIENTED_EDGE( '', *, *, #257, .F. );
#186 = ORIENTED_EDGE( '', *, *, #258, .F. );
#187 = ORIENTED_EDGE( '', *, *, #247, .T. );
#188 = ORIENTED_EDGE( '', *, *, #259, .T. );
#189 = CARTESIAN_POINT( '', ( -12.5000000000000, 7.50000000000000, -7.21687836487032 ) );
#190 = DIRECTION( '', ( -0.999048221581858, -0.0436193873653360, 0.000000000000000 ) );
#191 = DIRECTION( '', ( 0.0436193873653360, -0.999048221581858, 0.000000000000000 ) );
#192 = SURFACE_STYLE_FILL_AREA( #260 );
#193 = ORIENTED_EDGE( '', *, *, #261, .F. );
#194 = ORIENTED_EDGE( '', *, *, #255, .F. );
#195 = ORIENTED_EDGE( '', *, *, #248, .T. );
#196 = ORIENTED_EDGE( '', *, *, #258, .T. );
#197 = CARTESIAN_POINT( '', ( 0.000000000000000, 7.50000000000000, -14.4337567297406 ) );
#198 = DIRECTION( '', ( -0.499524110790929, -0.0436193873653360, -0.865201139495554 ) );
#199 = DIRECTION( '', ( -0.866025403784439, -2.42136240865198E-18, 0.500000000000000 ) );
#200 = SURFACE_STYLE_FILL_AREA( #262 );
#201 = ORIENTED_EDGE( '', *, *, #263, .F. );
#202 = ORIENTED_EDGE( '', *, *, #243, .F. );
#203 = ORIENTED_EDGE( '', *, *, #250, .T. );
#204 = ORIENTED_EDGE( '', *, *, #254, .T. );
#205 = CARTESIAN_POINT( '', ( 12.5000000000000, 7.50000000000000, 7.21687836487032 ) );
#206 = DIRECTION( '', ( 0.999048221581858, -0.0436193873653360, 0.000000000000000 ) );
#207 = DIRECTION( '', ( 0.0436193873653360, 0.999048221581858, 0.000000000000000 ) );
#208 = SURFACE_STYLE_FILL_AREA( #264 );
#209 = ORIENTED_EDGE( '', *, *, #265, .F. );
#210 = ORIENTED_EDGE( '', *, *, #259, .F. );
#211 = ORIENTED_EDGE( '', *, *, #251, .T. );
#212 = ORIENTED_EDGE( '', *, *, #241, .T. );
#213 = CARTESIAN_POINT( '', ( -12.5000000000000, 7.50000000000000, 7.21687836487032 ) );
#214 = DIRECTION( '', ( -0.499524110790929, -0.0436193873653360, 0.865201139495554 ) );
#215 = DIRECTION( '', ( 0.866025403784439, 2.42136240865198E-18, 0.500000000000000 ) );
#216 = SURFACE_STYLE_FILL_AREA( #266 );
#217 = ORIENTED_EDGE( '', *, *, #267, .F. );
#218 = ORIENTED_EDGE( '', *, *, #245, .T. );
#219 = CARTESIAN_POINT( '', ( 0.000000000000000, 47.5000000000000, 0.000000000000000 ) );
#220 = DIRECTION( '', ( -0.000000000000000, -1.00000000000000, -0.000000000000000 ) );
#221 = DIRECTION( '', ( 0.000000000000000, 0.000000000000000, -1.00000000000000 ) );
#222 = SURFACE_STYLE_FILL_AREA( #268 );
#223 = ORIENTED_EDGE( '', *, *, #269, .F. );
#224 = ORIENTED_EDGE( '', *, *, #267, .T. );
#225 = CARTESIAN_POINT( '', ( 0.000000000000000, 7.50000000000000, 0.000000000000000 ) );
#226 = DIRECTION( '', ( -0.000000000000000, 1.00000000000000, 0.000000000000000 ) );
#227 = DIRECTION( '', ( 0.000000000000000, 0.000000000000000, -1.00000000000000 ) );
#228 = SURFACE_STYLE_FILL_AREA( #270 );
#229 = ORIENTED_EDGE( '', *, *, #269, .T. );
#230 = ORIENTED_EDGE( '', *, *, #257, .T. );
#231 = ORIENTED_EDGE( '', *, *, #265, .T. );
#232 = ORIENTED_EDGE( '', *, *, #240, .T. );
#233 = ORIENTED_EDGE( '', *, *, #263, .T. );
#234 = ORIENTED_EDGE( '', *, *, #253, .T. );
#235 = ORIENTED_EDGE( '', *, *, #261, .T. );
#236 = CARTESIAN_POINT( '', ( 0.000000000000000, 7.50000000000000, 0.000000000000000 ) );
#237 = DIRECTION( '', ( 0.000000000000000, 1.00000000000000, 0.000000000000000 ) );
#238 = DIRECTION( '', ( 0.000000000000000, -0.000000000000000, 1.00000000000000 ) );
#239 = FILL_AREA_STYLE( '', ( #271 ) );
#240 = EDGE_CURVE( '', #272, #273, #274, .T. );
#241 = EDGE_CURVE( '', #275, #272, #276, .T. );
#242 = EDGE_CURVE( '', #275, #277, #278, .T. );
#243 = EDGE_CURVE( '', #277, #273, #279, .T. );
#244 = FILL_AREA_STYLE( '', ( #280 ) );
#245 = EDGE_CURVE( '', #281, #281, #282, .T. );
#246 = FILL_AREA_STYLE( '', ( #283 ) );
#247 = EDGE_CURVE( '', #284, #285, #286, .T. );
#248 = EDGE_CURVE( '', #287, #284, #288, .T. );
#249 = EDGE_CURVE( '', #289, #287, #290, .T. );
#250 = EDGE_CURVE( '', #277, #289, #291, .T. );
#251 = EDGE_CURVE( '', #285, #275, #292, .T. );
#252 = FILL_AREA_STYLE( '', ( #293 ) );
#253 = EDGE_CURVE( '', #294, #295, #296, .T. );
#254 = EDGE_CURVE( '', #289, #294, #297, .T. );
#255 = EDGE_CURVE( '', #287, #295, #298, .T. );
#256 = FILL_AREA_STYLE( '', ( #299 ) );
#257 = EDGE_CURVE( '', #300, #301, #302, .T. );
#258 = EDGE_CURVE( '', #284, #300, #303, .T. );
#259 = EDGE_CURVE( '', #285, #301, #304, .T. );
#260 = FILL_AREA_STYLE( '', ( #305 ) );
#261 = EDGE_CURVE( '', #295, #300, #306, .T. );
#262 = FILL_AREA_STYLE( '', ( #307 ) );
#263 = EDGE_CURVE( '', #273, #294, #308, .T. );
#264 = FILL_AREA_STYLE( '', ( #309 ) );
#265 = EDGE_CURVE( '', #301, #272, #310, .T. );
#266 = FILL_AREA_STYLE( '', ( #311 ) );
#267 = EDGE_CURVE( '', #312, #312, #313, .T. );
#268 = FILL_AREA_STYLE( '', ( #314 ) );
#269 = EDGE_CURVE( '', #315, #315, #316, .T. );
#270 = FILL_AREA_STYLE( '', ( #317 ) );
#271 = FILL_AREA_STYLE_COLOUR( '', #318 );
#272 = VERTEX_POINT( '', #319 );
#273 = VERTEX_POINT( '', #320 );
#274 = LINE( '', #321, #322 );
#275 = VERTEX_POINT( '', #323 );
#276 = LINE( '', #324, #325 );
#277 = VERTEX_POINT( '', #326 );
#278 = LINE( '', #327, #328 );
#279 = LINE( '', #329, #330 );
#280 = FILL_AREA_STYLE_COLOUR( '', #331 );
#281 = VERTEX_POINT( '', #332 );
#282 = CIRCLE( '', #333, 2.38650000000000 );
#283 = FILL_AREA_STYLE_COLOUR( '', #334 );
#284 = VERTEX_POINT( '', #335 );
#285 = VERTEX_POINT( '', #336 );
#286 = LINE( '', #337, #338 );
#287 = VERTEX_POINT( '', #339 );
#288 = LINE( '', #340, #341 );
#289 = VERTEX_POINT( '', #342 );
#290 = LINE( '', #343, #344 );
#291 = LINE( '', #345, #346 );
#292 = LINE( '', #347, #348 );
#293 = FILL_AREA_STYLE_COLOUR( '', #349 );
#294 = VERTEX_POINT( '', #350 );
#295 = VERTEX_POINT( '', #351 );
#296 = LINE( '', #352, #353 );
#297 = LINE( '', #354, #355 );
#298 = LINE( '', #356, #357 );
#299 = FILL_AREA_STYLE_COLOUR( '', #358 );
#300 = VERTEX_POINT( '', #359 );
#301 = VERTEX_POINT( '', #360 );
#302 = LINE( '', #361, #362 );
#303 = LINE( '', #363, #364 );
#304 = LINE( '', #365, #366 );
#305 = FILL_AREA_STYLE_COLOUR( '', #367 );
#306 = LINE( '', #368, #369 );
#307 = FILL_AREA_STYLE_COLOUR( '', #370 );
#308 = LINE( '', #371, #372 );
#309 = FILL_AREA_STYLE_COLOUR( '', #373 );
#310 = LINE( '', #374, #375 );
#311 = FILL_AREA_STYLE_COLOUR( '', #376 );
#312 = VERTEX_POINT( '', #377 );
#313 = CIRCLE( '', #378, 3.00000000000000 );
#314 = FILL_AREA_STYLE_COLOUR( '', #379 );
#315 = VERTEX_POINT( '', #380 );
#316 = CIRCLE( '', #381, 3.00000000000000 );
#317 = FILL_AREA_STYLE_COLOUR( '', #382 );
#318 = COLOUR_RGB( '', 0.689999997600000, 0.689999997600000, 0.689999997600000 );
#319 = CARTESIAN_POINT( '', ( 0.000000000000000, 7.50000000000000, 14.4337567297406 ) );
#320 = CARTESIAN_POINT( '', ( 12.5000000000000, 7.50000000000000, 7.21687836487032 ) );
#321 = CARTESIAN_POINT( '', ( 0.000000000000000, 7.50000000000000, 14.4337567297406 ) );
#322 = VECTOR( '', #383, 1000.00000000000 );
#323 = CARTESIAN_POINT( '', ( 4.39010374806836E-16, 0.000000000000000, 14.0556418726211 ) );
#324 = CARTESIAN_POINT( '', ( 0.000000000000000, 7.13708124112571, 14.4154600664529 ) );
#325 = VECTOR( '', #384, 1000.00000000000 );
#326 = CARTESIAN_POINT( '', ( 12.1725429281862, 0.000000000000000, 7.02782093631055 ) );
#327 = CARTESIAN_POINT( '', ( 6.08627146409308, 0.000000000000000, 10.5417314044658 ) );
#328 = VECTOR( '', #385, 1000.00000000000 );
#329 = CARTESIAN_POINT( '', ( 12.4841546247884, 7.13708124112571, 7.20773003322647 ) );
#330 = VECTOR( '', #386, 1000.00000000000 );
#331 = COLOUR_RGB( '', 0.689999997600000, 0.689999997600000, 0.689999997600000 );
#332 = CARTESIAN_POINT( '', ( 0.000000000000000, 47.5000000000000, -2.38650000000000 ) );
#333 = AXIS2_PLACEMENT_3D( '', #387, #388, #389 );
#334 = COLOUR_RGB( '', 0.689999997600000, 0.689999997600000, 0.689999997600000 );
#335 = CARTESIAN_POINT( '', ( -12.1725429281862, 0.000000000000000, -7.02782093631055 ) );
#336 = CARTESIAN_POINT( '', ( -12.1725429281862, 0.000000000000000, 7.02782093631055 ) );
#337 = CARTESIAN_POINT( '', ( -12.1725429281862, 0.000000000000000, 0.000000000000000 ) );
#338 = VECTOR( '', #390, 1000.00000000000 );
#339 = CARTESIAN_POINT( '', ( -4.39010374806836E-16, 0.000000000000000, -14.0556418726211 ) );
#340 = CARTESIAN_POINT( '', ( -6.08627146409308, 0.000000000000000, -10.5417314044658 ) );
#341 = VECTOR( '', #391, 1000.00000000000 );
#342 = CARTESIAN_POINT( '', ( 12.1725429281862, 0.000000000000000, -7.02782093631055 ) );
#343 = CARTESIAN_POINT( '', ( 6.08627146409308, 0.000000000000000, -10.5417314044658 ) );
#344 = VECTOR( '', #392, 1000.00000000000 );
#345 = CARTESIAN_POINT( '', ( 12.1725429281862, 0.000000000000000, 0.000000000000000 ) );
#346 = VECTOR( '', #393, 1000.00000000000 );
#347 = CARTESIAN_POINT( '', ( -6.08627146409308, 0.000000000000000, 10.5417314044658 ) );
#348 = VECTOR( '', #394, 1000.00000000000 );
#349 = COLOUR_RGB( '', 0.689999997600000, 0.689999997600000, 0.689999997600000 );
#350 = CARTESIAN_POINT( '', ( 12.5000000000000, 7.50000000000000, -7.21687836487032 ) );
#351 = CARTESIAN_POINT( '', ( 0.000000000000000, 7.50000000000000, -14.4337567297406 ) );
#352 = CARTESIAN_POINT( '', ( 12.5000000000000, 7.50000000000000, -7.21687836487032 ) );
#353 = VECTOR( '', #395, 1000.00000000000 );
#354 = CARTESIAN_POINT( '', ( 12.4841546247884, 7.13708124112570, -7.20773003322647 ) );
#355 = VECTOR( '', #396, 1000.00000000000 );
#356 = CARTESIAN_POINT( '', ( 0.000000000000000, 7.13708124112571, -14.4154600664529 ) );
#357 = VECTOR( '', #397, 1000.00000000000 );
#358 = COLOUR_RGB( '', 0.689999997600000, 0.689999997600000, 0.689999997600000 );
#359 = CARTESIAN_POINT( '', ( -12.5000000000000, 7.50000000000000, -7.21687836487032 ) );
#360 = CARTESIAN_POINT( '', ( -12.5000000000000, 7.50000000000000, 7.21687836487032 ) );
#361 = CARTESIAN_POINT( '', ( -12.5000000000000, 7.50000000000000, -7.21687836487032 ) );
#362 = VECTOR( '', #398, 1000.00000000000 );
#363 = CARTESIAN_POINT( '', ( -12.4841546247884, 7.13708124112571, -7.20773003322647 ) );
#364 = VECTOR( '', #399, 1000.00000000000 );
#365 = CARTESIAN_POINT( '', ( -12.4841546247884, 7.13708124112570, 7.20773003322647 ) );
#366 = VECTOR( '', #400, 1000.00000000000 );
#367 = COLOUR_RGB( '', 0.689999997600000, 0.689999997600000, 0.689999997600000 );
#368 = CARTESIAN_POINT( '', ( 0.000000000000000, 7.50000000000000, -14.4337567297406 ) );
#369 = VECTOR( '', #401, 1000.00000000000 );
#370 = COLOUR_RGB( '', 0.689999997600000, 0.689999997600000, 0.689999997600000 );
#371 = CARTESIAN_POINT( '', ( 12.5000000000000, 7.50000000000000, 7.21687836487032 ) );
#372 = VECTOR( '', #402, 1000.00000000000 );
#373 = COLOUR_RGB( '', 0.689999997600000, 0.689999997600000, 0.689999997600000 );
#374 = CARTESIAN_POINT( '', ( -12.5000000000000, 7.50000000000000, 7.21687836487032 ) );
#375 = VECTOR( '', #403, 1000.00000000000 );
#376 = COLOUR_RGB( '', 0.689999997600000, 0.689999997600000, 0.689999997600000 );
#377 = CARTESIAN_POINT( '', ( 0.000000000000000, 46.8865000000000, -3.00000000000000 ) );
#378 = AXIS2_PLACEMENT_3D( '', #404, #405, #406 );
#379 = COLOUR_RGB( '', 0.689999997600000, 0.689999997600000, 0.689999997600000 );
#380 = CARTESIAN_POINT( '', ( 0.000000000000000, 7.50000000000000, -3.00000000000000 ) );
#381 = AXIS2_PLACEMENT_3D( '', #407, #408, #409 );
#382 = COLOUR_RGB( '', 0.689999997600000, 0.689999997600000, 0.689999997600000 );
#383 = DIRECTION( '', ( 0.866025403784439, 0.000000000000000, -0.500000000000000 ) );
#384 = DIRECTION( '', ( 0.000000000000000, 0.998731565520054, 0.0503513657596513 ) );
#385 = DIRECTION( '', ( 0.866025403784439, 0.000000000000000, -0.500000000000000 ) );
#386 = DIRECTION( '', ( 0.0436055618630999, 0.998731565520054, 0.0251756828798256 ) );
#387 = CARTESIAN_POINT( '', ( 0.000000000000000, 47.5000000000000, 0.000000000000000 ) );
#388 = DIRECTION( '', ( 0.000000000000000, -1.00000000000000, -0.000000000000000 ) );
#389 = DIRECTION( '', ( 0.000000000000000, 0.000000000000000, -1.00000000000000 ) );
#390 = DIRECTION( '', ( 0.000000000000000, 0.000000000000000, 1.00000000000000 ) );
#391 = DIRECTION( '', ( -0.866025403784439, 0.000000000000000, 0.500000000000000 ) );
#392 = DIRECTION( '', ( -0.866025403784439, 0.000000000000000, -0.500000000000000 ) );
#393 = DIRECTION( '', ( 0.000000000000000, 0.000000000000000, -1.00000000000000 ) );
#394 = DIRECTION( '', ( 0.866025403784439, 0.000000000000000, 0.500000000000000 ) );
#395 = DIRECTION( '', ( -0.866025403784439, 0.000000000000000, -0.500000000000000 ) );
#396 = DIRECTION( '', ( 0.0436055618630999, 0.998731565520054, -0.0251756828798256 ) );
#397 = DIRECTION( '', ( 0.000000000000000, 0.998731565520054, -0.0503513657596513 ) );
#398 = DIRECTION( '', ( 0.000000000000000, 0.000000000000000, 1.00000000000000 ) );
#399 = DIRECTION( '', ( -0.0436055618630999, 0.998731565520054, -0.0251756828798256 ) );
#400 = DIRECTION( '', ( -0.0436055618630999, 0.998731565520054, 0.0251756828798256 ) );
#401 = DIRECTION( '', ( -0.866025403784439, 0.000000000000000, 0.500000000000000 ) );
#402 = DIRECTION( '', ( 0.000000000000000, 0.000000000000000, -1.00000000000000 ) );
#403 = DIRECTION( '', ( 0.866025403784439, 0.000000000000000, 0.500000000000000 ) );
#404 = CARTESIAN_POINT( '', ( 0.000000000000000, 46.8865000000000, 0.000000000000000 ) );
#405 = DIRECTION( '', ( 0.000000000000000, -1.00000000000000, -0.000000000000000 ) );
#406 = DIRECTION( '', ( 0.000000000000000, 0.000000000000000, -1.00000000000000 ) );
#407 = CARTESIAN_POINT( '', ( 0.000000000000000, 7.50000000000000, 0.000000000000000 ) );
#408 = DIRECTION( '', ( 0.000000000000000, -1.00000000000000, -0.000000000000000 ) );
#409 = DIRECTION( '', ( 0.000000000000000, 0.000000000000000, -1.00000000000000 ) );
ENDSEC;
END-ISO-10303-21;
