ISO-10303-21;
HEADER;
FILE_DESCRIPTION( ( 'STEP AP214' ), '1' );
FILE_NAME( '//goodhand-server/Shared Folders/GoodHand Data/Kipp CAD/K0390/K0390.10X80.stp', '2020-12-07T10:14:36', ( '' ), ( '' ), ' ', 'PARTsolutions', ' ' );
FILE_SCHEMA( ( 'AUTOMOTIVE_DESIGN { 1 0 10303 214 1 1 1 1 }' ) );
ENDSEC;
DATA;
#1 = MECHANICAL_DESIGN_GEOMETRIC_PRESENTATION_REPRESENTATION( ' ', ( #10, #11, #12, #13, #14, #15, #16, #17, #18, #19, #20, #21, #22 ), #6 );
#2 = PRODUCT_DEFINITION_CONTEXT( '', #23, 'design' );
#3 = APPLICATION_PROTOCOL_DEFINITION( 'international standard', 'automotive_design', 2001, #23 );
#4 = PRODUCT_CATEGORY_RELATIONSHIP( 'NONE', 'NONE', #24, #25 );
#5 = SHAPE_DEFINITION_REPRESENTATION( #26, #27 );
#6 =  ( GEOMETRIC_REPRESENTATION_CONTEXT( 3 )GLOBAL_UNCERTAINTY_ASSIGNED_CONTEXT( ( #30 ) )GLOBAL_UNIT_ASSIGNED_CONTEXT( ( #32, #33, #34 ) )REPRESENTATION_CONTEXT( 'NONE', 'WORKSPACE' ) );
#10 = STYLED_ITEM( '', ( #36 ), #37 );
#11 = STYLED_ITEM( '', ( #38 ), #39 );
#12 = STYLED_ITEM( '', ( #40 ), #41 );
#13 = STYLED_ITEM( '', ( #42 ), #43 );
#14 = STYLED_ITEM( '', ( #44 ), #45 );
#15 = STYLED_ITEM( '', ( #46 ), #47 );
#16 = STYLED_ITEM( '', ( #48 ), #49 );
#17 = STYLED_ITEM( '', ( #50 ), #51 );
#18 = STYLED_ITEM( '', ( #52 ), #53 );
#19 = STYLED_ITEM( '', ( #54 ), #55 );
#20 = STYLED_ITEM( '', ( #56 ), #57 );
#21 = STYLED_ITEM( '', ( #58 ), #59 );
#22 = STYLED_ITEM( '', ( #60 ), #61 );
#23 = APPLICATION_CONTEXT( 'core data for automotive mechanical design processes' );
#24 = PRODUCT_CATEGORY( 'part', 'NONE' );
#25 = PRODUCT_RELATED_PRODUCT_CATEGORY( 'detail', ' ', ( #62 ) );
#26 = PRODUCT_DEFINITION_SHAPE( 'NONE', 'NONE', #63 );
#27 = ADVANCED_BREP_SHAPE_REPRESENTATION( '_K0390.10X80', ( #64, #65 ), #6 );
#30 = UNCERTAINTY_MEASURE_WITH_UNIT( LENGTH_MEASURE( 0.00100000000000000 ), #32, '', '' );
#32 =  ( CONVERSION_BASED_UNIT( 'MILLIMETRE', #68 )LENGTH_UNIT(  )NAMED_UNIT( #71 ) );
#33 =  ( NAMED_UNIT( #73 )PLANE_ANGLE_UNIT(  )SI_UNIT( $, .RADIAN. ) );
#34 =  ( NAMED_UNIT( #73 )SI_UNIT( $, .STERADIAN. )SOLID_ANGLE_UNIT(  ) );
#36 = PRESENTATION_STYLE_ASSIGNMENT( ( #79 ) );
#37 = ADVANCED_FACE( '', ( #80, #81 ), #82, .T. );
#38 = PRESENTATION_STYLE_ASSIGNMENT( ( #83 ) );
#39 = ADVANCED_FACE( '', ( #84 ), #85, .F. );
#40 = PRESENTATION_STYLE_ASSIGNMENT( ( #86 ) );
#41 = ADVANCED_FACE( '', ( #87, #88 ), #89, .F. );
#42 = PRESENTATION_STYLE_ASSIGNMENT( ( #90 ) );
#43 = ADVANCED_FACE( '', ( #91 ), #92, .F. );
#44 = PRESENTATION_STYLE_ASSIGNMENT( ( #93 ) );
#45 = ADVANCED_FACE( '', ( #94, #95 ), #96, .T. );
#46 = PRESENTATION_STYLE_ASSIGNMENT( ( #97 ) );
#47 = ADVANCED_FACE( '', ( #98 ), #99, .T. );
#48 = PRESENTATION_STYLE_ASSIGNMENT( ( #100 ) );
#49 = ADVANCED_FACE( '', ( #101 ), #102, .F. );
#50 = PRESENTATION_STYLE_ASSIGNMENT( ( #103 ) );
#51 = ADVANCED_FACE( '', ( #104, #105 ), #106, .T. );
#52 = PRESENTATION_STYLE_ASSIGNMENT( ( #107 ) );
#53 = ADVANCED_FACE( '', ( #108 ), #109, .T. );
#54 = PRESENTATION_STYLE_ASSIGNMENT( ( #110 ) );
#55 = ADVANCED_FACE( '', ( #111, #112 ), #113, .T. );
#56 = PRESENTATION_STYLE_ASSIGNMENT( ( #114 ) );
#57 = ADVANCED_FACE( '', ( #115, #116 ), #117, .T. );
#58 = PRESENTATION_STYLE_ASSIGNMENT( ( #118 ) );
#59 = ADVANCED_FACE( '', ( #119 ), #120, .F. );
#60 = PRESENTATION_STYLE_ASSIGNMENT( ( #121 ) );
#61 = ADVANCED_FACE( '', ( #122 ), #123, .T. );
#62 = PRODUCT( '_K0390.10X80', '_K0390.10X80', 'PART-_K0390.10X80-DESC', ( #124 ) );
#63 = PRODUCT_DEFINITION( 'NONE', 'NONE', #125, #2 );
#64 = MANIFOLD_SOLID_BREP( '_K0390.10X80', #126 );
#65 = AXIS2_PLACEMENT_3D( '', #127, #128, #129 );
#68 = LENGTH_MEASURE_WITH_UNIT( LENGTH_MEASURE( 1.00000000000000 ), #130 );
#71 = DIMENSIONAL_EXPONENTS( 1.00000000000000, 0.000000000000000, 0.000000000000000, 0.000000000000000, 0.000000000000000, 0.000000000000000, 0.000000000000000 );
#73 = DIMENSIONAL_EXPONENTS( 0.000000000000000, 0.000000000000000, 0.000000000000000, 0.000000000000000, 0.000000000000000, 0.000000000000000, 0.000000000000000 );
#79 = SURFACE_STYLE_USAGE( .BOTH., #131 );
#80 = FACE_BOUND( '', #132, .T. );
#81 = FACE_OUTER_BOUND( '', #133, .T. );
#82 = CONICAL_SURFACE( '', #134, 5.00000000000000, 1.01679700410000 );
#83 = SURFACE_STYLE_USAGE( .BOTH., #135 );
#84 = FACE_OUTER_BOUND( '', #136, .T. );
#85 = PLANE( '', #137 );
#86 = SURFACE_STYLE_USAGE( .BOTH., #138 );
#87 = FACE_OUTER_BOUND( '', #139, .T. );
#88 = FACE_BOUND( '', #140, .T. );
#89 = PLANE( '', #141 );
#90 = SURFACE_STYLE_USAGE( .BOTH., #142 );
#91 = FACE_OUTER_BOUND( '', #143, .T. );
#92 = PLANE( '', #144 );
#93 = SURFACE_STYLE_USAGE( .BOTH., #145 );
#94 = FACE_OUTER_BOUND( '', #146, .T. );
#95 = FACE_OUTER_BOUND( '', #147, .T. );
#96 = CYLINDRICAL_SURFACE( '', #148, 5.00000000000000 );
#97 = SURFACE_STYLE_USAGE( .BOTH., #149 );
#98 = FACE_OUTER_BOUND( '', #150, .T. );
#99 = CONICAL_SURFACE( '', #151, 4.08000000000000, 0.785398163400000 );
#100 = SURFACE_STYLE_USAGE( .BOTH., #152 );
#101 = FACE_OUTER_BOUND( '', #153, .T. );
#102 = PLANE( '', #154 );
#103 = SURFACE_STYLE_USAGE( .BOTH., #155 );
#104 = FACE_OUTER_BOUND( '', #156, .T. );
#105 = FACE_OUTER_BOUND( '', #157, .T. );
#106 = CYLINDRICAL_SURFACE( '', #158, 4.00000000000000 );
#107 = SURFACE_STYLE_USAGE( .BOTH., #159 );
#108 = FACE_OUTER_BOUND( '', #160, .T. );
#109 = CONICAL_SURFACE( '', #161, 4.08000000000000, 0.785398163400000 );
#110 = SURFACE_STYLE_USAGE( .BOTH., #162 );
#111 = FACE_OUTER_BOUND( '', #163, .T. );
#112 = FACE_OUTER_BOUND( '', #164, .T. );
#113 = CYLINDRICAL_SURFACE( '', #165, 3.60000000000000 );
#114 = SURFACE_STYLE_USAGE( .BOTH., #166 );
#115 = FACE_BOUND( '', #167, .T. );
#116 = FACE_OUTER_BOUND( '', #168, .T. );
#117 = SPHERICAL_SURFACE( '', #169, 6.70960000000000 );
#118 = SURFACE_STYLE_USAGE( .BOTH., #170 );
#119 = FACE_OUTER_BOUND( '', #171, .T. );
#120 = PLANE( '', #172 );
#121 = SURFACE_STYLE_USAGE( .BOTH., #173 );
#122 = FACE_OUTER_BOUND( '', #174, .T. );
#123 = PLANE( '', #175 );
#124 = PRODUCT_CONTEXT( '', #23, 'mechanical' );
#125 = PRODUCT_DEFINITION_FORMATION_WITH_SPECIFIED_SOURCE( ' ', 'NONE', #62, .NOT_KNOWN. );
#126 = CLOSED_SHELL( '', ( #49, #43, #57, #51, #41, #55, #37, #45, #47, #39, #53, #59, #61 ) );
#127 = CARTESIAN_POINT( '', ( 0.000000000000000, 0.000000000000000, 0.000000000000000 ) );
#128 = DIRECTION( '', ( 0.000000000000000, 0.000000000000000, 1.00000000000000 ) );
#129 = DIRECTION( '', ( 1.00000000000000, 0.000000000000000, 0.000000000000000 ) );
#130 =  ( LENGTH_UNIT(  )NAMED_UNIT( #71 )SI_UNIT( .MILLI., .METRE. ) );
#131 = SURFACE_SIDE_STYLE( '', ( #177 ) );
#132 = EDGE_LOOP( '', ( #178 ) );
#133 = EDGE_LOOP( '', ( #179 ) );
#134 = AXIS2_PLACEMENT_3D( '', #180, #181, #182 );
#135 = SURFACE_SIDE_STYLE( '', ( #183 ) );
#136 = EDGE_LOOP( '', ( #184, #185 ) );
#137 = AXIS2_PLACEMENT_3D( '', #186, #187, #188 );
#138 = SURFACE_SIDE_STYLE( '', ( #189 ) );
#139 = EDGE_LOOP( '', ( #190 ) );
#140 = EDGE_LOOP( '', ( #191 ) );
#141 = AXIS2_PLACEMENT_3D( '', #192, #193, #194 );
#142 = SURFACE_SIDE_STYLE( '', ( #195 ) );
#143 = EDGE_LOOP( '', ( #196, #197, #198, #199, #200, #201 ) );
#144 = AXIS2_PLACEMENT_3D( '', #202, #203, #204 );
#145 = SURFACE_SIDE_STYLE( '', ( #205 ) );
#146 = EDGE_LOOP( '', ( #206 ) );
#147 = EDGE_LOOP( '', ( #207, #208, #209, #210, #211, #212, #213, #214 ) );
#148 = AXIS2_PLACEMENT_3D( '', #215, #216, #217 );
#149 = SURFACE_SIDE_STYLE( '', ( #218 ) );
#150 = EDGE_LOOP( '', ( #219, #220, #221, #222 ) );
#151 = AXIS2_PLACEMENT_3D( '', #223, #224, #225 );
#152 = SURFACE_SIDE_STYLE( '', ( #226 ) );
#153 = EDGE_LOOP( '', ( #227, #228, #229, #230, #231, #232 ) );
#154 = AXIS2_PLACEMENT_3D( '', #233, #234, #235 );
#155 = SURFACE_SIDE_STYLE( '', ( #236 ) );
#156 = EDGE_LOOP( '', ( #237 ) );
#157 = EDGE_LOOP( '', ( #238 ) );
#158 = AXIS2_PLACEMENT_3D( '', #239, #240, #241 );
#159 = SURFACE_SIDE_STYLE( '', ( #242 ) );
#160 = EDGE_LOOP( '', ( #243, #244, #245, #246 ) );
#161 = AXIS2_PLACEMENT_3D( '', #247, #248, #249 );
#162 = SURFACE_SIDE_STYLE( '', ( #250 ) );
#163 = EDGE_LOOP( '', ( #251 ) );
#164 = EDGE_LOOP( '', ( #252 ) );
#165 = AXIS2_PLACEMENT_3D( '', #253, #254, #255 );
#166 = SURFACE_SIDE_STYLE( '', ( #256 ) );
#167 = VERTEX_LOOP( '', #257 );
#168 = EDGE_LOOP( '', ( #258 ) );
#169 = AXIS2_PLACEMENT_3D( '', #259, #260, #261 );
#170 = SURFACE_SIDE_STYLE( '', ( #262 ) );
#171 = EDGE_LOOP( '', ( #263, #264 ) );
#172 = AXIS2_PLACEMENT_3D( '', #265, #266, #267 );
#173 = SURFACE_SIDE_STYLE( '', ( #268 ) );
#174 = EDGE_LOOP( '', ( #269, #270, #271, #272 ) );
#175 = AXIS2_PLACEMENT_3D( '', #273, #274, #275 );
#177 = SURFACE_STYLE_FILL_AREA( #276 );
#178 = ORIENTED_EDGE( '', *, *, #277, .F. );
#179 = ORIENTED_EDGE( '', *, *, #278, .T. );
#180 = CARTESIAN_POINT( '', ( 71.0000000000000, -4.77797945858444E-15, 0.000000000000000 ) );
#181 = DIRECTION( '', ( -1.00000000000000, 6.12323399573677E-17, -0.000000000000000 ) );
#182 = DIRECTION( '', ( -6.12323399573677E-17, -1.00000000000000, 0.000000000000000 ) );
#183 = SURFACE_STYLE_FILL_AREA( #279 );
#184 = ORIENTED_EDGE( '', *, *, #280, .F. );
#185 = ORIENTED_EDGE( '', *, *, #281, .F. );
#186 = CARTESIAN_POINT( '', ( -1.24913973513030E-16, -4.30483321611338E-16, 0.000000000000000 ) );
#187 = DIRECTION( '', ( 1.00000000000000, -6.12323399573677E-17, -0.000000000000000 ) );
#188 = DIRECTION( '', ( 6.12323399573677E-17, 1.00000000000000, 0.000000000000000 ) );
#189 = SURFACE_STYLE_FILL_AREA( #282 );
#190 = ORIENTED_EDGE( '', *, *, #283, .F. );
#191 = ORIENTED_EDGE( '', *, *, #284, .T. );
#192 = CARTESIAN_POINT( '', ( 75.5000000000000, 3.59999999999999, 0.000000000000000 ) );
#193 = DIRECTION( '', ( 1.00000000000000, -6.12323399573677E-17, -0.000000000000000 ) );
#194 = DIRECTION( '', ( 6.12323399573677E-17, 1.00000000000000, 0.000000000000000 ) );
#195 = SURFACE_STYLE_FILL_AREA( #285 );
#196 = ORIENTED_EDGE( '', *, *, #281, .T. );
#197 = ORIENTED_EDGE( '', *, *, #286, .F. );
#198 = ORIENTED_EDGE( '', *, *, #287, .F. );
#199 = ORIENTED_EDGE( '', *, *, #288, .F. );
#200 = ORIENTED_EDGE( '', *, *, #289, .F. );
#201 = ORIENTED_EDGE( '', *, *, #290, .F. );
#202 = CARTESIAN_POINT( '', ( 3.00000000000000, -0.900000000000000, -10.5000000000000 ) );
#203 = DIRECTION( '', ( 0.000000000000000, -1.00000000000000, 0.000000000000000 ) );
#204 = DIRECTION( '', ( 0.000000000000000, 0.000000000000000, -1.00000000000000 ) );
#205 = SURFACE_STYLE_FILL_AREA( #291 );
#206 = ORIENTED_EDGE( '', *, *, #278, .F. );
#207 = ORIENTED_EDGE( '', *, *, #292, .T. );
#208 = ORIENTED_EDGE( '', *, *, #289, .T. );
#209 = ORIENTED_EDGE( '', *, *, #293, .F. );
#210 = ORIENTED_EDGE( '', *, *, #294, .T. );
#211 = ORIENTED_EDGE( '', *, *, #295, .T. );
#212 = ORIENTED_EDGE( '', *, *, #296, .T. );
#213 = ORIENTED_EDGE( '', *, *, #297, .F. );
#214 = ORIENTED_EDGE( '', *, *, #287, .T. );
#215 = CARTESIAN_POINT( '', ( 80.0000000000000, -5.32907051820075E-15, 0.000000000000000 ) );
#216 = DIRECTION( '', ( -1.00000000000000, 6.12323399573677E-17, 0.000000000000000 ) );
#217 = DIRECTION( '', ( 6.12323399573677E-17, 1.00000000000000, 0.000000000000000 ) );
#218 = SURFACE_STYLE_FILL_AREA( #298 );
#219 = ORIENTED_EDGE( '', *, *, #299, .T. );
#220 = ORIENTED_EDGE( '', *, *, #300, .T. );
#221 = ORIENTED_EDGE( '', *, *, #295, .F. );
#222 = ORIENTED_EDGE( '', *, *, #301, .T. );
#223 = CARTESIAN_POINT( '', ( 0.000000000000000, -4.30483321611339E-16, 0.000000000000000 ) );
#224 = DIRECTION( '', ( 1.00000000000000, -6.12323399573677E-17, -0.000000000000000 ) );
#225 = DIRECTION( '', ( 6.12323399573677E-17, 1.00000000000000, 0.000000000000000 ) );
#226 = SURFACE_STYLE_FILL_AREA( #302 );
#227 = ORIENTED_EDGE( '', *, *, #300, .F. );
#228 = ORIENTED_EDGE( '', *, *, #303, .T. );
#229 = ORIENTED_EDGE( '', *, *, #301, .F. );
#230 = ORIENTED_EDGE( '', *, *, #294, .F. );
#231 = ORIENTED_EDGE( '', *, *, #304, .F. );
#232 = ORIENTED_EDGE( '', *, *, #296, .F. );
#233 = CARTESIAN_POINT( '', ( 3.00000000000000, 0.900000000000000, 10.5000000000000 ) );
#234 = DIRECTION( '', ( 0.000000000000000, 1.00000000000000, 0.000000000000000 ) );
#235 = DIRECTION( '', ( 0.000000000000000, -0.000000000000000, 1.00000000000000 ) );
#236 = SURFACE_STYLE_FILL_AREA( #305 );
#237 = ORIENTED_EDGE( '', *, *, #306, .F. );
#238 = ORIENTED_EDGE( '', *, *, #283, .T. );
#239 = CARTESIAN_POINT( '', ( 80.0000000000000, -5.32907051820075E-15, 0.000000000000000 ) );
#240 = DIRECTION( '', ( -1.00000000000000, 6.12323399573677E-17, 0.000000000000000 ) );
#241 = DIRECTION( '', ( 6.12323399573677E-17, 1.00000000000000, 0.000000000000000 ) );
#242 = SURFACE_STYLE_FILL_AREA( #307 );
#243 = ORIENTED_EDGE( '', *, *, #292, .F. );
#244 = ORIENTED_EDGE( '', *, *, #286, .T. );
#245 = ORIENTED_EDGE( '', *, *, #280, .T. );
#246 = ORIENTED_EDGE( '', *, *, #290, .T. );
#247 = CARTESIAN_POINT( '', ( 0.000000000000000, -4.30483321611339E-16, 0.000000000000000 ) );
#248 = DIRECTION( '', ( 1.00000000000000, -6.12323399573677E-17, -0.000000000000000 ) );
#249 = DIRECTION( '', ( 6.12323399573677E-17, 1.00000000000000, 0.000000000000000 ) );
#250 = SURFACE_STYLE_FILL_AREA( #308 );
#251 = ORIENTED_EDGE( '', *, *, #284, .F. );
#252 = ORIENTED_EDGE( '', *, *, #277, .T. );
#253 = CARTESIAN_POINT( '', ( 80.0000000000000, -5.32907051820075E-15, 0.000000000000000 ) );
#254 = DIRECTION( '', ( -1.00000000000000, 6.12323399573676E-17, 0.000000000000000 ) );
#255 = DIRECTION( '', ( 6.12323399573676E-17, 1.00000000000000, 0.000000000000000 ) );
#256 = SURFACE_STYLE_FILL_AREA( #309 );
#257 = VERTEX_POINT( '', #310 );
#258 = ORIENTED_EDGE( '', *, *, #306, .T. );
#259 = CARTESIAN_POINT( '', ( 73.2904000000001, 3.33934269125535E-14, 0.000000000000000 ) );
#260 = DIRECTION( '', ( 1.00000000000000, 0.000000000000000, 0.000000000000000 ) );
#261 = DIRECTION( '', ( 0.000000000000000, -1.00000000000000, 0.000000000000000 ) );
#262 = SURFACE_STYLE_FILL_AREA( #311 );
#263 = ORIENTED_EDGE( '', *, *, #299, .F. );
#264 = ORIENTED_EDGE( '', *, *, #303, .F. );
#265 = CARTESIAN_POINT( '', ( -1.24913973513030E-16, -4.30483321611338E-16, 0.000000000000000 ) );
#266 = DIRECTION( '', ( 1.00000000000000, -6.12323399573677E-17, -0.000000000000000 ) );
#267 = DIRECTION( '', ( 6.12323399573677E-17, 1.00000000000000, 0.000000000000000 ) );
#268 = SURFACE_STYLE_FILL_AREA( #312 );
#269 = ORIENTED_EDGE( '', *, *, #293, .T. );
#270 = ORIENTED_EDGE( '', *, *, #288, .T. );
#271 = ORIENTED_EDGE( '', *, *, #297, .T. );
#272 = ORIENTED_EDGE( '', *, *, #304, .T. );
#273 = CARTESIAN_POINT( '', ( 3.00000000000000, 0.000000000000000, 0.000000000000000 ) );
#274 = DIRECTION( '', ( -1.00000000000000, 0.000000000000000, 0.000000000000000 ) );
#275 = DIRECTION( '', ( 0.000000000000000, 0.000000000000000, 1.00000000000000 ) );
#276 = FILL_AREA_STYLE( '', ( #313 ) );
#277 = EDGE_CURVE( '', #314, #314, #315, .T. );
#278 = EDGE_CURVE( '', #316, #316, #317, .T. );
#279 = FILL_AREA_STYLE( '', ( #318 ) );
#280 = EDGE_CURVE( '', #319, #320, #321, .T. );
#281 = EDGE_CURVE( '', #320, #319, #322, .T. );
#282 = FILL_AREA_STYLE( '', ( #323 ) );
#283 = EDGE_CURVE( '', #324, #324, #325, .T. );
#284 = EDGE_CURVE( '', #326, #326, #327, .T. );
#285 = FILL_AREA_STYLE( '', ( #328 ) );
#286 = EDGE_CURVE( '', #329, #319, #330, .T. );
#287 = EDGE_CURVE( '', #331, #329, #332, .F. );
#288 = EDGE_CURVE( '', #333, #331, #334, .T. );
#289 = EDGE_CURVE( '', #335, #333, #336, .T. );
#290 = EDGE_CURVE( '', #320, #335, #337, .T. );
#291 = FILL_AREA_STYLE( '', ( #338 ) );
#292 = EDGE_CURVE( '', #329, #335, #339, .T. );
#293 = EDGE_CURVE( '', #340, #333, #341, .T. );
#294 = EDGE_CURVE( '', #340, #342, #343, .F. );
#295 = EDGE_CURVE( '', #342, #344, #345, .T. );
#296 = EDGE_CURVE( '', #344, #346, #347, .T. );
#297 = EDGE_CURVE( '', #331, #346, #348, .T. );
#298 = FILL_AREA_STYLE( '', ( #349 ) );
#299 = EDGE_CURVE( '', #350, #351, #352, .T. );
#300 = EDGE_CURVE( '', #351, #344, #353, .T. );
#301 = EDGE_CURVE( '', #342, #350, #354, .T. );
#302 = FILL_AREA_STYLE( '', ( #355 ) );
#303 = EDGE_CURVE( '', #351, #350, #356, .T. );
#304 = EDGE_CURVE( '', #346, #340, #357, .T. );
#305 = FILL_AREA_STYLE( '', ( #358 ) );
#306 = EDGE_CURVE( '', #359, #359, #360, .T. );
#307 = FILL_AREA_STYLE( '', ( #361 ) );
#308 = FILL_AREA_STYLE( '', ( #362 ) );
#309 = FILL_AREA_STYLE( '', ( #363 ) );
#310 = CARTESIAN_POINT( '', ( 80.0000000000000, 3.25717378961976E-14, 0.000000000000000 ) );
#311 = FILL_AREA_STYLE( '', ( #364 ) );
#312 = FILL_AREA_STYLE( '', ( #365 ) );
#313 = FILL_AREA_STYLE_COLOUR( '', #366 );
#314 = VERTEX_POINT( '', #367 );
#315 = CIRCLE( '', #368, 3.60000000000000 );
#316 = VERTEX_POINT( '', #369 );
#317 = CIRCLE( '', #370, 5.00000000000000 );
#318 = FILL_AREA_STYLE_COLOUR( '', #371 );
#319 = VERTEX_POINT( '', #372 );
#320 = VERTEX_POINT( '', #373 );
#321 = CIRCLE( '', #374, 4.08000000000000 );
#322 = LINE( '', #375, #376 );
#323 = FILL_AREA_STYLE_COLOUR( '', #377 );
#324 = VERTEX_POINT( '', #378 );
#325 = CIRCLE( '', #379, 4.00000000000000 );
#326 = VERTEX_POINT( '', #380 );
#327 = CIRCLE( '', #381, 3.60000000000000 );
#328 = FILL_AREA_STYLE_COLOUR( '', #382 );
#329 = VERTEX_POINT( '', #383 );
#330 = B_SPLINE_CURVE_WITH_KNOTS( '', 3, ( #384, #385, #386, #387 ), .UNSPECIFIED., .F., .F., ( 4, 4 ), ( 0.00855302721908257, 0.00986748988713588 ), .UNSPECIFIED. );
#331 = VERTEX_POINT( '', #388 );
#332 = LINE( '', #389, #390 );
#333 = VERTEX_POINT( '', #391 );
#334 = LINE( '', #392, #393 );
#335 = VERTEX_POINT( '', #394 );
#336 = LINE( '', #395, #396 );
#337 = B_SPLINE_CURVE_WITH_KNOTS( '', 3, ( #397, #398, #399, #400 ), .UNSPECIFIED., .F., .F., ( 4, 4 ), ( 0.0201757967681981, 0.0214894077203397 ), .UNSPECIFIED. );
#338 = FILL_AREA_STYLE_COLOUR( '', #401 );
#339 = CIRCLE( '', #402, 5.00000000000000 );
#340 = VERTEX_POINT( '', #403 );
#341 = CIRCLE( '', #404, 5.00000000000000 );
#342 = VERTEX_POINT( '', #405 );
#343 = LINE( '', #406, #407 );
#344 = VERTEX_POINT( '', #408 );
#345 = CIRCLE( '', #409, 5.00000000000000 );
#346 = VERTEX_POINT( '', #410 );
#347 = LINE( '', #411, #412 );
#348 = CIRCLE( '', #413, 5.00000000000000 );
#349 = FILL_AREA_STYLE_COLOUR( '', #414 );
#350 = VERTEX_POINT( '', #415 );
#351 = VERTEX_POINT( '', #416 );
#352 = CIRCLE( '', #417, 4.08000000000000 );
#353 = B_SPLINE_CURVE_WITH_KNOTS( '', 3, ( #418, #419, #420, #421 ), .UNSPECIFIED., .F., .F., ( 4, 4 ), ( 0.0201757967681981, 0.0214894077203397 ), .UNSPECIFIED. );
#354 = B_SPLINE_CURVE_WITH_KNOTS( '', 3, ( #422, #423, #424, #425 ), .UNSPECIFIED., .F., .F., ( 4, 4 ), ( 0.00855302721908257, 0.00986748988713589 ), .UNSPECIFIED. );
#355 = FILL_AREA_STYLE_COLOUR( '', #426 );
#356 = LINE( '', #427, #428 );
#357 = LINE( '', #429, #430 );
#358 = FILL_AREA_STYLE_COLOUR( '', #431 );
#359 = VERTEX_POINT( '', #432 );
#360 = CIRCLE( '', #433, 4.00000000000000 );
#361 = FILL_AREA_STYLE_COLOUR( '', #434 );
#362 = FILL_AREA_STYLE_COLOUR( '', #435 );
#363 = FILL_AREA_STYLE_COLOUR( '', #436 );
#364 = FILL_AREA_STYLE_COLOUR( '', #437 );
#365 = FILL_AREA_STYLE_COLOUR( '', #438 );
#366 = COLOUR_RGB( '', 0.689999997600000, 0.689999997600000, 0.689999997600000 );
#367 = CARTESIAN_POINT( '', ( 71.8660700000000, 3.59999999999999, 0.000000000000000 ) );
#368 = AXIS2_PLACEMENT_3D( '', #439, #440, #441 );
#369 = CARTESIAN_POINT( '', ( 71.0000000000000, 4.99999999999999, 0.000000000000000 ) );
#370 = AXIS2_PLACEMENT_3D( '', #442, #443, #444 );
#371 = COLOUR_RGB( '', 0.689999997600000, 0.689999997600000, 0.689999997600000 );
#372 = CARTESIAN_POINT( '', ( 0.000000000000000, -0.900000000000000, 3.97949745570970 ) );
#373 = CARTESIAN_POINT( '', ( 0.000000000000000, -0.900000000000000, -3.97949745570970 ) );
#374 = AXIS2_PLACEMENT_3D( '', #445, #446, #447 );
#375 = CARTESIAN_POINT( '', ( 0.000000000000000, -0.900000000000000, -10.5000000000000 ) );
#376 = VECTOR( '', #448, 1000.00000000000 );
#377 = COLOUR_RGB( '', 0.689999997600000, 0.689999997600000, 0.689999997600000 );
#378 = CARTESIAN_POINT( '', ( 75.5000000000000, 3.99999999999999, 0.000000000000000 ) );
#379 = AXIS2_PLACEMENT_3D( '', #449, #450, #451 );
#380 = CARTESIAN_POINT( '', ( 75.5000000000000, 3.59999999999999, 0.000000000000000 ) );
#381 = AXIS2_PLACEMENT_3D( '', #452, #453, #454 );
#382 = COLOUR_RGB( '', 0.689999997600000, 0.689999997600000, 0.689999997600000 );
#383 = CARTESIAN_POINT( '', ( 0.920000000000004, -0.899999999999996, 4.91833305094318 ) );
#384 = CARTESIAN_POINT( '', ( 0.920000000000005, -0.900000000000000, 4.91833305094318 ) );
#385 = CARTESIAN_POINT( '', ( 0.612739261072123, -0.900000000000000, 4.60597037059464 ) );
#386 = CARTESIAN_POINT( '', ( 0.305935608496527, -0.900000000000000, 4.29315949383336 ) );
#387 = CARTESIAN_POINT( '', ( -3.47631544974398E-16, -0.900000000000000, 3.97949745570970 ) );
#388 = CARTESIAN_POINT( '', ( 3.00000000000000, -0.900000000000000, 4.91833305094318 ) );
#389 = CARTESIAN_POINT( '', ( 80.0000000000000, -0.900000000000000, 4.91833305094318 ) );
#390 = VECTOR( '', #455, 1000.00000000000 );
#391 = CARTESIAN_POINT( '', ( 3.00000000000000, -0.900000000000000, -4.91833305094318 ) );
#392 = CARTESIAN_POINT( '', ( 3.00000000000000, -0.900000000000000, -10.5000000000000 ) );
#393 = VECTOR( '', #456, 1000.00000000000 );
#394 = CARTESIAN_POINT( '', ( 0.920000000000004, -0.899999999999996, -4.91833305094318 ) );
#395 = CARTESIAN_POINT( '', ( 80.0000000000000, -0.900000000000000, -4.91833305094318 ) );
#396 = VECTOR( '', #457, 1000.00000000000 );
#397 = CARTESIAN_POINT( '', ( -5.09830230844084E-16, -0.900000000000000, -3.97949745570970 ) );
#398 = CARTESIAN_POINT( '', ( 0.305938770650471, -0.900000000000000, -4.29316273584777 ) );
#399 = CARTESIAN_POINT( '', ( 0.612741841782416, -0.900000000000000, -4.60597299415659 ) );
#400 = CARTESIAN_POINT( '', ( 0.920000000000004, -0.900000000000000, -4.91833305094318 ) );
#401 = COLOUR_RGB( '', 0.689999997600000, 0.689999997600000, 0.689999997600000 );
#402 = AXIS2_PLACEMENT_3D( '', #458, #459, #460 );
#403 = CARTESIAN_POINT( '', ( 3.00000000000000, 0.899999999999999, -4.91833305094318 ) );
#404 = AXIS2_PLACEMENT_3D( '', #461, #462, #463 );
#405 = CARTESIAN_POINT( '', ( 0.920000000000004, 0.900000000000005, -4.91833305094318 ) );
#406 = CARTESIAN_POINT( '', ( 80.0000000000000, 0.900000000000000, -4.91833305094318 ) );
#407 = VECTOR( '', #464, 1000.00000000000 );
#408 = CARTESIAN_POINT( '', ( 0.920000000000004, 0.900000000000005, 4.91833305094318 ) );
#409 = AXIS2_PLACEMENT_3D( '', #465, #466, #467 );
#410 = CARTESIAN_POINT( '', ( 3.00000000000000, 0.899999999999999, 4.91833305094318 ) );
#411 = CARTESIAN_POINT( '', ( 80.0000000000000, 0.900000000000000, 4.91833305094318 ) );
#412 = VECTOR( '', #468, 1000.00000000000 );
#413 = AXIS2_PLACEMENT_3D( '', #469, #470, #471 );
#414 = COLOUR_RGB( '', 0.689999997600000, 0.689999997600000, 0.689999997600000 );
#415 = CARTESIAN_POINT( '', ( 0.000000000000000, 0.899999999999999, -3.97949745570970 ) );
#416 = CARTESIAN_POINT( '', ( 0.000000000000000, 0.899999999999999, 3.97949745570970 ) );
#417 = AXIS2_PLACEMENT_3D( '', #472, #473, #474 );
#418 = CARTESIAN_POINT( '', ( -2.08210630903247E-15, 0.900000000000000, 3.97949745570970 ) );
#419 = CARTESIAN_POINT( '', ( 0.305938770650470, 0.900000000000000, 4.29316273584777 ) );
#420 = CARTESIAN_POINT( '', ( 0.612741841782416, 0.900000000000000, 4.60597299415659 ) );
#421 = CARTESIAN_POINT( '', ( 0.920000000000004, 0.900000000000000, 4.91833305094318 ) );
#422 = CARTESIAN_POINT( '', ( 0.920000000000005, 0.900000000000000, -4.91833305094318 ) );
#423 = CARTESIAN_POINT( '', ( 0.612739261072122, 0.900000000000000, -4.60597037059464 ) );
#424 = CARTESIAN_POINT( '', ( 0.305935608496526, 0.900000000000000, -4.29315949383336 ) );
#425 = CARTESIAN_POINT( '', ( -1.16939269353671E-15, 0.900000000000000, -3.97949745570970 ) );
#426 = COLOUR_RGB( '', 0.689999997600000, 0.689999997600000, 0.689999997600000 );
#427 = CARTESIAN_POINT( '', ( 0.000000000000000, 0.900000000000000, 10.5000000000000 ) );
#428 = VECTOR( '', #475, 1000.00000000000 );
#429 = CARTESIAN_POINT( '', ( 3.00000000000000, 0.900000000000000, 10.5000000000000 ) );
#430 = VECTOR( '', #476, 1000.00000000000 );
#431 = COLOUR_RGB( '', 0.689999997600000, 0.689999997600000, 0.689999997600000 );
#432 = CARTESIAN_POINT( '', ( 78.6773037637589, 3.99999999999999, 0.000000000000000 ) );
#433 = AXIS2_PLACEMENT_3D( '', #477, #478, #479 );
#434 = COLOUR_RGB( '', 0.689999997600000, 0.689999997600000, 0.689999997600000 );
#435 = COLOUR_RGB( '', 0.689999997600000, 0.689999997600000, 0.689999997600000 );
#436 = COLOUR_RGB( '', 0.689999997600000, 0.689999997600000, 0.689999997600000 );
#437 = COLOUR_RGB( '', 0.689999997600000, 0.689999997600000, 0.689999997600000 );
#438 = COLOUR_RGB( '', 0.689999997600000, 0.689999997600000, 0.689999997600000 );
#439 = CARTESIAN_POINT( '', ( 71.8660700000000, -4.83101095125132E-15, 0.000000000000000 ) );
#440 = DIRECTION( '', ( 1.00000000000000, -6.12323399573677E-17, -0.000000000000000 ) );
#441 = DIRECTION( '', ( 6.12323399573677E-17, 1.00000000000000, 0.000000000000000 ) );
#442 = CARTESIAN_POINT( '', ( 71.0000000000000, -4.77797945858444E-15, 0.000000000000000 ) );
#443 = DIRECTION( '', ( 1.00000000000000, -6.12323399573677E-17, -0.000000000000000 ) );
#444 = DIRECTION( '', ( 6.12323399573677E-17, 1.00000000000000, 0.000000000000000 ) );
#445 = CARTESIAN_POINT( '', ( 0.000000000000000, -4.30483321611339E-16, 0.000000000000000 ) );
#446 = DIRECTION( '', ( 1.00000000000000, -6.12323399573677E-17, -0.000000000000000 ) );
#447 = DIRECTION( '', ( 6.12323399573677E-17, 1.00000000000000, 0.000000000000000 ) );
#448 = DIRECTION( '', ( 0.000000000000000, 0.000000000000000, 1.00000000000000 ) );
#449 = CARTESIAN_POINT( '', ( 75.5000000000000, -5.05352498839260E-15, 0.000000000000000 ) );
#450 = DIRECTION( '', ( 1.00000000000000, -6.12323399573677E-17, -0.000000000000000 ) );
#451 = DIRECTION( '', ( 6.12323399573677E-17, 1.00000000000000, 0.000000000000000 ) );
#452 = CARTESIAN_POINT( '', ( 75.5000000000000, -5.05352498839260E-15, 0.000000000000000 ) );
#453 = DIRECTION( '', ( 1.00000000000000, -6.12323399573677E-17, -0.000000000000000 ) );
#454 = DIRECTION( '', ( 6.12323399573677E-17, 1.00000000000000, 0.000000000000000 ) );
#455 = DIRECTION( '', ( 1.00000000000000, -6.12323399573677E-17, -0.000000000000000 ) );
#456 = DIRECTION( '', ( 0.000000000000000, 0.000000000000000, 1.00000000000000 ) );
#457 = DIRECTION( '', ( 1.00000000000000, -6.12323399573677E-17, -0.000000000000000 ) );
#458 = CARTESIAN_POINT( '', ( 0.920000000000004, -4.86817074372117E-16, 0.000000000000000 ) );
#459 = DIRECTION( '', ( 1.00000000000000, -6.12323399573677E-17, -0.000000000000000 ) );
#460 = DIRECTION( '', ( 6.12323399573677E-17, 1.00000000000000, 0.000000000000000 ) );
#461 = CARTESIAN_POINT( '', ( 3.00000000000000, -6.14180341483442E-16, 0.000000000000000 ) );
#462 = DIRECTION( '', ( -1.00000000000000, 0.000000000000000, 0.000000000000000 ) );
#463 = DIRECTION( '', ( 0.000000000000000, 0.000000000000000, 1.00000000000000 ) );
#464 = DIRECTION( '', ( 1.00000000000000, -6.12323399573677E-17, -0.000000000000000 ) );
#465 = CARTESIAN_POINT( '', ( 0.920000000000004, -4.86817074372117E-16, 0.000000000000000 ) );
#466 = DIRECTION( '', ( 1.00000000000000, -6.12323399573677E-17, -0.000000000000000 ) );
#467 = DIRECTION( '', ( 6.12323399573677E-17, 1.00000000000000, 0.000000000000000 ) );
#468 = DIRECTION( '', ( 1.00000000000000, -6.12323399573677E-17, -0.000000000000000 ) );
#469 = CARTESIAN_POINT( '', ( 3.00000000000000, -6.14180341483442E-16, 0.000000000000000 ) );
#470 = DIRECTION( '', ( -1.00000000000000, 0.000000000000000, 0.000000000000000 ) );
#471 = DIRECTION( '', ( 0.000000000000000, 0.000000000000000, 1.00000000000000 ) );
#472 = CARTESIAN_POINT( '', ( 0.000000000000000, -4.30483321611339E-16, 0.000000000000000 ) );
#473 = DIRECTION( '', ( 1.00000000000000, -6.12323399573677E-17, -0.000000000000000 ) );
#474 = DIRECTION( '', ( 6.12323399573677E-17, 1.00000000000000, 0.000000000000000 ) );
#475 = DIRECTION( '', ( 0.000000000000000, 0.000000000000000, -1.00000000000000 ) );
#476 = DIRECTION( '', ( 0.000000000000000, 0.000000000000000, -1.00000000000000 ) );
#477 = CARTESIAN_POINT( '', ( 78.6773037637589, -5.24807873260291E-15, 0.000000000000000 ) );
#478 = DIRECTION( '', ( 1.00000000000000, -6.12323399573677E-17, -0.000000000000000 ) );
#479 = DIRECTION( '', ( 6.12323399573677E-17, 1.00000000000000, 0.000000000000000 ) );
ENDSEC;
END-ISO-10303-21;
