ISO-10303-21;
HEADER;
/****************************************************************
 * Generated by software with PDE/Lib inside                    *
 * PDElib Version v51a, created Tue 01/15/2008                  *
 * International Technegroup Inc. (www.iti-oh.com)              *
 ****************************************************************/
FILE_DESCRIPTION((''),'2;1');
FILE_NAME('S:\\Drawings\\Web Drawings Completed with mm\\E-Vac\\800005-800008.stp','2008-07-28T15:19:53',('Dan Preston'),(''),'Autodesk Inventor 2009','Autodesk Inventor 2009','');
FILE_SCHEMA(('AUTOMOTIVE_DESIGN { 1 0 10303 214 1 1 1 1 }'));
ENDSEC;
DATA;
#5=APPLICATION_CONTEXT('automotive design');
#6=APPLICATION_PROTOCOL_DEFINITION('International Standard','automotive_design',2001,#5);
#7=PRODUCT_CONTEXT('',#5,'mechanical');
#8=PRODUCT('900709 for web','900709 for web',$,(#7));
#9=PRODUCT_RELATED_PRODUCT_CATEGORY('part',$,(#8));
#10=PRODUCT_DEFINITION_FORMATION('',$,#8);
#11=PRODUCT_DEFINITION_CONTEXT('part definition',#5,'design');
#12=PRODUCT_DEFINITION('',$,#10,#11);
#18=(NAMED_UNIT(*)PLANE_ANGLE_UNIT()SI_UNIT($,.RADIAN.));
#19=DIMENSIONAL_EXPONENTS(0.0,0.0,0.0,0.0,0.0,0.0,0.0);
#20=PLANE_ANGLE_MEASURE_WITH_UNIT(PLANE_ANGLE_MEASURE(0.017453292500000),#18);
#24=(CONVERSION_BASED_UNIT('DEGREE',#20)NAMED_UNIT(#19)PLANE_ANGLE_UNIT());
#28=(NAMED_UNIT(*)SI_UNIT($,.STERADIAN.)SOLID_ANGLE_UNIT());
#32=(LENGTH_UNIT()NAMED_UNIT(*)SI_UNIT(.CENTI.,.METRE.));
#33=DIMENSIONAL_EXPONENTS(1.0,0.0,0.0,0.0,0.0,0.0,0.0);
#34=LENGTH_MEASURE_WITH_UNIT(LENGTH_MEASURE(2.540000000000000),#32);
#38=(CONVERSION_BASED_UNIT('INCH',#34)LENGTH_UNIT()NAMED_UNIT(#33));
#40=UNCERTAINTY_MEASURE_WITH_UNIT(LENGTH_MEASURE(0.000393700787402),#38,'DISTANCE_ACCURACY_VALUE','');
#42=(GEOMETRIC_REPRESENTATION_CONTEXT(3)GLOBAL_UNCERTAINTY_ASSIGNED_CONTEXT((#40))GLOBAL_UNIT_ASSIGNED_CONTEXT((#24,#28,#38))REPRESENTATION_CONTEXT('None','None'));
#43=AXIS2_PLACEMENT_3D('',#44,#45,#46);
#44=CARTESIAN_POINT('',(0.0,0.0,0.0));
#45=DIRECTION('',(0.0,0.0,1.0));
#46=DIRECTION('',(1.0,0.0,0.0));
#47=SHAPE_REPRESENTATION('',(#43),#42);
#48=PRODUCT_DEFINITION_SHAPE('','',#12);
#49=SHAPE_DEFINITION_REPRESENTATION(#48,#47);
#55=(NAMED_UNIT(*)PLANE_ANGLE_UNIT()SI_UNIT($,.RADIAN.));
#56=DIMENSIONAL_EXPONENTS(0.0,0.0,0.0,0.0,0.0,0.0,0.0);
#57=PLANE_ANGLE_MEASURE_WITH_UNIT(PLANE_ANGLE_MEASURE(0.017453292500000),#55);
#61=(CONVERSION_BASED_UNIT('DEGREE',#57)NAMED_UNIT(#56)PLANE_ANGLE_UNIT());
#65=(NAMED_UNIT(*)SI_UNIT($,.STERADIAN.)SOLID_ANGLE_UNIT());
#69=(LENGTH_UNIT()NAMED_UNIT(*)SI_UNIT(.MILLI.,.METRE.));
#71=UNCERTAINTY_MEASURE_WITH_UNIT(LENGTH_MEASURE(0.000001000000000),#69,'DISTANCE_ACCURACY_VALUE','');
#73=(GEOMETRIC_REPRESENTATION_CONTEXT(3)GLOBAL_UNCERTAINTY_ASSIGNED_CONTEXT((#71))GLOBAL_UNIT_ASSIGNED_CONTEXT((#61,#65,#69))REPRESENTATION_CONTEXT('','3D'));
#74=CARTESIAN_POINT('',(0.178644967845211,0.064702745423095,0.0));
#75=DIRECTION('',(0.0,-1.0,0.0));
#76=DIRECTION('',(0.0,0.0,-1.0));
#77=AXIS2_PLACEMENT_3D('',#74,#75,#76);
#78=PLANE('',#77);
#79=CARTESIAN_POINT('',(0.614272824226410,0.064702745423096,-0.168212893557263));
#80=VERTEX_POINT('',#79);
#81=CARTESIAN_POINT('',(0.065051985376310,0.064702745423095,-0.168212893557263));
#82=VERTEX_POINT('',#81);
#83=CARTESIAN_POINT('',(0.614272824226410,0.064702745423096,-0.168212893557263));
#84=DIRECTION('',(-1.0,0.0,0.0));
#85=VECTOR('',#84,0.549220838850100);
#86=LINE('',#83,#85);
#87=EDGE_CURVE('',#80,#82,#86,.T.);
#88=ORIENTED_EDGE('',*,*,#87,.F.);
#89=CARTESIAN_POINT('',(0.339662404801360,0.064702745423096,0.0));
#90=DIRECTION('',(0.0,-1.0,0.0));
#91=DIRECTION('',(-1.0,0.0,0.0));
#92=AXIS2_PLACEMENT_3D('',#89,#90,#91);
#93=CIRCLE('',#92,0.322034873912297);
#94=EDGE_CURVE('',#82,#80,#93,.T.);
#95=ORIENTED_EDGE('',*,*,#94,.F.);
#96=EDGE_LOOP('',(#88,#95));
#97=FACE_OUTER_BOUND('',#96,.T.);
#98=ADVANCED_FACE('',(#97),#78,.F.);
#99=CARTESIAN_POINT('',(0.178644967845211,0.064702745423095,0.0));
#100=DIRECTION('',(0.0,-1.0,0.0));
#101=DIRECTION('',(0.0,0.0,-1.0));
#102=AXIS2_PLACEMENT_3D('',#99,#100,#101);
#103=PLANE('',#102);
#104=CARTESIAN_POINT('',(0.065051985376310,0.064702745423095,0.168212893557263));
#105=VERTEX_POINT('',#104);
#106=CARTESIAN_POINT('',(0.614272824226410,0.064702745423096,0.168212893557263));
#107=VERTEX_POINT('',#106);
#108=CARTESIAN_POINT('',(0.065051985376310,0.064702745423095,0.168212893557263));
#109=DIRECTION('',(1.0,0.0,0.0));
#110=VECTOR('',#109,0.549220838850100);
#111=LINE('',#108,#110);
#112=EDGE_CURVE('',#105,#107,#111,.T.);
#113=ORIENTED_EDGE('',*,*,#112,.F.);
#114=CARTESIAN_POINT('',(0.339662404801360,0.064702745423096,0.0));
#115=DIRECTION('',(0.0,-1.0,0.0));
#116=DIRECTION('',(-1.0,0.0,0.0));
#117=AXIS2_PLACEMENT_3D('',#114,#115,#116);
#118=CIRCLE('',#117,0.322034873912297);
#119=EDGE_CURVE('',#107,#105,#118,.T.);
#120=ORIENTED_EDGE('',*,*,#119,.F.);
#121=EDGE_LOOP('',(#113,#120));
#122=FACE_OUTER_BOUND('',#121,.T.);
#123=ADVANCED_FACE('',(#122),#103,.F.);
#124=CARTESIAN_POINT('',(0.339662404801360,0.317791573045064,0.0));
#125=DIRECTION('',(-5.400341E-016,1.0,0.0));
#126=DIRECTION('',(-1.0,0.0,0.0));
#127=AXIS2_PLACEMENT_3D('',#124,#125,#126);
#128=CONICAL_SURFACE('',#127,0.329767436956149,1.750000000000018);
#129=CARTESIAN_POINT('',(0.677162404801360,0.570880400667034,0.0));
#130=VERTEX_POINT('',#129);
#131=CARTESIAN_POINT('',(0.002162404801359,0.570880400667033,0.0));
#132=VERTEX_POINT('',#131);
#133=CARTESIAN_POINT('',(0.677162404801360,0.570880400667033,-4.370957E-017));
#134=CARTESIAN_POINT('',(0.677162404801360,0.570880400667033,0.043718915299861));
#135=CARTESIAN_POINT('',(0.667982659071917,0.564670741965593,0.089349126695491));
#136=CARTESIAN_POINT('',(0.632739543711644,0.542458903570944,0.171539728266141));
#137=CARTESIAN_POINT('',(0.606741137137118,0.526644150581614,0.208178487735741));
#138=CARTESIAN_POINT('',(0.548139360672812,0.495707391848434,0.265699133930356));
#139=CARTESIAN_POINT('',(0.511213904966264,0.478208749366694,0.290770159211699));
#140=CARTESIAN_POINT('',(0.429087114252353,0.451701606009801,0.324713618368479));
#141=CARTESIAN_POINT('',(0.383692426727732,0.443317384639997,0.333602597365672));
#142=CARTESIAN_POINT('',(0.295632382874987,0.443317384639997,0.333602597365672));
#143=CARTESIAN_POINT('',(0.250237695350366,0.451701606009801,0.324713618368479));
#144=CARTESIAN_POINT('',(0.168110904636456,0.478208749366694,0.290770159211699));
#145=CARTESIAN_POINT('',(0.131185448929907,0.495707391848434,0.265699133930356));
#146=CARTESIAN_POINT('',(0.072583672465602,0.526644150581614,0.208178487735741));
#147=CARTESIAN_POINT('',(0.046585265891075,0.542458903570943,0.171539728266141));
#148=CARTESIAN_POINT('',(0.011342150530803,0.564670741965593,0.089349126695491));
#149=CARTESIAN_POINT('',(0.002162404801360,0.570880400667033,0.043718915299861));
#150=CARTESIAN_POINT('',(0.002162404801359,0.570880400667033,1.202013E-016));
#151=B_SPLINE_CURVE_WITH_KNOTS('',3,(#133,#134,#135,#136,#137,#138,#139,#140,#141,#142,#143,#144,#145,#146,#147,#148,#149,#150),.UNSPECIFIED.,.F.,.U.,(4,2,2,2,2,2,2,2,4),(1.337293803327801,1.670431937912743,2.003570072497686,2.339078839576644,2.674587606655601,3.010096373734559,3.345605140813516,3.678743275398459,4.011881409983401),.UNSPECIFIED.);
#152=EDGE_CURVE('',#130,#132,#151,.T.);
#153=ORIENTED_EDGE('',*,*,#152,.F.);
#154=CARTESIAN_POINT('',(0.002162404801359,0.570880400667033,9.834653E-017));
#155=CARTESIAN_POINT('',(0.002162404801359,0.570880400667033,-0.043718915299861));
#156=CARTESIAN_POINT('',(0.011342150530803,0.564670741965593,-0.089349126695491));
#157=CARTESIAN_POINT('',(0.046585265891075,0.542458903570943,-0.171539728266141));
#158=CARTESIAN_POINT('',(0.072583672465602,0.526644150581614,-0.208178487735741));
#159=CARTESIAN_POINT('',(0.131185448929907,0.495707391848434,-0.265699133930356));
#160=CARTESIAN_POINT('',(0.168110904636456,0.478208749366694,-0.290770159211699));
#161=CARTESIAN_POINT('',(0.250237695350366,0.451701606009801,-0.324713618368479));
#162=CARTESIAN_POINT('',(0.295632382874987,0.443317384639997,-0.333602597365672));
#163=CARTESIAN_POINT('',(0.339662404801360,0.443317384639997,-0.333602597365672));
#164=CARTESIAN_POINT('',(0.383692426727732,0.443317384639997,-0.333602597365672));
#165=CARTESIAN_POINT('',(0.429087114252353,0.451701606009801,-0.324713618368479));
#166=CARTESIAN_POINT('',(0.511213904966264,0.478208749366694,-0.290770159211699));
#167=CARTESIAN_POINT('',(0.548139360672812,0.495707391848434,-0.265699133930356));
#168=CARTESIAN_POINT('',(0.606741137137118,0.526644150581614,-0.208178487735741));
#169=CARTESIAN_POINT('',(0.632739543711644,0.542458903570944,-0.171539728266141));
#170=CARTESIAN_POINT('',(0.667982659071917,0.564670741965593,-0.089349126695491));
#171=CARTESIAN_POINT('',(0.677162404801360,0.570880400667033,-0.043718915299861));
#172=CARTESIAN_POINT('',(0.677162404801360,0.570880400667033,-5.463696E-017));
#173=B_SPLINE_CURVE_WITH_KNOTS('',3,(#154,#155,#156,#157,#158,#159,#160,#161,#162,#163,#164,#165,#166,#167,#168,#169,#170,#171,#172),.UNSPECIFIED.,.F.,.U.,(4,2,2,2,3,2,2,2,4),(4.011881409983401,4.345019544568343,4.678157679153286,5.013666446232244,5.349175213311201,5.684683980390159,6.020192747469117,6.353330882054060,6.686469016639002),.UNSPECIFIED.);
#174=EDGE_CURVE('',#132,#130,#173,.T.);
#175=ORIENTED_EDGE('',*,*,#174,.F.);
#176=EDGE_LOOP('',(#153,#175));
#177=FACE_OUTER_BOUND('',#176,.T.);
#178=CARTESIAN_POINT('',(0.065051985376310,0.064702745423095,-0.168212893557263));
#179=CARTESIAN_POINT('',(0.065036431350300,0.065869320385771,-0.168255736277480));
#180=CARTESIAN_POINT('',(0.065013471762776,0.067033189103847,-0.168286325631397));
#181=CARTESIAN_POINT('',(0.064410965828249,0.090160856532208,-0.168655500595126));
#182=CARTESIAN_POINT('',(0.060902489084983,0.113166576185563,-0.164486564528108));
#183=CARTESIAN_POINT('',(0.050127798979551,0.155035155181359,-0.147519293021719));
#184=CARTESIAN_POINT('',(0.043060445563589,0.173953190657256,-0.134731458209643));
#185=CARTESIAN_POINT('',(0.030416314542827,0.203872243429246,-0.105286176307611));
#186=CARTESIAN_POINT('',(0.023926582503907,0.217013958295571,-0.086553489911463));
#187=CARTESIAN_POINT('',(0.014821411206230,0.234692432509436,-0.044856918734096));
#188=CARTESIAN_POINT('',(0.012295953057516,0.239206693869314,-0.021863903004264));
#189=CARTESIAN_POINT('',(0.012295953057516,0.239206693869314,0.021863903004264));
#190=CARTESIAN_POINT('',(0.014821411206230,0.234692432509436,0.044856918734096));
#191=CARTESIAN_POINT('',(0.023926582503907,0.217013958295571,0.086553489911463));
#192=CARTESIAN_POINT('',(0.030416314542827,0.203872243429246,0.105286176307611));
#193=CARTESIAN_POINT('',(0.043060445563589,0.173953190657256,0.134731458209643));
#194=CARTESIAN_POINT('',(0.050127798979551,0.155035155181359,0.147519293021719));
#195=CARTESIAN_POINT('',(0.060902489084983,0.113166576185563,0.164486564528108));
#196=CARTESIAN_POINT('',(0.064410965828249,0.090160856532208,0.168655500595126));
#197=CARTESIAN_POINT('',(0.064983235354728,0.068193837571333,0.168304852461101));
#198=CARTESIAN_POINT('',(0.065013471763508,0.067033189075727,0.168286325630948));
#199=CARTESIAN_POINT('',(0.065036431350656,0.065869320359071,0.168255736276500));
#200=CARTESIAN_POINT('',(0.065051985376310,0.064702745423095,0.168212893557263));
#201=B_SPLINE_CURVE_WITH_KNOTS('',3,(#178,#179,#180,#181,#182,#183,#184,#185,#186,#187,#188,#189,#190,#191,#192,#193,#194,#195,#196,#197,#198,#199,#200),.UNSPECIFIED.,.F.,.U.,(4,2,2,2,2,2,2,2,2,3,4),(-1.345127201919363,-1.336278933683736,-1.168812141155292,-1.001345348626849,-0.834742407734359,-0.668139466841868,-0.501536525949377,-0.334933585056886,-0.167466792528443,0.0,0.008848268450003),.UNSPECIFIED.);
#202=EDGE_CURVE('',#82,#105,#201,.T.);
#203=ORIENTED_EDGE('',*,*,#202,.F.);
#204=ORIENTED_EDGE('',*,*,#94,.T.);
#205=CARTESIAN_POINT('',(0.614272824226410,0.064702745423096,0.168212893557263));
#206=CARTESIAN_POINT('',(0.614288378252420,0.065869320385771,0.168255736277480));
#207=CARTESIAN_POINT('',(0.614311337839944,0.067033189103848,0.168286325631397));
#208=CARTESIAN_POINT('',(0.614341574247992,0.068193837571334,0.168304852461101));
#209=CARTESIAN_POINT('',(0.614913843774471,0.090160856532208,0.168655500595126));
#210=CARTESIAN_POINT('',(0.618422320517736,0.113166576185563,0.164486564528108));
#211=CARTESIAN_POINT('',(0.629197010623168,0.155035155181359,0.147519293021719));
#212=CARTESIAN_POINT('',(0.636264364039130,0.173953190657257,0.134731458209643));
#213=CARTESIAN_POINT('',(0.648908495059892,0.203872243429247,0.105286176307611));
#214=CARTESIAN_POINT('',(0.655398227098812,0.217013958295571,0.086553489911463));
#215=CARTESIAN_POINT('',(0.664503398396489,0.234692432509436,0.044856918734096));
#216=CARTESIAN_POINT('',(0.667028856545204,0.239206693869314,0.021863903004264));
#217=CARTESIAN_POINT('',(0.667028856545204,0.239206693869314,-0.021863903004264));
#218=CARTESIAN_POINT('',(0.664503398396489,0.234692432509436,-0.044856918734096));
#219=CARTESIAN_POINT('',(0.655398227098812,0.217013958295571,-0.086553489911463));
#220=CARTESIAN_POINT('',(0.648908495059892,0.203872243429246,-0.105286176307611));
#221=CARTESIAN_POINT('',(0.636264364039130,0.173953190657256,-0.134731458209643));
#222=CARTESIAN_POINT('',(0.629197010623168,0.155035155181359,-0.147519293021719));
#223=CARTESIAN_POINT('',(0.618422320517736,0.113166576185563,-0.164486564528108));
#224=CARTESIAN_POINT('',(0.614913843774471,0.090160856532208,-0.168655500595126));
#225=CARTESIAN_POINT('',(0.614311337839212,0.067033189075728,-0.168286325630948));
#226=CARTESIAN_POINT('',(0.614288378252064,0.065869320359071,-0.168255736276500));
#227=CARTESIAN_POINT('',(0.614272824226410,0.064702745423096,-0.168212893557263));
#228=B_SPLINE_CURVE_WITH_KNOTS('',3,(#205,#206,#207,#208,#209,#210,#211,#212,#213,#214,#215,#216,#217,#218,#219,#220,#221,#222,#223,#224,#225,#226,#227),.UNSPECIFIED.,.F.,.U.,(4,3,2,2,2,2,2,2,2,2,4),(-0.008848268235628,0.0,0.167466792528443,0.334933585056887,0.501536525949377,0.668139466841868,0.834742407734359,1.001345348626849,1.168812141155293,1.336278933683736,1.345127202133739),.UNSPECIFIED.);
#229=EDGE_CURVE('',#107,#80,#228,.T.);
#230=ORIENTED_EDGE('',*,*,#229,.F.);
#231=ORIENTED_EDGE('',*,*,#119,.T.);
#232=EDGE_LOOP('',(#203,#204,#230,#231));
#233=FACE_BOUND('',#232,.T.);
#234=ADVANCED_FACE('',(#177,#233),#128,.F.);
#235=CARTESIAN_POINT('',(1.089662404801360,0.070880400667034,0.0));
#236=DIRECTION('',(1.0,5.503542E-016,0.0));
#237=DIRECTION('',(0.0,1.0,0.0));
#238=AXIS2_PLACEMENT_3D('',#235,#236,#237);
#239=CYLINDRICAL_SURFACE('',#238,0.500000000000000);
#240=CARTESIAN_POINT('',(3.339662404801360,0.570880400667036,0.0));
#241=VERTEX_POINT('',#240);
#242=CARTESIAN_POINT('',(3.339662404801360,0.070880400667035,0.0));
#243=DIRECTION('',(1.0,0.0,0.0));
#244=DIRECTION('',(0.0,1.0,0.0));
#245=AXIS2_PLACEMENT_3D('',#242,#243,#244);
#246=CIRCLE('',#245,0.500000000000001);
#247=EDGE_CURVE('',#241,#241,#246,.T.);
#248=ORIENTED_EDGE('',*,*,#247,.F.);
#249=EDGE_LOOP('',(#248));
#250=FACE_OUTER_BOUND('',#249,.T.);
#251=ORIENTED_EDGE('',*,*,#152,.T.);
#252=ORIENTED_EDGE('',*,*,#174,.T.);
#253=EDGE_LOOP('',(#251,#252));
#254=FACE_BOUND('',#253,.T.);
#255=CARTESIAN_POINT('',(-1.160337595198641,0.570880400667032,0.0));
#256=VERTEX_POINT('',#255);
#257=CARTESIAN_POINT('',(-1.160337595198640,0.070880400667033,0.0));
#258=DIRECTION('',(1.0,0.0,0.0));
#259=DIRECTION('',(0.0,1.0,0.0));
#260=AXIS2_PLACEMENT_3D('',#257,#258,#259);
#261=CIRCLE('',#260,0.499999999999999);
#262=EDGE_CURVE('',#256,#256,#261,.T.);
#263=ORIENTED_EDGE('',*,*,#262,.T.);
#264=EDGE_LOOP('',(#263));
#265=FACE_BOUND('',#264,.T.);
#266=ADVANCED_FACE('',(#250,#254,#265),#239,.T.);
#267=CARTESIAN_POINT('',(3.339662404801360,0.489630400667036,0.0));
#268=DIRECTION('',(1.0,0.0,0.0));
#269=DIRECTION('',(0.0,0.0,-1.0));
#270=AXIS2_PLACEMENT_3D('',#267,#268,#269);
#271=PLANE('',#270);
#272=ORIENTED_EDGE('',*,*,#247,.T.);
#273=EDGE_LOOP('',(#272));
#274=FACE_OUTER_BOUND('',#273,.T.);
#275=CARTESIAN_POINT('',(3.339662404801360,0.408380400667036,0.0));
#276=VERTEX_POINT('',#275);
#277=CARTESIAN_POINT('',(3.339662404801360,0.070880400667035,0.0));
#278=DIRECTION('',(1.0,0.0,0.0));
#279=DIRECTION('',(0.0,1.0,0.0));
#280=AXIS2_PLACEMENT_3D('',#277,#278,#279);
#281=CIRCLE('',#280,0.337500000000001);
#282=EDGE_CURVE('',#276,#276,#281,.T.);
#283=ORIENTED_EDGE('',*,*,#282,.F.);
#284=EDGE_LOOP('',(#283));
#285=FACE_BOUND('',#284,.T.);
#286=ADVANCED_FACE('',(#274,#285),#271,.T.);
#287=CARTESIAN_POINT('',(3.089662404801360,0.070880400667035,0.0));
#288=DIRECTION('',(1.0,5.503542E-016,0.0));
#289=DIRECTION('',(0.0,1.0,0.0));
#290=AXIS2_PLACEMENT_3D('',#287,#288,#289);
#291=CONICAL_SURFACE('',#290,0.329861809175353,1.750000000000028);
#292=CARTESIAN_POINT('',(2.839662404801360,0.393104019017741,0.0));
#293=VERTEX_POINT('',#292);
#294=CARTESIAN_POINT('',(2.839662404801360,0.070880400667035,0.0));
#295=DIRECTION('',(1.0,0.0,0.0));
#296=DIRECTION('',(0.0,1.0,0.0));
#297=AXIS2_PLACEMENT_3D('',#294,#295,#296);
#298=CIRCLE('',#297,0.322223618350706);
#299=EDGE_CURVE('',#293,#293,#298,.T.);
#300=ORIENTED_EDGE('',*,*,#299,.F.);
#301=EDGE_LOOP('',(#300));
#302=FACE_OUTER_BOUND('',#301,.T.);
#303=ORIENTED_EDGE('',*,*,#282,.T.);
#304=EDGE_LOOP('',(#303));
#305=FACE_BOUND('',#304,.T.);
#306=ADVANCED_FACE('',(#302,#305),#291,.F.);
#307=CARTESIAN_POINT('',(2.839662404801360,0.316155356443528,0.0));
#308=DIRECTION('',(1.0,0.0,0.0));
#309=DIRECTION('',(0.0,0.0,-1.0));
#310=AXIS2_PLACEMENT_3D('',#307,#308,#309);
#311=PLANE('',#310);
#312=ORIENTED_EDGE('',*,*,#299,.T.);
#313=EDGE_LOOP('',(#312));
#314=FACE_OUTER_BOUND('',#313,.T.);
#315=CARTESIAN_POINT('',(2.839662404801360,0.239206693869315,0.0));
#316=VERTEX_POINT('',#315);
#317=CARTESIAN_POINT('',(2.839662404801360,0.070880400667035,0.0));
#318=DIRECTION('',(1.0,0.0,0.0));
#319=DIRECTION('',(0.0,1.0,0.0));
#320=AXIS2_PLACEMENT_3D('',#317,#318,#319);
#321=CIRCLE('',#320,0.168326293202281);
#322=EDGE_CURVE('',#316,#316,#321,.T.);
#323=ORIENTED_EDGE('',*,*,#322,.F.);
#324=EDGE_LOOP('',(#323));
#325=FACE_BOUND('',#324,.T.);
#326=ADVANCED_FACE('',(#314,#325),#311,.T.);
#327=CARTESIAN_POINT('',(1.115618779936863,0.070880400667034,0.0));
#328=DIRECTION('',(1.0,5.503542E-016,0.0));
#329=DIRECTION('',(0.0,1.0,0.0));
#330=AXIS2_PLACEMENT_3D('',#327,#328,#329);
#331=CYLINDRICAL_SURFACE('',#330,0.168326293202280);
#332=CARTESIAN_POINT('',(-0.608424844927634,0.239206693869313,0.0));
#333=VERTEX_POINT('',#332);
#334=CARTESIAN_POINT('',(-0.608424844927634,0.070880400667033,0.0));
#335=DIRECTION('',(1.0,0.0,0.0));
#336=DIRECTION('',(0.0,1.0,0.0));
#337=AXIS2_PLACEMENT_3D('',#334,#335,#336);
#338=CIRCLE('',#337,0.168326293202281);
#339=EDGE_CURVE('',#333,#333,#338,.T.);
#340=ORIENTED_EDGE('',*,*,#339,.F.);
#341=EDGE_LOOP('',(#340));
#342=FACE_OUTER_BOUND('',#341,.T.);
#343=ORIENTED_EDGE('',*,*,#87,.T.);
#344=ORIENTED_EDGE('',*,*,#202,.T.);
#345=ORIENTED_EDGE('',*,*,#112,.T.);
#346=ORIENTED_EDGE('',*,*,#229,.T.);
#347=EDGE_LOOP('',(#343,#344,#345,#346));
#348=FACE_BOUND('',#347,.T.);
#349=ORIENTED_EDGE('',*,*,#322,.T.);
#350=EDGE_LOOP('',(#349));
#351=FACE_BOUND('',#350,.T.);
#352=ADVANCED_FACE('',(#342,#348,#351),#331,.F.);
#353=CARTESIAN_POINT('',(-0.634381220063137,0.070880400667033,0.0));
#354=DIRECTION('',(-1.0,-5.503542E-016,0.0));
#355=DIRECTION('',(0.0,1.0,0.0));
#356=AXIS2_PLACEMENT_3D('',#353,#354,#355);
#357=CONICAL_SURFACE('',#356,0.211524955776493,59.000000000000689);
#358=CARTESIAN_POINT('',(-0.660337595198641,0.325604019017738,0.0));
#359=VERTEX_POINT('',#358);
#360=CARTESIAN_POINT('',(-0.660337595198640,0.070880400667033,0.0));
#361=DIRECTION('',(1.0,0.0,0.0));
#362=DIRECTION('',(0.0,1.0,0.0));
#363=AXIS2_PLACEMENT_3D('',#360,#361,#362);
#364=CIRCLE('',#363,0.254723618350705);
#365=EDGE_CURVE('',#359,#359,#364,.T.);
#366=ORIENTED_EDGE('',*,*,#365,.F.);
#367=EDGE_LOOP('',(#366));
#368=FACE_OUTER_BOUND('',#367,.T.);
#369=ORIENTED_EDGE('',*,*,#339,.T.);
#370=EDGE_LOOP('',(#369));
#371=FACE_BOUND('',#370,.T.);
#372=ADVANCED_FACE('',(#368,#371),#357,.F.);
#373=CARTESIAN_POINT('',(-0.910337595198640,0.070880400667033,0.0));
#374=DIRECTION('',(-1.0,-5.503542E-016,0.0));
#375=DIRECTION('',(0.0,1.0,0.0));
#376=AXIS2_PLACEMENT_3D('',#373,#374,#375);
#377=CONICAL_SURFACE('',#376,0.262361809175352,1.749999999999977);
#378=CARTESIAN_POINT('',(-1.160337595198641,0.340880400667032,0.0));
#379=VERTEX_POINT('',#378);
#380=CARTESIAN_POINT('',(-1.160337595198640,0.070880400667033,0.0));
#381=DIRECTION('',(1.0,0.0,0.0));
#382=DIRECTION('',(0.0,1.0,0.0));
#383=AXIS2_PLACEMENT_3D('',#380,#381,#382);
#384=CIRCLE('',#383,0.270000000000000);
#385=EDGE_CURVE('',#379,#379,#384,.T.);
#386=ORIENTED_EDGE('',*,*,#385,.F.);
#387=EDGE_LOOP('',(#386));
#388=FACE_OUTER_BOUND('',#387,.T.);
#389=ORIENTED_EDGE('',*,*,#365,.T.);
#390=EDGE_LOOP('',(#389));
#391=FACE_BOUND('',#390,.T.);
#392=ADVANCED_FACE('',(#388,#391),#377,.F.);
#393=CARTESIAN_POINT('',(-1.160337595198641,0.455880400667032,0.0));
#394=DIRECTION('',(-1.0,0.0,0.0));
#395=DIRECTION('',(0.0,0.0,1.0));
#396=AXIS2_PLACEMENT_3D('',#393,#394,#395);
#397=PLANE('',#396);
#398=ORIENTED_EDGE('',*,*,#262,.F.);
#399=EDGE_LOOP('',(#398));
#400=FACE_OUTER_BOUND('',#399,.T.);
#401=ORIENTED_EDGE('',*,*,#385,.T.);
#402=EDGE_LOOP('',(#401));
#403=FACE_BOUND('',#402,.T.);
#404=ADVANCED_FACE('',(#400,#403),#397,.T.);
#405=CLOSED_SHELL('',(#98,#123,#234,#266,#286,#306,#326,#352,#372,#392,#404));
#406=MANIFOLD_SOLID_BREP('',#405);
#407=COLOUR_RGB('Metal-Gold',0.752941012382507,0.607842981815338,0.227450996637344);
#408=FILL_AREA_STYLE_COLOUR('Metal-Gold',#407);
#409=FILL_AREA_STYLE('Metal-Gold',(#408));
#410=SURFACE_STYLE_FILL_AREA(#409);
#411=SURFACE_SIDE_STYLE('Metal-Gold',(#410));
#412=SURFACE_STYLE_USAGE(.BOTH.,#411);
#413=PRESENTATION_STYLE_ASSIGNMENT((#412));
#414=STYLED_ITEM('',(#413),#406);
#415=MECHANICAL_DESIGN_GEOMETRIC_PRESENTATION_REPRESENTATION('',(#414),#42);
#416=ADVANCED_BREP_SHAPE_REPRESENTATION('ABSR',(#406),#42);
#417=SHAPE_REPRESENTATION_RELATIONSHIP('SRR','None',#416,#47);
ENDSEC;
END-ISO-10303-21;
