ISO-10303-21;
HEADER;
FILE_DESCRIPTION( ( 'STEP AP214' ), '1' );
FILE_NAME( 'p:/temp/worker_124/temp/app_51_0201905291548090115656210e898ce_000000_00_00_000000/format_2/K0046.9142142.stp', '2019-05-29T13:48:10', ( '' ), ( '' ), ' ', 'PARTsolutions', ' ' );
FILE_SCHEMA( ( 'AUTOMOTIVE_DESIGN { 1 0 10303 214 1 1 1 1 }' ) );
ENDSEC;
DATA;
#1 = MECHANICAL_DESIGN_GEOMETRIC_PRESENTATION_REPRESENTATION( ' ', ( #10, #11, #12, #13, #14, #15, #16, #17, #18, #19, #20, #21 ), #6 );
#2 = PRODUCT_DEFINITION_CONTEXT( '', #22, 'design' );
#3 = APPLICATION_PROTOCOL_DEFINITION( 'international standard', 'automotive_design', 2001, #22 );
#4 = PRODUCT_CATEGORY_RELATIONSHIP( 'NONE', 'NONE', #23, #24 );
#5 = SHAPE_DEFINITION_REPRESENTATION( #25, #26 );
#6 =  ( GEOMETRIC_REPRESENTATION_CONTEXT( 3 )GLOBAL_UNCERTAINTY_ASSIGNED_CONTEXT( ( #29 ) )GLOBAL_UNIT_ASSIGNED_CONTEXT( ( #31, #32, #33 ) )REPRESENTATION_CONTEXT( 'NONE', 'WORKSPACE' ) );
#10 = STYLED_ITEM( '', ( #35 ), #36 );
#11 = STYLED_ITEM( '', ( #37 ), #38 );
#12 = STYLED_ITEM( '', ( #39 ), #40 );
#13 = STYLED_ITEM( '', ( #41 ), #42 );
#14 = STYLED_ITEM( '', ( #43 ), #44 );
#15 = STYLED_ITEM( '', ( #45 ), #46 );
#16 = STYLED_ITEM( '', ( #47 ), #48 );
#17 = STYLED_ITEM( '', ( #49 ), #50 );
#18 = STYLED_ITEM( '', ( #51 ), #52 );
#19 = STYLED_ITEM( '', ( #53 ), #54 );
#20 = STYLED_ITEM( '', ( #55 ), #56 );
#21 = STYLED_ITEM( '', ( #57 ), #58 );
#22 = APPLICATION_CONTEXT( 'core data for automotive mechanical design processes' );
#23 = PRODUCT_CATEGORY( 'part', 'NONE' );
#24 = PRODUCT_RELATED_PRODUCT_CATEGORY( 'detail', ' ', ( #59 ) );
#25 = PRODUCT_DEFINITION_SHAPE( 'NONE', 'NONE', #60 );
#26 = ADVANCED_BREP_SHAPE_REPRESENTATION( '_K0046.9142142', ( #61, #62 ), #6 );
#29 = UNCERTAINTY_MEASURE_WITH_UNIT( LENGTH_MEASURE( 0.00100000000000000 ), #31, '', '' );
#31 =  ( CONVERSION_BASED_UNIT( 'MILLIMETRE', #65 )LENGTH_UNIT(  )NAMED_UNIT( #68 ) );
#32 =  ( NAMED_UNIT( #70 )PLANE_ANGLE_UNIT(  )SI_UNIT( $, .RADIAN. ) );
#33 =  ( NAMED_UNIT( #70 )SI_UNIT( $, .STERADIAN. )SOLID_ANGLE_UNIT(  ) );
#35 = PRESENTATION_STYLE_ASSIGNMENT( ( #76 ) );
#36 = ADVANCED_FACE( '', ( #77 ), #78, .F. );
#37 = PRESENTATION_STYLE_ASSIGNMENT( ( #79 ) );
#38 = ADVANCED_FACE( '', ( #80 ), #81, .T. );
#39 = PRESENTATION_STYLE_ASSIGNMENT( ( #82 ) );
#40 = ADVANCED_FACE( '', ( #83 ), #84, .F. );
#41 = PRESENTATION_STYLE_ASSIGNMENT( ( #85 ) );
#42 = ADVANCED_FACE( '', ( #86 ), #87, .F. );
#43 = PRESENTATION_STYLE_ASSIGNMENT( ( #88 ) );
#44 = ADVANCED_FACE( '', ( #89, #90 ), #91, .F. );
#45 = PRESENTATION_STYLE_ASSIGNMENT( ( #92 ) );
#46 = ADVANCED_FACE( '', ( #93 ), #94, .F. );
#47 = PRESENTATION_STYLE_ASSIGNMENT( ( #95 ) );
#48 = ADVANCED_FACE( '', ( #96 ), #97, .F. );
#49 = PRESENTATION_STYLE_ASSIGNMENT( ( #98 ) );
#50 = ADVANCED_FACE( '', ( #99 ), #100, .T. );
#51 = PRESENTATION_STYLE_ASSIGNMENT( ( #101 ) );
#52 = ADVANCED_FACE( '', ( #102, #103, #104 ), #105, .F. );
#53 = PRESENTATION_STYLE_ASSIGNMENT( ( #106 ) );
#54 = ADVANCED_FACE( '', ( #107 ), #108, .F. );
#55 = PRESENTATION_STYLE_ASSIGNMENT( ( #109 ) );
#56 = ADVANCED_FACE( '', ( #110, #111, #112 ), #113, .F. );
#57 = PRESENTATION_STYLE_ASSIGNMENT( ( #114 ) );
#58 = ADVANCED_FACE( '', ( #115, #116 ), #117, .F. );
#59 = PRODUCT( '_K0046.9142142', '_K0046.9142142', 'PART-_K0046.9142142-DESC', ( #118 ) );
#60 = PRODUCT_DEFINITION( 'NONE', 'NONE', #119, #2 );
#61 = MANIFOLD_SOLID_BREP( '_K0046.9142142', #120 );
#62 = AXIS2_PLACEMENT_3D( '', #121, #122, #123 );
#65 = LENGTH_MEASURE_WITH_UNIT( LENGTH_MEASURE( 1.00000000000000 ), #124 );
#68 = DIMENSIONAL_EXPONENTS( 1.00000000000000, 0.000000000000000, 0.000000000000000, 0.000000000000000, 0.000000000000000, 0.000000000000000, 0.000000000000000 );
#70 = DIMENSIONAL_EXPONENTS( 0.000000000000000, 0.000000000000000, 0.000000000000000, 0.000000000000000, 0.000000000000000, 0.000000000000000, 0.000000000000000 );
#76 = SURFACE_STYLE_USAGE( .BOTH., #125 );
#77 = FACE_OUTER_BOUND( '', #126, .T. );
#78 = PLANE( '', #127 );
#79 = SURFACE_STYLE_USAGE( .BOTH., #128 );
#80 = FACE_OUTER_BOUND( '', #129, .T. );
#81 = CYLINDRICAL_SURFACE( '', #130, 3.50000000000000 );
#82 = SURFACE_STYLE_USAGE( .BOTH., #131 );
#83 = FACE_OUTER_BOUND( '', #132, .T. );
#84 = PLANE( '', #133 );
#85 = SURFACE_STYLE_USAGE( .BOTH., #134 );
#86 = FACE_OUTER_BOUND( '', #135, .T. );
#87 = PLANE( '', #136 );
#88 = SURFACE_STYLE_USAGE( .BOTH., #137 );
#89 = FACE_OUTER_BOUND( '', #138, .T. );
#90 = FACE_OUTER_BOUND( '', #139, .T. );
#91 = CYLINDRICAL_SURFACE( '', #140, 2.10000000000000 );
#92 = SURFACE_STYLE_USAGE( .BOTH., #141 );
#93 = FACE_OUTER_BOUND( '', #142, .T. );
#94 = PLANE( '', #143 );
#95 = SURFACE_STYLE_USAGE( .BOTH., #144 );
#96 = FACE_OUTER_BOUND( '', #145, .T. );
#97 = CYLINDRICAL_SURFACE( '', #146, 1.50000000000000 );
#98 = SURFACE_STYLE_USAGE( .BOTH., #147 );
#99 = FACE_OUTER_BOUND( '', #148, .T. );
#100 = PLANE( '', #149 );
#101 = SURFACE_STYLE_USAGE( .BOTH., #150 );
#102 = FACE_BOUND( '', #151, .T. );
#103 = FACE_BOUND( '', #152, .T. );
#104 = FACE_OUTER_BOUND( '', #153, .T. );
#105 = PLANE( '', #154 );
#106 = SURFACE_STYLE_USAGE( .BOTH., #155 );
#107 = FACE_OUTER_BOUND( '', #156, .T. );
#108 = PLANE( '', #157 );
#109 = SURFACE_STYLE_USAGE( .BOTH., #158 );
#110 = FACE_BOUND( '', #159, .T. );
#111 = FACE_BOUND( '', #160, .T. );
#112 = FACE_OUTER_BOUND( '', #161, .T. );
#113 = PLANE( '', #162 );
#114 = SURFACE_STYLE_USAGE( .BOTH., #163 );
#115 = FACE_OUTER_BOUND( '', #164, .T. );
#116 = FACE_OUTER_BOUND( '', #165, .T. );
#117 = CYLINDRICAL_SURFACE( '', #166, 2.10000000000000 );
#118 = PRODUCT_CONTEXT( '', #22, 'mechanical' );
#119 = PRODUCT_DEFINITION_FORMATION_WITH_SPECIFIED_SOURCE( ' ', 'NONE', #59, .NOT_KNOWN. );
#120 = CLOSED_SHELL( '', ( #36, #50, #54, #42, #38, #52, #40, #56, #48, #44, #58, #46 ) );
#121 = CARTESIAN_POINT( '', ( 0.000000000000000, 0.000000000000000, 0.000000000000000 ) );
#122 = DIRECTION( '', ( 0.000000000000000, 0.000000000000000, 1.00000000000000 ) );
#123 = DIRECTION( '', ( 1.00000000000000, 0.000000000000000, 0.000000000000000 ) );
#124 =  ( LENGTH_UNIT(  )NAMED_UNIT( #68 )SI_UNIT( .MILLI., .METRE. ) );
#125 = SURFACE_SIDE_STYLE( '', ( #168 ) );
#126 = EDGE_LOOP( '', ( #169, #170, #171, #172 ) );
#127 = AXIS2_PLACEMENT_3D( '', #173, #174, #175 );
#128 = SURFACE_SIDE_STYLE( '', ( #176 ) );
#129 = EDGE_LOOP( '', ( #177, #178, #179, #180 ) );
#130 = AXIS2_PLACEMENT_3D( '', #181, #182, #183 );
#131 = SURFACE_SIDE_STYLE( '', ( #184 ) );
#132 = EDGE_LOOP( '', ( #185, #186, #187, #188 ) );
#133 = AXIS2_PLACEMENT_3D( '', #189, #190, #191 );
#134 = SURFACE_SIDE_STYLE( '', ( #192 ) );
#135 = EDGE_LOOP( '', ( #193, #194, #195, #196 ) );
#136 = AXIS2_PLACEMENT_3D( '', #197, #198, #199 );
#137 = SURFACE_SIDE_STYLE( '', ( #200 ) );
#138 = EDGE_LOOP( '', ( #201 ) );
#139 = EDGE_LOOP( '', ( #202 ) );
#140 = AXIS2_PLACEMENT_3D( '', #203, #204, #205 );
#141 = SURFACE_SIDE_STYLE( '', ( #206 ) );
#142 = EDGE_LOOP( '', ( #207, #208, #209, #210, #211, #212, #213, #214 ) );
#143 = AXIS2_PLACEMENT_3D( '', #215, #216, #217 );
#144 = SURFACE_SIDE_STYLE( '', ( #218 ) );
#145 = EDGE_LOOP( '', ( #219, #220, #221, #222 ) );
#146 = AXIS2_PLACEMENT_3D( '', #223, #224, #225 );
#147 = SURFACE_SIDE_STYLE( '', ( #226 ) );
#148 = EDGE_LOOP( '', ( #227, #228, #229, #230, #231, #232, #233, #234 ) );
#149 = AXIS2_PLACEMENT_3D( '', #235, #236, #237 );
#150 = SURFACE_SIDE_STYLE( '', ( #238 ) );
#151 = EDGE_LOOP( '', ( #239 ) );
#152 = EDGE_LOOP( '', ( #240 ) );
#153 = EDGE_LOOP( '', ( #241, #242, #243, #244 ) );
#154 = AXIS2_PLACEMENT_3D( '', #245, #246, #247 );
#155 = SURFACE_SIDE_STYLE( '', ( #248 ) );
#156 = EDGE_LOOP( '', ( #249, #250, #251, #252 ) );
#157 = AXIS2_PLACEMENT_3D( '', #253, #254, #255 );
#158 = SURFACE_SIDE_STYLE( '', ( #256 ) );
#159 = EDGE_LOOP( '', ( #257 ) );
#160 = EDGE_LOOP( '', ( #258 ) );
#161 = EDGE_LOOP( '', ( #259, #260, #261, #262 ) );
#162 = AXIS2_PLACEMENT_3D( '', #263, #264, #265 );
#163 = SURFACE_SIDE_STYLE( '', ( #266 ) );
#164 = EDGE_LOOP( '', ( #267 ) );
#165 = EDGE_LOOP( '', ( #268 ) );
#166 = AXIS2_PLACEMENT_3D( '', #269, #270, #271 );
#168 = SURFACE_STYLE_FILL_AREA( #272 );
#169 = ORIENTED_EDGE( '', *, *, #273, .T. );
#170 = ORIENTED_EDGE( '', *, *, #274, .F. );
#171 = ORIENTED_EDGE( '', *, *, #275, .F. );
#172 = ORIENTED_EDGE( '', *, *, #276, .T. );
#173 = CARTESIAN_POINT( '', ( -9.00000000000000, 6.00000000000001, 8.00000000000000 ) );
#174 = DIRECTION( '', ( -0.970142500145329, -0.242535625036343, 0.000000000000000 ) );
#175 = DIRECTION( '', ( 0.242535625036343, -0.970142500145329, 0.000000000000000 ) );
#176 = SURFACE_STYLE_FILL_AREA( #277 );
#177 = ORIENTED_EDGE( '', *, *, #278, .T. );
#178 = ORIENTED_EDGE( '', *, *, #279, .F. );
#179 = ORIENTED_EDGE( '', *, *, #280, .F. );
#180 = ORIENTED_EDGE( '', *, *, #281, .T. );
#181 = CARTESIAN_POINT( '', ( -10.5000000000000, 3.50000000000000, 8.00000000000000 ) );
#182 = DIRECTION( '', ( 0.000000000000000, -0.000000000000000, 1.00000000000000 ) );
#183 = DIRECTION( '', ( -1.00000000000000, 0.000000000000000, 0.000000000000000 ) );
#184 = SURFACE_STYLE_FILL_AREA( #282 );
#185 = ORIENTED_EDGE( '', *, *, #283, .T. );
#186 = ORIENTED_EDGE( '', *, *, #284, .F. );
#187 = ORIENTED_EDGE( '', *, *, #285, .F. );
#188 = ORIENTED_EDGE( '', *, *, #286, .T. );
#189 = CARTESIAN_POINT( '', ( 0.000000000000000, 0.000000000000000, 8.00000000000000 ) );
#190 = DIRECTION( '', ( -1.00000000000000, 0.000000000000000, 0.000000000000000 ) );
#191 = DIRECTION( '', ( 0.000000000000000, 0.000000000000000, 1.00000000000000 ) );
#192 = SURFACE_STYLE_FILL_AREA( #287 );
#193 = ORIENTED_EDGE( '', *, *, #288, .T. );
#194 = ORIENTED_EDGE( '', *, *, #281, .F. );
#195 = ORIENTED_EDGE( '', *, *, #289, .F. );
#196 = ORIENTED_EDGE( '', *, *, #274, .T. );
#197 = CARTESIAN_POINT( '', ( -9.50000000000002, 8.00000000000000, 8.00000000000000 ) );
#198 = DIRECTION( '', ( 0.470588235294120, -0.882352941176469, 0.000000000000000 ) );
#199 = DIRECTION( '', ( 0.882352941176469, 0.470588235294120, 0.000000000000000 ) );
#200 = SURFACE_STYLE_FILL_AREA( #290 );
#201 = ORIENTED_EDGE( '', *, *, #291, .F. );
#202 = ORIENTED_EDGE( '', *, *, #292, .T. );
#203 = CARTESIAN_POINT( '', ( -4.00000000000000, 8.00000000000000, -4.00000000000000 ) );
#204 = DIRECTION( '', ( -0.000000000000000, 1.00000000000000, 0.000000000000000 ) );
#205 = DIRECTION( '', ( 0.000000000000000, 0.000000000000000, -1.00000000000000 ) );
#206 = SURFACE_STYLE_FILL_AREA( #293 );
#207 = ORIENTED_EDGE( '', *, *, #288, .F. );
#208 = ORIENTED_EDGE( '', *, *, #273, .F. );
#209 = ORIENTED_EDGE( '', *, *, #294, .F. );
#210 = ORIENTED_EDGE( '', *, *, #295, .T. );
#211 = ORIENTED_EDGE( '', *, *, #296, .F. );
#212 = ORIENTED_EDGE( '', *, *, #283, .F. );
#213 = ORIENTED_EDGE( '', *, *, #297, .F. );
#214 = ORIENTED_EDGE( '', *, *, #278, .F. );
#215 = CARTESIAN_POINT( '', ( -10.5000000000000, 3.50000000000000, -8.00000000000000 ) );
#216 = DIRECTION( '', ( 0.000000000000000, 0.000000000000000, 1.00000000000000 ) );
#217 = DIRECTION( '', ( 1.00000000000000, 0.000000000000000, -0.000000000000000 ) );
#218 = SURFACE_STYLE_FILL_AREA( #298 );
#219 = ORIENTED_EDGE( '', *, *, #295, .F. );
#220 = ORIENTED_EDGE( '', *, *, #299, .F. );
#221 = ORIENTED_EDGE( '', *, *, #300, .T. );
#222 = ORIENTED_EDGE( '', *, *, #301, .T. );
#223 = CARTESIAN_POINT( '', ( -10.5000000000000, 3.50000000000000, 8.00000000000000 ) );
#224 = DIRECTION( '', ( 0.000000000000000, -0.000000000000000, 1.00000000000000 ) );
#225 = DIRECTION( '', ( -1.00000000000000, 0.000000000000000, 0.000000000000000 ) );
#226 = SURFACE_STYLE_FILL_AREA( #302 );
#227 = ORIENTED_EDGE( '', *, *, #289, .T. );
#228 = ORIENTED_EDGE( '', *, *, #280, .T. );
#229 = ORIENTED_EDGE( '', *, *, #303, .T. );
#230 = ORIENTED_EDGE( '', *, *, #285, .T. );
#231 = ORIENTED_EDGE( '', *, *, #304, .T. );
#232 = ORIENTED_EDGE( '', *, *, #300, .F. );
#233 = ORIENTED_EDGE( '', *, *, #305, .T. );
#234 = ORIENTED_EDGE( '', *, *, #275, .T. );
#235 = CARTESIAN_POINT( '', ( -10.5000000000000, 3.50000000000000, 8.00000000000000 ) );
#236 = DIRECTION( '', ( 0.000000000000000, 0.000000000000000, 1.00000000000000 ) );
#237 = DIRECTION( '', ( 1.00000000000000, 0.000000000000000, -0.000000000000000 ) );
#238 = SURFACE_STYLE_FILL_AREA( #306 );
#239 = ORIENTED_EDGE( '', *, *, #291, .T. );
#240 = ORIENTED_EDGE( '', *, *, #307, .T. );
#241 = ORIENTED_EDGE( '', *, *, #297, .T. );
#242 = ORIENTED_EDGE( '', *, *, #286, .F. );
#243 = ORIENTED_EDGE( '', *, *, #303, .F. );
#244 = ORIENTED_EDGE( '', *, *, #279, .T. );
#245 = CARTESIAN_POINT( '', ( -10.5000000000000, 0.000000000000000, 8.00000000000000 ) );
#246 = DIRECTION( '', ( 0.000000000000000, 1.00000000000000, 0.000000000000000 ) );
#247 = DIRECTION( '', ( 0.000000000000000, -0.000000000000000, 1.00000000000000 ) );
#248 = SURFACE_STYLE_FILL_AREA( #308 );
#249 = ORIENTED_EDGE( '', *, *, #294, .T. );
#250 = ORIENTED_EDGE( '', *, *, #276, .F. );
#251 = ORIENTED_EDGE( '', *, *, #305, .F. );
#252 = ORIENTED_EDGE( '', *, *, #299, .T. );
#253 = CARTESIAN_POINT( '', ( -11.2058823529412, 4.82352941176471, 8.00000000000000 ) );
#254 = DIRECTION( '', ( -0.470588235294120, 0.882352941176470, 0.000000000000000 ) );
#255 = DIRECTION( '', ( -0.882352941176470, -0.470588235294119, 0.000000000000000 ) );
#256 = SURFACE_STYLE_FILL_AREA( #309 );
#257 = ORIENTED_EDGE( '', *, *, #292, .F. );
#258 = ORIENTED_EDGE( '', *, *, #310, .F. );
#259 = ORIENTED_EDGE( '', *, *, #296, .T. );
#260 = ORIENTED_EDGE( '', *, *, #301, .F. );
#261 = ORIENTED_EDGE( '', *, *, #304, .F. );
#262 = ORIENTED_EDGE( '', *, *, #284, .T. );
#263 = CARTESIAN_POINT( '', ( 0.000000000000000, 2.00000000000000, 8.00000000000000 ) );
#264 = DIRECTION( '', ( 0.000000000000000, -1.00000000000000, 0.000000000000000 ) );
#265 = DIRECTION( '', ( 0.000000000000000, 0.000000000000000, -1.00000000000000 ) );
#266 = SURFACE_STYLE_FILL_AREA( #311 );
#267 = ORIENTED_EDGE( '', *, *, #307, .F. );
#268 = ORIENTED_EDGE( '', *, *, #310, .T. );
#269 = CARTESIAN_POINT( '', ( -4.00000000000000, 8.00000000000000, 4.00000000000000 ) );
#270 = DIRECTION( '', ( -0.000000000000000, 1.00000000000000, 0.000000000000000 ) );
#271 = DIRECTION( '', ( 0.000000000000000, 0.000000000000000, -1.00000000000000 ) );
#272 = FILL_AREA_STYLE( '', ( #312 ) );
#273 = EDGE_CURVE( '', #313, #314, #315, .T. );
#274 = EDGE_CURVE( '', #316, #314, #317, .T. );
#275 = EDGE_CURVE( '', #318, #316, #319, .T. );
#276 = EDGE_CURVE( '', #318, #313, #320, .T. );
#277 = FILL_AREA_STYLE( '', ( #321 ) );
#278 = EDGE_CURVE( '', #322, #323, #324, .T. );
#279 = EDGE_CURVE( '', #325, #323, #326, .T. );
#280 = EDGE_CURVE( '', #327, #325, #328, .T. );
#281 = EDGE_CURVE( '', #327, #322, #329, .T. );
#282 = FILL_AREA_STYLE( '', ( #330 ) );
#283 = EDGE_CURVE( '', #331, #332, #333, .T. );
#284 = EDGE_CURVE( '', #334, #332, #335, .T. );
#285 = EDGE_CURVE( '', #336, #334, #337, .T. );
#286 = EDGE_CURVE( '', #336, #331, #338, .T. );
#287 = FILL_AREA_STYLE( '', ( #339 ) );
#288 = EDGE_CURVE( '', #314, #322, #340, .T. );
#289 = EDGE_CURVE( '', #316, #327, #341, .T. );
#290 = FILL_AREA_STYLE( '', ( #342 ) );
#291 = EDGE_CURVE( '', #343, #343, #344, .T. );
#292 = EDGE_CURVE( '', #345, #345, #346, .F. );
#293 = FILL_AREA_STYLE( '', ( #347 ) );
#294 = EDGE_CURVE( '', #348, #313, #349, .T. );
#295 = EDGE_CURVE( '', #348, #350, #351, .T. );
#296 = EDGE_CURVE( '', #332, #350, #352, .T. );
#297 = EDGE_CURVE( '', #323, #331, #353, .T. );
#298 = FILL_AREA_STYLE( '', ( #354 ) );
#299 = EDGE_CURVE( '', #355, #348, #356, .T. );
#300 = EDGE_CURVE( '', #355, #357, #358, .T. );
#301 = EDGE_CURVE( '', #357, #350, #359, .T. );
#302 = FILL_AREA_STYLE( '', ( #360 ) );
#303 = EDGE_CURVE( '', #325, #336, #361, .T. );
#304 = EDGE_CURVE( '', #334, #357, #362, .T. );
#305 = EDGE_CURVE( '', #355, #318, #363, .T. );
#306 = FILL_AREA_STYLE( '', ( #364 ) );
#307 = EDGE_CURVE( '', #365, #365, #366, .T. );
#308 = FILL_AREA_STYLE( '', ( #367 ) );
#309 = FILL_AREA_STYLE( '', ( #368 ) );
#310 = EDGE_CURVE( '', #369, #369, #370, .F. );
#311 = FILL_AREA_STYLE( '', ( #371 ) );
#312 = FILL_AREA_STYLE_COLOUR( '', #372 );
#313 = VERTEX_POINT( '', #373 );
#314 = VERTEX_POINT( '', #374 );
#315 = LINE( '', #375, #376 );
#316 = VERTEX_POINT( '', #377 );
#317 = LINE( '', #378, #379 );
#318 = VERTEX_POINT( '', #380 );
#319 = LINE( '', #381, #382 );
#320 = LINE( '', #383, #384 );
#321 = FILL_AREA_STYLE_COLOUR( '', #385 );
#322 = VERTEX_POINT( '', #386 );
#323 = VERTEX_POINT( '', #387 );
#324 = CIRCLE( '', #388, 3.50000000000000 );
#325 = VERTEX_POINT( '', #389 );
#326 = LINE( '', #390, #391 );
#327 = VERTEX_POINT( '', #392 );
#328 = CIRCLE( '', #393, 3.50000000000000 );
#329 = LINE( '', #394, #395 );
#330 = FILL_AREA_STYLE_COLOUR( '', #396 );
#331 = VERTEX_POINT( '', #397 );
#332 = VERTEX_POINT( '', #398 );
#333 = LINE( '', #399, #400 );
#334 = VERTEX_POINT( '', #401 );
#335 = LINE( '', #402, #403 );
#336 = VERTEX_POINT( '', #404 );
#337 = LINE( '', #405, #406 );
#338 = LINE( '', #407, #408 );
#339 = FILL_AREA_STYLE_COLOUR( '', #409 );
#340 = LINE( '', #410, #411 );
#341 = LINE( '', #412, #413 );
#342 = FILL_AREA_STYLE_COLOUR( '', #414 );
#343 = VERTEX_POINT( '', #415 );
#344 = CIRCLE( '', #416, 2.10000000000000 );
#345 = VERTEX_POINT( '', #417 );
#346 = CIRCLE( '', #418, 2.10000000000000 );
#347 = FILL_AREA_STYLE_COLOUR( '', #419 );
#348 = VERTEX_POINT( '', #420 );
#349 = LINE( '', #421, #422 );
#350 = VERTEX_POINT( '', #423 );
#351 = CIRCLE( '', #424, 1.50000000000000 );
#352 = LINE( '', #425, #426 );
#353 = LINE( '', #427, #428 );
#354 = FILL_AREA_STYLE_COLOUR( '', #429 );
#355 = VERTEX_POINT( '', #430 );
#356 = LINE( '', #431, #432 );
#357 = VERTEX_POINT( '', #433 );
#358 = CIRCLE( '', #434, 1.50000000000000 );
#359 = LINE( '', #435, #436 );
#360 = FILL_AREA_STYLE_COLOUR( '', #437 );
#361 = LINE( '', #438, #439 );
#362 = LINE( '', #440, #441 );
#363 = LINE( '', #442, #443 );
#364 = FILL_AREA_STYLE_COLOUR( '', #444 );
#365 = VERTEX_POINT( '', #445 );
#366 = CIRCLE( '', #446, 2.10000000000000 );
#367 = FILL_AREA_STYLE_COLOUR( '', #447 );
#368 = FILL_AREA_STYLE_COLOUR( '', #448 );
#369 = VERTEX_POINT( '', #449 );
#370 = CIRCLE( '', #450, 2.10000000000000 );
#371 = FILL_AREA_STYLE_COLOUR( '', #451 );
#372 = COLOUR_RGB( '', 0.689999997600000, 0.689999997600000, 0.689999997600000 );
#373 = CARTESIAN_POINT( '', ( -9.00000000000000, 6.00000000000001, -8.00000000000000 ) );
#374 = CARTESIAN_POINT( '', ( -9.50000000000002, 8.00000000000000, -8.00000000000000 ) );
#375 = CARTESIAN_POINT( '', ( -9.00000000000000, 6.00000000000001, -8.00000000000000 ) );
#376 = VECTOR( '', #452, 1000.00000000000 );
#377 = CARTESIAN_POINT( '', ( -9.50000000000002, 8.00000000000000, 8.00000000000000 ) );
#378 = CARTESIAN_POINT( '', ( -9.50000000000002, 8.00000000000000, 8.00000000000000 ) );
#379 = VECTOR( '', #453, 1000.00000000000 );
#380 = CARTESIAN_POINT( '', ( -9.00000000000000, 6.00000000000001, 8.00000000000000 ) );
#381 = CARTESIAN_POINT( '', ( -9.00000000000000, 6.00000000000001, 8.00000000000000 ) );
#382 = VECTOR( '', #454, 1000.00000000000 );
#383 = CARTESIAN_POINT( '', ( -9.00000000000000, 6.00000000000001, 8.00000000000000 ) );
#384 = VECTOR( '', #455, 1000.00000000000 );
#385 = COLOUR_RGB( '', 0.689999997600000, 0.689999997600000, 0.689999997600000 );
#386 = CARTESIAN_POINT( '', ( -12.1470588235294, 6.58823529411764, -8.00000000000000 ) );
#387 = CARTESIAN_POINT( '', ( -10.5000000000000, 1.73472347597681E-15, -8.00000000000000 ) );
#388 = AXIS2_PLACEMENT_3D( '', #456, #457, #458 );
#389 = CARTESIAN_POINT( '', ( -10.5000000000000, 1.73472347597681E-15, 8.00000000000000 ) );
#390 = CARTESIAN_POINT( '', ( -10.5000000000000, 1.73472347597681E-15, 8.00000000000000 ) );
#391 = VECTOR( '', #459, 1000.00000000000 );
#392 = CARTESIAN_POINT( '', ( -12.1470588235294, 6.58823529411764, 8.00000000000000 ) );
#393 = AXIS2_PLACEMENT_3D( '', #460, #461, #462 );
#394 = CARTESIAN_POINT( '', ( -12.1470588235294, 6.58823529411764, 8.00000000000000 ) );
#395 = VECTOR( '', #463, 1000.00000000000 );
#396 = COLOUR_RGB( '', 0.689999997600000, 0.689999997600000, 0.689999997600000 );
#397 = CARTESIAN_POINT( '', ( -1.73472347597681E-15, 0.000000000000000, -8.00000000000000 ) );
#398 = CARTESIAN_POINT( '', ( 0.000000000000000, 2.00000000000000, -8.00000000000000 ) );
#399 = CARTESIAN_POINT( '', ( 0.000000000000000, 0.000000000000000, -8.00000000000000 ) );
#400 = VECTOR( '', #464, 1000.00000000000 );
#401 = CARTESIAN_POINT( '', ( 0.000000000000000, 2.00000000000000, 8.00000000000000 ) );
#402 = CARTESIAN_POINT( '', ( 0.000000000000000, 2.00000000000000, 8.00000000000000 ) );
#403 = VECTOR( '', #465, 1000.00000000000 );
#404 = CARTESIAN_POINT( '', ( -1.73472347597681E-15, 0.000000000000000, 8.00000000000000 ) );
#405 = CARTESIAN_POINT( '', ( 0.000000000000000, 0.000000000000000, 8.00000000000000 ) );
#406 = VECTOR( '', #466, 1000.00000000000 );
#407 = CARTESIAN_POINT( '', ( -1.73472347597681E-15, 0.000000000000000, 8.00000000000000 ) );
#408 = VECTOR( '', #467, 1000.00000000000 );
#409 = COLOUR_RGB( '', 0.689999997600000, 0.689999997600000, 0.689999997600000 );
#410 = CARTESIAN_POINT( '', ( -9.50000000000002, 8.00000000000000, -8.00000000000000 ) );
#411 = VECTOR( '', #468, 1000.00000000000 );
#412 = CARTESIAN_POINT( '', ( -9.50000000000002, 8.00000000000000, 8.00000000000000 ) );
#413 = VECTOR( '', #469, 1000.00000000000 );
#414 = COLOUR_RGB( '', 0.689999997600000, 0.689999997600000, 0.689999997600000 );
#415 = CARTESIAN_POINT( '', ( -1.90000000000000, 0.000000000000000, -4.00000000000000 ) );
#416 = AXIS2_PLACEMENT_3D( '', #470, #471, #472 );
#417 = CARTESIAN_POINT( '', ( -4.00000000000000, 2.00000000000000, -6.10000000000000 ) );
#418 = AXIS2_PLACEMENT_3D( '', #473, #474, #475 );
#419 = COLOUR_RGB( '', 0.689999997600000, 0.689999997600000, 0.689999997600000 );
#420 = CARTESIAN_POINT( '', ( -11.2058823529412, 4.82352941176471, -8.00000000000000 ) );
#421 = CARTESIAN_POINT( '', ( -11.2058823529412, 4.82352941176471, -8.00000000000000 ) );
#422 = VECTOR( '', #476, 1000.00000000000 );
#423 = CARTESIAN_POINT( '', ( -10.5000000000000, 2.00000000000000, -8.00000000000000 ) );
#424 = AXIS2_PLACEMENT_3D( '', #477, #478, #479 );
#425 = CARTESIAN_POINT( '', ( 0.000000000000000, 2.00000000000000, -8.00000000000000 ) );
#426 = VECTOR( '', #480, 1000.00000000000 );
#427 = CARTESIAN_POINT( '', ( -10.5000000000000, 0.000000000000000, -8.00000000000000 ) );
#428 = VECTOR( '', #481, 1000.00000000000 );
#429 = COLOUR_RGB( '', 0.689999997600000, 0.689999997600000, 0.689999997600000 );
#430 = CARTESIAN_POINT( '', ( -11.2058823529412, 4.82352941176471, 8.00000000000000 ) );
#431 = CARTESIAN_POINT( '', ( -11.2058823529412, 4.82352941176471, 8.00000000000000 ) );
#432 = VECTOR( '', #482, 1000.00000000000 );
#433 = CARTESIAN_POINT( '', ( -10.5000000000000, 2.00000000000000, 8.00000000000000 ) );
#434 = AXIS2_PLACEMENT_3D( '', #483, #484, #485 );
#435 = CARTESIAN_POINT( '', ( -10.5000000000000, 2.00000000000000, 8.00000000000000 ) );
#436 = VECTOR( '', #486, 1000.00000000000 );
#437 = COLOUR_RGB( '', 0.689999997600000, 0.689999997600000, 0.689999997600000 );
#438 = CARTESIAN_POINT( '', ( -10.5000000000000, 0.000000000000000, 8.00000000000000 ) );
#439 = VECTOR( '', #487, 1000.00000000000 );
#440 = CARTESIAN_POINT( '', ( 0.000000000000000, 2.00000000000000, 8.00000000000000 ) );
#441 = VECTOR( '', #488, 1000.00000000000 );
#442 = CARTESIAN_POINT( '', ( -11.2058823529412, 4.82352941176471, 8.00000000000000 ) );
#443 = VECTOR( '', #489, 1000.00000000000 );
#444 = COLOUR_RGB( '', 0.689999997600000, 0.689999997600000, 0.689999997600000 );
#445 = CARTESIAN_POINT( '', ( -1.90000000000000, 0.000000000000000, 4.00000000000000 ) );
#446 = AXIS2_PLACEMENT_3D( '', #490, #491, #492 );
#447 = COLOUR_RGB( '', 0.689999997600000, 0.689999997600000, 0.689999997600000 );
#448 = COLOUR_RGB( '', 0.689999997600000, 0.689999997600000, 0.689999997600000 );
#449 = CARTESIAN_POINT( '', ( -4.00000000000000, 2.00000000000000, 1.90000000000000 ) );
#450 = AXIS2_PLACEMENT_3D( '', #493, #494, #495 );
#451 = COLOUR_RGB( '', 0.689999997600000, 0.689999997600000, 0.689999997600000 );
#452 = DIRECTION( '', ( -0.242535625036343, 0.970142500145329, 0.000000000000000 ) );
#453 = DIRECTION( '', ( -0.000000000000000, -0.000000000000000, -1.00000000000000 ) );
#454 = DIRECTION( '', ( -0.242535625036343, 0.970142500145329, 0.000000000000000 ) );
#455 = DIRECTION( '', ( -0.000000000000000, -0.000000000000000, -1.00000000000000 ) );
#456 = CARTESIAN_POINT( '', ( -10.5000000000000, 3.50000000000000, -8.00000000000000 ) );
#457 = DIRECTION( '', ( 0.000000000000000, 0.000000000000000, 1.00000000000000 ) );
#458 = DIRECTION( '', ( 1.00000000000000, 0.000000000000000, 0.000000000000000 ) );
#459 = DIRECTION( '', ( -0.000000000000000, -0.000000000000000, -1.00000000000000 ) );
#460 = CARTESIAN_POINT( '', ( -10.5000000000000, 3.50000000000000, 8.00000000000000 ) );
#461 = DIRECTION( '', ( 0.000000000000000, 0.000000000000000, 1.00000000000000 ) );
#462 = DIRECTION( '', ( 1.00000000000000, 0.000000000000000, 0.000000000000000 ) );
#463 = DIRECTION( '', ( -0.000000000000000, -0.000000000000000, -1.00000000000000 ) );
#464 = DIRECTION( '', ( 0.000000000000000, 1.00000000000000, 0.000000000000000 ) );
#465 = DIRECTION( '', ( -0.000000000000000, -0.000000000000000, -1.00000000000000 ) );
#466 = DIRECTION( '', ( 0.000000000000000, 1.00000000000000, 0.000000000000000 ) );
#467 = DIRECTION( '', ( -0.000000000000000, -0.000000000000000, -1.00000000000000 ) );
#468 = DIRECTION( '', ( -0.882352941176469, -0.470588235294120, 0.000000000000000 ) );
#469 = DIRECTION( '', ( -0.882352941176469, -0.470588235294120, 0.000000000000000 ) );
#470 = CARTESIAN_POINT( '', ( -4.00000000000000, 0.000000000000000, -4.00000000000000 ) );
#471 = DIRECTION( '', ( -0.000000000000000, 1.00000000000000, 0.000000000000000 ) );
#472 = DIRECTION( '', ( 1.00000000000000, 0.000000000000000, 0.000000000000000 ) );
#473 = CARTESIAN_POINT( '', ( -4.00000000000000, 2.00000000000000, -4.00000000000000 ) );
#474 = DIRECTION( '', ( 0.000000000000000, -1.00000000000000, 0.000000000000000 ) );
#475 = DIRECTION( '', ( 0.000000000000000, 0.000000000000000, -1.00000000000000 ) );
#476 = DIRECTION( '', ( 0.882352941176470, 0.470588235294119, 0.000000000000000 ) );
#477 = CARTESIAN_POINT( '', ( -10.5000000000000, 3.50000000000000, -8.00000000000000 ) );
#478 = DIRECTION( '', ( 0.000000000000000, 0.000000000000000, 1.00000000000000 ) );
#479 = DIRECTION( '', ( 1.00000000000000, 0.000000000000000, 0.000000000000000 ) );
#480 = DIRECTION( '', ( -1.00000000000000, 0.000000000000000, 0.000000000000000 ) );
#481 = DIRECTION( '', ( 1.00000000000000, 0.000000000000000, 0.000000000000000 ) );
#482 = DIRECTION( '', ( -0.000000000000000, -0.000000000000000, -1.00000000000000 ) );
#483 = CARTESIAN_POINT( '', ( -10.5000000000000, 3.50000000000000, 8.00000000000000 ) );
#484 = DIRECTION( '', ( 0.000000000000000, 0.000000000000000, 1.00000000000000 ) );
#485 = DIRECTION( '', ( 1.00000000000000, 0.000000000000000, 0.000000000000000 ) );
#486 = DIRECTION( '', ( -0.000000000000000, -0.000000000000000, -1.00000000000000 ) );
#487 = DIRECTION( '', ( 1.00000000000000, 0.000000000000000, 0.000000000000000 ) );
#488 = DIRECTION( '', ( -1.00000000000000, 0.000000000000000, 0.000000000000000 ) );
#489 = DIRECTION( '', ( 0.882352941176470, 0.470588235294119, 0.000000000000000 ) );
#490 = CARTESIAN_POINT( '', ( -4.00000000000000, 0.000000000000000, 4.00000000000000 ) );
#491 = DIRECTION( '', ( -0.000000000000000, 1.00000000000000, 0.000000000000000 ) );
#492 = DIRECTION( '', ( 1.00000000000000, 0.000000000000000, 0.000000000000000 ) );
#493 = CARTESIAN_POINT( '', ( -4.00000000000000, 2.00000000000000, 4.00000000000000 ) );
#494 = DIRECTION( '', ( 0.000000000000000, -1.00000000000000, 0.000000000000000 ) );
#495 = DIRECTION( '', ( 0.000000000000000, 0.000000000000000, -1.00000000000000 ) );
ENDSEC;
END-ISO-10303-21;
