ISO-10303-21;
HEADER;
FILE_DESCRIPTION( ( 'STEP AP214' ), '1' );
FILE_NAME( '//goodhand-server/Shared Folders/GoodHand Data/Kipp CAD/K0334/K0335.204_0.stp', '2020-12-03T09:01:19', ( '' ), ( '' ), ' ', 'PARTsolutions', ' ' );
FILE_SCHEMA( ( 'AUTOMOTIVE_DESIGN { 1 0 10303 214 1 1 1 1 }' ) );
ENDSEC;
DATA;
#1 = MECHANICAL_DESIGN_GEOMETRIC_PRESENTATION_REPRESENTATION( ' ', ( #10, #11, #12, #13, #14, #15, #16, #17, #18 ), #6 );
#2 = PRODUCT_DEFINITION_CONTEXT( '', #19, 'design' );
#3 = APPLICATION_PROTOCOL_DEFINITION( 'international standard', 'automotive_design', 2001, #19 );
#4 = PRODUCT_CATEGORY_RELATIONSHIP( 'NONE', 'NONE', #20, #21 );
#5 = SHAPE_DEFINITION_REPRESENTATION( #22, #23 );
#6 =  ( GEOMETRIC_REPRESENTATION_CONTEXT( 3 )GLOBAL_UNCERTAINTY_ASSIGNED_CONTEXT( ( #26 ) )GLOBAL_UNIT_ASSIGNED_CONTEXT( ( #28, #29, #30 ) )REPRESENTATION_CONTEXT( 'NONE', 'WORKSPACE' ) );
#10 = STYLED_ITEM( '', ( #32 ), #33 );
#11 = STYLED_ITEM( '', ( #34 ), #35 );
#12 = STYLED_ITEM( '', ( #36 ), #37 );
#13 = STYLED_ITEM( '', ( #38 ), #39 );
#14 = STYLED_ITEM( '', ( #40 ), #41 );
#15 = STYLED_ITEM( '', ( #42 ), #43 );
#16 = STYLED_ITEM( '', ( #44 ), #45 );
#17 = STYLED_ITEM( '', ( #46 ), #47 );
#18 = STYLED_ITEM( '', ( #48 ), #49 );
#19 = APPLICATION_CONTEXT( 'core data for automotive mechanical design processes' );
#20 = PRODUCT_CATEGORY( 'part', 'NONE' );
#21 = PRODUCT_RELATED_PRODUCT_CATEGORY( 'detail', ' ', ( #50 ) );
#22 = PRODUCT_DEFINITION_SHAPE( 'NONE', 'NONE', #51 );
#23 = ADVANCED_BREP_SHAPE_REPRESENTATION( '_K0335.204_0', ( #52, #53 ), #6 );
#26 = UNCERTAINTY_MEASURE_WITH_UNIT( LENGTH_MEASURE( 0.00100000000000000 ), #28, '', '' );
#28 =  ( CONVERSION_BASED_UNIT( 'MILLIMETRE', #56 )LENGTH_UNIT(  )NAMED_UNIT( #59 ) );
#29 =  ( NAMED_UNIT( #61 )PLANE_ANGLE_UNIT(  )SI_UNIT( $, .RADIAN. ) );
#30 =  ( NAMED_UNIT( #61 )SI_UNIT( $, .STERADIAN. )SOLID_ANGLE_UNIT(  ) );
#32 = PRESENTATION_STYLE_ASSIGNMENT( ( #67 ) );
#33 = ADVANCED_FACE( '', ( #68, #69 ), #70, .T. );
#34 = PRESENTATION_STYLE_ASSIGNMENT( ( #71 ) );
#35 = ADVANCED_FACE( '', ( #72, #73 ), #74, .F. );
#36 = PRESENTATION_STYLE_ASSIGNMENT( ( #75 ) );
#37 = ADVANCED_FACE( '', ( #76, #77 ), #78, .T. );
#38 = PRESENTATION_STYLE_ASSIGNMENT( ( #79 ) );
#39 = ADVANCED_FACE( '', ( #80, #81 ), #82, .T. );
#40 = PRESENTATION_STYLE_ASSIGNMENT( ( #83 ) );
#41 = ADVANCED_FACE( '', ( #84, #85 ), #86, .T. );
#42 = PRESENTATION_STYLE_ASSIGNMENT( ( #87 ) );
#43 = ADVANCED_FACE( '', ( #88 ), #89, .F. );
#44 = PRESENTATION_STYLE_ASSIGNMENT( ( #90 ) );
#45 = ADVANCED_FACE( '', ( #91 ), #92, .F. );
#46 = PRESENTATION_STYLE_ASSIGNMENT( ( #93 ) );
#47 = ADVANCED_FACE( '', ( #94, #95 ), #96, .F. );
#48 = PRESENTATION_STYLE_ASSIGNMENT( ( #97 ) );
#49 = ADVANCED_FACE( '', ( #98, #99 ), #100, .F. );
#50 = PRODUCT( '_K0335.204_0', '_K0335.204_0', 'PART-_K0335.204_0-DESC', ( #101 ) );
#51 = PRODUCT_DEFINITION( 'NONE', 'NONE', #102, #2 );
#52 = BREP_WITH_VOIDS( '_K0335.204_0', #103, ( #104 ) );
#53 = AXIS2_PLACEMENT_3D( '', #105, #106, #107 );
#56 = LENGTH_MEASURE_WITH_UNIT( LENGTH_MEASURE( 1.00000000000000 ), #108 );
#59 = DIMENSIONAL_EXPONENTS( 1.00000000000000, 0.000000000000000, 0.000000000000000, 0.000000000000000, 0.000000000000000, 0.000000000000000, 0.000000000000000 );
#61 = DIMENSIONAL_EXPONENTS( 0.000000000000000, 0.000000000000000, 0.000000000000000, 0.000000000000000, 0.000000000000000, 0.000000000000000, 0.000000000000000 );
#67 = SURFACE_STYLE_USAGE( .BOTH., #109 );
#68 = FACE_BOUND( '', #110, .T. );
#69 = FACE_OUTER_BOUND( '', #111, .T. );
#70 = SPHERICAL_SURFACE( '', #112, 1.50000000000000 );
#71 = SURFACE_STYLE_USAGE( .BOTH., #113 );
#72 = FACE_BOUND( '', #114, .T. );
#73 = FACE_OUTER_BOUND( '', #115, .T. );
#74 = PLANE( '', #116 );
#75 = SURFACE_STYLE_USAGE( .BOTH., #117 );
#76 = FACE_OUTER_BOUND( '', #118, .T. );
#77 = FACE_BOUND( '', #119, .T. );
#78 = CONICAL_SURFACE( '', #120, 1.71132486540000, 0.523598775600000 );
#79 = SURFACE_STYLE_USAGE( .BOTH., #121 );
#80 = FACE_BOUND( '', #122, .T. );
#81 = FACE_OUTER_BOUND( '', #123, .T. );
#82 = SPHERICAL_SURFACE( '', #124, 1.50000000000000 );
#83 = SURFACE_STYLE_USAGE( .BOTH., #125 );
#84 = FACE_OUTER_BOUND( '', #126, .T. );
#85 = FACE_OUTER_BOUND( '', #127, .T. );
#86 = CYLINDRICAL_SURFACE( '', #128, 2.00000000000000 );
#87 = SURFACE_STYLE_USAGE( .BOTH., #129 );
#88 = FACE_OUTER_BOUND( '', #130, .T. );
#89 = PLANE( '', #131 );
#90 = SURFACE_STYLE_USAGE( .BOTH., #132 );
#91 = FACE_OUTER_BOUND( '', #133, .T. );
#92 = PLANE( '', #134 );
#93 = SURFACE_STYLE_USAGE( .BOTH., #135 );
#94 = FACE_OUTER_BOUND( '', #136, .T. );
#95 = FACE_OUTER_BOUND( '', #137, .T. );
#96 = CYLINDRICAL_SURFACE( '', #138, 1.49900000000000 );
#97 = SURFACE_STYLE_USAGE( .BOTH., #139 );
#98 = FACE_OUTER_BOUND( '', #140, .T. );
#99 = FACE_OUTER_BOUND( '', #141, .T. );
#100 = CYLINDRICAL_SURFACE( '', #142, 1.49900000000000 );
#101 = PRODUCT_CONTEXT( '', #19, 'mechanical' );
#102 = PRODUCT_DEFINITION_FORMATION_WITH_SPECIFIED_SOURCE( ' ', 'NONE', #50, .NOT_KNOWN. );
#103 = CLOSED_SHELL( '', ( #49, #43, #35, #41, #37, #33 ) );
#104 = ORIENTED_CLOSED_SHELL( '', *, #143, .T. );
#105 = CARTESIAN_POINT( '', ( 0.000000000000000, 0.000000000000000, 0.000000000000000 ) );
#106 = DIRECTION( '', ( 0.000000000000000, 0.000000000000000, 1.00000000000000 ) );
#107 = DIRECTION( '', ( 1.00000000000000, 0.000000000000000, 0.000000000000000 ) );
#108 =  ( LENGTH_UNIT(  )NAMED_UNIT( #59 )SI_UNIT( .MILLI., .METRE. ) );
#109 = SURFACE_SIDE_STYLE( '', ( #145 ) );
#110 = VERTEX_LOOP( '', #146 );
#111 = EDGE_LOOP( '', ( #147 ) );
#112 = AXIS2_PLACEMENT_3D( '', #148, #149, #150 );
#113 = SURFACE_SIDE_STYLE( '', ( #151 ) );
#114 = EDGE_LOOP( '', ( #152 ) );
#115 = EDGE_LOOP( '', ( #153 ) );
#116 = AXIS2_PLACEMENT_3D( '', #154, #155, #156 );
#117 = SURFACE_SIDE_STYLE( '', ( #157 ) );
#118 = EDGE_LOOP( '', ( #158 ) );
#119 = EDGE_LOOP( '', ( #159 ) );
#120 = AXIS2_PLACEMENT_3D( '', #160, #161, #162 );
#121 = SURFACE_SIDE_STYLE( '', ( #163 ) );
#122 = VERTEX_LOOP( '', #164 );
#123 = EDGE_LOOP( '', ( #165 ) );
#124 = AXIS2_PLACEMENT_3D( '', #166, #167, #168 );
#125 = SURFACE_SIDE_STYLE( '', ( #169 ) );
#126 = EDGE_LOOP( '', ( #170 ) );
#127 = EDGE_LOOP( '', ( #171 ) );
#128 = AXIS2_PLACEMENT_3D( '', #172, #173, #174 );
#129 = SURFACE_SIDE_STYLE( '', ( #175 ) );
#130 = EDGE_LOOP( '', ( #176 ) );
#131 = AXIS2_PLACEMENT_3D( '', #177, #178, #179 );
#132 = SURFACE_SIDE_STYLE( '', ( #180 ) );
#133 = EDGE_LOOP( '', ( #181 ) );
#134 = AXIS2_PLACEMENT_3D( '', #182, #183, #184 );
#135 = SURFACE_SIDE_STYLE( '', ( #185 ) );
#136 = EDGE_LOOP( '', ( #186 ) );
#137 = EDGE_LOOP( '', ( #187 ) );
#138 = AXIS2_PLACEMENT_3D( '', #188, #189, #190 );
#139 = SURFACE_SIDE_STYLE( '', ( #191 ) );
#140 = EDGE_LOOP( '', ( #192 ) );
#141 = EDGE_LOOP( '', ( #193 ) );
#142 = AXIS2_PLACEMENT_3D( '', #194, #195, #196 );
#143 = CLOSED_SHELL( '', ( #47, #39, #45 ) );
#145 = SURFACE_STYLE_FILL_AREA( #197 );
#146 = VERTEX_POINT( '', #198 );
#147 = ORIENTED_EDGE( '', *, *, #199, .F. );
#148 = CARTESIAN_POINT( '', ( 7.50000000000000, -3.25260651745651E-16, 0.000000000000000 ) );
#149 = DIRECTION( '', ( 1.00000000000000, 0.000000000000000, 0.000000000000000 ) );
#150 = DIRECTION( '', ( 0.000000000000000, 1.00000000000000, 0.000000000000000 ) );
#151 = SURFACE_STYLE_FILL_AREA( #200 );
#152 = ORIENTED_EDGE( '', *, *, #201, .F. );
#153 = ORIENTED_EDGE( '', *, *, #202, .T. );
#154 = CARTESIAN_POINT( '', ( 9.00000000000000, 2.00000000000000, 0.000000000000000 ) );
#155 = DIRECTION( '', ( -1.00000000000000, 0.000000000000000, 0.000000000000000 ) );
#156 = DIRECTION( '', ( 0.000000000000000, 0.000000000000000, 1.00000000000000 ) );
#157 = SURFACE_STYLE_FILL_AREA( #203 );
#158 = ORIENTED_EDGE( '', *, *, #204, .F. );
#159 = ORIENTED_EDGE( '', *, *, #205, .T. );
#160 = CARTESIAN_POINT( '', ( 0.000000000000000, 0.000000000000000, 0.000000000000000 ) );
#161 = DIRECTION( '', ( 1.00000000000000, -0.000000000000000, -0.000000000000000 ) );
#162 = DIRECTION( '', ( -0.000000000000000, 0.000000000000000, -1.00000000000000 ) );
#163 = SURFACE_STYLE_FILL_AREA( #206 );
#164 = VERTEX_POINT( '', #207 );
#165 = ORIENTED_EDGE( '', *, *, #208, .F. );
#166 = CARTESIAN_POINT( '', ( 7.50000000000000, -3.25260651745651E-16, 0.000000000000000 ) );
#167 = DIRECTION( '', ( 1.00000000000000, 0.000000000000000, 0.000000000000000 ) );
#168 = DIRECTION( '', ( 0.000000000000000, 1.00000000000000, 0.000000000000000 ) );
#169 = SURFACE_STYLE_FILL_AREA( #209 );
#170 = ORIENTED_EDGE( '', *, *, #202, .F. );
#171 = ORIENTED_EDGE( '', *, *, #204, .T. );
#172 = CARTESIAN_POINT( '', ( 4.50000000000000, 0.000000000000000, 0.000000000000000 ) );
#173 = DIRECTION( '', ( -1.00000000000000, -0.000000000000000, 0.000000000000000 ) );
#174 = DIRECTION( '', ( -0.000000000000000, 0.000000000000000, -1.00000000000000 ) );
#175 = SURFACE_STYLE_FILL_AREA( #210 );
#176 = ORIENTED_EDGE( '', *, *, #205, .F. );
#177 = CARTESIAN_POINT( '', ( 0.000000000000000, 0.000000000000000, 0.000000000000000 ) );
#178 = DIRECTION( '', ( 1.00000000000000, 0.000000000000000, -0.000000000000000 ) );
#179 = DIRECTION( '', ( -0.000000000000000, 0.000000000000000, -1.00000000000000 ) );
#180 = SURFACE_STYLE_FILL_AREA( #211 );
#181 = ORIENTED_EDGE( '', *, *, #212, .T. );
#182 = CARTESIAN_POINT( '', ( 4.50000000000000, 1.49900000000000, 0.000000000000000 ) );
#183 = DIRECTION( '', ( -1.00000000000000, 0.000000000000000, 0.000000000000000 ) );
#184 = DIRECTION( '', ( 0.000000000000000, 0.000000000000000, 1.00000000000000 ) );
#185 = SURFACE_STYLE_FILL_AREA( #213 );
#186 = ORIENTED_EDGE( '', *, *, #212, .F. );
#187 = ORIENTED_EDGE( '', *, *, #208, .T. );
#188 = CARTESIAN_POINT( '', ( 4.50000000000000, 0.000000000000000, 0.000000000000000 ) );
#189 = DIRECTION( '', ( -1.00000000000000, -0.000000000000000, 0.000000000000000 ) );
#190 = DIRECTION( '', ( -0.000000000000000, 0.000000000000000, -1.00000000000000 ) );
#191 = SURFACE_STYLE_FILL_AREA( #214 );
#192 = ORIENTED_EDGE( '', *, *, #199, .T. );
#193 = ORIENTED_EDGE( '', *, *, #201, .T. );
#194 = CARTESIAN_POINT( '', ( 4.50000000000000, 0.000000000000000, 0.000000000000000 ) );
#195 = DIRECTION( '', ( -1.00000000000000, -0.000000000000000, 0.000000000000000 ) );
#196 = DIRECTION( '', ( -0.000000000000000, 0.000000000000000, -1.00000000000000 ) );
#197 = FILL_AREA_STYLE( '', ( #215 ) );
#198 = CARTESIAN_POINT( '', ( 9.00000000000000, -2.33412141809600E-16, 0.000000000000000 ) );
#199 = EDGE_CURVE( '', #216, #216, #217, .T. );
#200 = FILL_AREA_STYLE( '', ( #218 ) );
#201 = EDGE_CURVE( '', #219, #219, #220, .T. );
#202 = EDGE_CURVE( '', #221, #221, #222, .T. );
#203 = FILL_AREA_STYLE( '', ( #223 ) );
#204 = EDGE_CURVE( '', #224, #224, #225, .T. );
#205 = EDGE_CURVE( '', #226, #226, #227, .T. );
#206 = FILL_AREA_STYLE( '', ( #228 ) );
#207 = CARTESIAN_POINT( '', ( 6.00000000000000, -2.33412141809600E-16, 0.000000000000000 ) );
#208 = EDGE_CURVE( '', #229, #229, #230, .T. );
#209 = FILL_AREA_STYLE( '', ( #231 ) );
#210 = FILL_AREA_STYLE( '', ( #232 ) );
#211 = FILL_AREA_STYLE( '', ( #233 ) );
#212 = EDGE_CURVE( '', #234, #234, #235, .T. );
#213 = FILL_AREA_STYLE( '', ( #236 ) );
#214 = FILL_AREA_STYLE( '', ( #237 ) );
#215 = FILL_AREA_STYLE_COLOUR( '', #238 );
#216 = VERTEX_POINT( '', #239 );
#217 = CIRCLE( '', #240, 1.49900000000000 );
#218 = FILL_AREA_STYLE_COLOUR( '', #241 );
#219 = VERTEX_POINT( '', #242 );
#220 = CIRCLE( '', #243, 1.49900000000000 );
#221 = VERTEX_POINT( '', #244 );
#222 = CIRCLE( '', #245, 2.00000000000000 );
#223 = FILL_AREA_STYLE_COLOUR( '', #246 );
#224 = VERTEX_POINT( '', #247 );
#225 = CIRCLE( '', #248, 2.00000000000000 );
#226 = VERTEX_POINT( '', #249 );
#227 = CIRCLE( '', #250, 1.71132486540000 );
#228 = FILL_AREA_STYLE_COLOUR( '', #251 );
#229 = VERTEX_POINT( '', #252 );
#230 = CIRCLE( '', #253, 1.49900000000000 );
#231 = FILL_AREA_STYLE_COLOUR( '', #254 );
#232 = FILL_AREA_STYLE_COLOUR( '', #255 );
#233 = FILL_AREA_STYLE_COLOUR( '', #256 );
#234 = VERTEX_POINT( '', #257 );
#235 = CIRCLE( '', #258, 1.49900000000000 );
#236 = FILL_AREA_STYLE_COLOUR( '', #259 );
#237 = FILL_AREA_STYLE_COLOUR( '', #260 );
#238 = COLOUR_RGB( '', 0.689999997600000, 0.689999997600000, 0.689999997600000 );
#239 = CARTESIAN_POINT( '', ( 7.55476312628026, 0.000000000000000, 1.49900000000000 ) );
#240 = AXIS2_PLACEMENT_3D( '', #261, #262, #263 );
#241 = COLOUR_RGB( '', 0.689999997600000, 0.689999997600000, 0.689999997600000 );
#242 = CARTESIAN_POINT( '', ( 9.00000000000000, 0.000000000000000, -1.49900000000001 ) );
#243 = AXIS2_PLACEMENT_3D( '', #264, #265, #266 );
#244 = CARTESIAN_POINT( '', ( 9.00000000000000, 0.000000000000000, -2.00000000000000 ) );
#245 = AXIS2_PLACEMENT_3D( '', #267, #268, #269 );
#246 = COLOUR_RGB( '', 0.689999997600000, 0.689999997600000, 0.689999997600000 );
#247 = CARTESIAN_POINT( '', ( 0.500000000000000, 0.000000000000000, -2.00000000000000 ) );
#248 = AXIS2_PLACEMENT_3D( '', #270, #271, #272 );
#249 = CARTESIAN_POINT( '', ( 0.000000000000000, 0.000000000000000, -1.71132486540519 ) );
#250 = AXIS2_PLACEMENT_3D( '', #273, #274, #275 );
#251 = COLOUR_RGB( '', 0.689999997600000, 0.689999997600000, 0.689999997600000 );
#252 = CARTESIAN_POINT( '', ( 7.44523687371974, 0.000000000000000, -1.49900000000000 ) );
#253 = AXIS2_PLACEMENT_3D( '', #276, #277, #278 );
#254 = COLOUR_RGB( '', 0.689999997600000, 0.689999997600000, 0.689999997600000 );
#255 = COLOUR_RGB( '', 0.689999997600000, 0.689999997600000, 0.689999997600000 );
#256 = COLOUR_RGB( '', 0.689999997600000, 0.689999997600000, 0.689999997600000 );
#257 = CARTESIAN_POINT( '', ( 4.50000000000001, 0.000000000000000, -1.49900000000000 ) );
#258 = AXIS2_PLACEMENT_3D( '', #279, #280, #281 );
#259 = COLOUR_RGB( '', 0.689999997600000, 0.689999997600000, 0.689999997600000 );
#260 = COLOUR_RGB( '', 0.689999997600000, 0.689999997600000, 0.689999997600000 );
#261 = CARTESIAN_POINT( '', ( 7.55476312628026, 0.000000000000000, 0.000000000000000 ) );
#262 = DIRECTION( '', ( -1.00000000000000, 0.000000000000000, 0.000000000000000 ) );
#263 = DIRECTION( '', ( 0.000000000000000, 0.000000000000000, 1.00000000000000 ) );
#264 = CARTESIAN_POINT( '', ( 9.00000000000000, 0.000000000000000, 0.000000000000000 ) );
#265 = DIRECTION( '', ( 1.00000000000000, 0.000000000000000, -0.000000000000000 ) );
#266 = DIRECTION( '', ( -0.000000000000000, 0.000000000000000, -1.00000000000000 ) );
#267 = CARTESIAN_POINT( '', ( 9.00000000000000, 0.000000000000000, 0.000000000000000 ) );
#268 = DIRECTION( '', ( 1.00000000000000, 0.000000000000000, -0.000000000000000 ) );
#269 = DIRECTION( '', ( -0.000000000000000, 0.000000000000000, -1.00000000000000 ) );
#270 = CARTESIAN_POINT( '', ( 0.500000000000000, 0.000000000000000, 0.000000000000000 ) );
#271 = DIRECTION( '', ( 1.00000000000000, 0.000000000000000, -0.000000000000000 ) );
#272 = DIRECTION( '', ( -0.000000000000000, 0.000000000000000, -1.00000000000000 ) );
#273 = CARTESIAN_POINT( '', ( 0.000000000000000, 0.000000000000000, 0.000000000000000 ) );
#274 = DIRECTION( '', ( 1.00000000000000, 0.000000000000000, -0.000000000000000 ) );
#275 = DIRECTION( '', ( -0.000000000000000, 0.000000000000000, -1.00000000000000 ) );
#276 = CARTESIAN_POINT( '', ( 7.44523687371974, 0.000000000000000, 0.000000000000000 ) );
#277 = DIRECTION( '', ( 1.00000000000000, 0.000000000000000, -0.000000000000000 ) );
#278 = DIRECTION( '', ( -0.000000000000000, 0.000000000000000, -1.00000000000000 ) );
#279 = CARTESIAN_POINT( '', ( 4.50000000000001, 0.000000000000000, 0.000000000000000 ) );
#280 = DIRECTION( '', ( 1.00000000000000, 0.000000000000000, -0.000000000000000 ) );
#281 = DIRECTION( '', ( -0.000000000000000, 0.000000000000000, -1.00000000000000 ) );
ENDSEC;
END-ISO-10303-21;
