ISO-10303-21;
HEADER;
FILE_DESCRIPTION( ( 'STEP AP214' ), '1' );
FILE_NAME( '//goodhand-server/Shared Folders/GoodHand Data/Kipp CAD/K0493/K0493.4120X1000_1000.stp', '2020-12-08T10:33:25', ( '' ), ( '' ), ' ', 'PARTsolutions', ' ' );
FILE_SCHEMA( ( 'AUTOMOTIVE_DESIGN { 1 0 10303 214 1 1 1 1 }' ) );
ENDSEC;
DATA;
#1 = MECHANICAL_DESIGN_GEOMETRIC_PRESENTATION_REPRESENTATION( ' ', ( #10, #11, #12, #13, #14, #15, #16, #17, #18, #19 ), #6 );
#2 = PRODUCT_DEFINITION_CONTEXT( '', #20, 'design' );
#3 = APPLICATION_PROTOCOL_DEFINITION( 'international standard', 'automotive_design', 2001, #20 );
#4 = PRODUCT_CATEGORY_RELATIONSHIP( 'NONE', 'NONE', #21, #22 );
#5 = SHAPE_DEFINITION_REPRESENTATION( #23, #24 );
#6 =  ( GEOMETRIC_REPRESENTATION_CONTEXT( 3 )GLOBAL_UNCERTAINTY_ASSIGNED_CONTEXT( ( #27 ) )GLOBAL_UNIT_ASSIGNED_CONTEXT( ( #29, #30, #31 ) )REPRESENTATION_CONTEXT( 'NONE', 'WORKSPACE' ) );
#10 = STYLED_ITEM( '', ( #33 ), #34 );
#11 = STYLED_ITEM( '', ( #35 ), #36 );
#12 = STYLED_ITEM( '', ( #37 ), #38 );
#13 = STYLED_ITEM( '', ( #39 ), #40 );
#14 = STYLED_ITEM( '', ( #41 ), #42 );
#15 = STYLED_ITEM( '', ( #43 ), #44 );
#16 = STYLED_ITEM( '', ( #45 ), #46 );
#17 = STYLED_ITEM( '', ( #47 ), #48 );
#18 = STYLED_ITEM( '', ( #49 ), #50 );
#19 = STYLED_ITEM( '', ( #51 ), #52 );
#20 = APPLICATION_CONTEXT( 'core data for automotive mechanical design processes' );
#21 = PRODUCT_CATEGORY( 'part', 'NONE' );
#22 = PRODUCT_RELATED_PRODUCT_CATEGORY( 'detail', ' ', ( #53 ) );
#23 = PRODUCT_DEFINITION_SHAPE( 'NONE', 'NONE', #54 );
#24 = ADVANCED_BREP_SHAPE_REPRESENTATION( '_K0493.4120X1000_1000', ( #55, #56 ), #6 );
#27 = UNCERTAINTY_MEASURE_WITH_UNIT( LENGTH_MEASURE( 0.00100000000000000 ), #29, '', '' );
#29 =  ( CONVERSION_BASED_UNIT( 'MILLIMETRE', #59 )LENGTH_UNIT(  )NAMED_UNIT( #62 ) );
#30 =  ( NAMED_UNIT( #64 )PLANE_ANGLE_UNIT(  )SI_UNIT( $, .RADIAN. ) );
#31 =  ( NAMED_UNIT( #64 )SI_UNIT( $, .STERADIAN. )SOLID_ANGLE_UNIT(  ) );
#33 = PRESENTATION_STYLE_ASSIGNMENT( ( #70 ) );
#34 = ADVANCED_FACE( '', ( #71 ), #72, .F. );
#35 = PRESENTATION_STYLE_ASSIGNMENT( ( #73 ) );
#36 = ADVANCED_FACE( '', ( #74 ), #75, .F. );
#37 = PRESENTATION_STYLE_ASSIGNMENT( ( #76 ) );
#38 = ADVANCED_FACE( '', ( #77 ), #78, .T. );
#39 = PRESENTATION_STYLE_ASSIGNMENT( ( #79 ) );
#40 = ADVANCED_FACE( '', ( #80 ), #81, .F. );
#41 = PRESENTATION_STYLE_ASSIGNMENT( ( #82 ) );
#42 = ADVANCED_FACE( '', ( #83 ), #84, .T. );
#43 = PRESENTATION_STYLE_ASSIGNMENT( ( #85 ) );
#44 = ADVANCED_FACE( '', ( #86 ), #87, .T. );
#45 = PRESENTATION_STYLE_ASSIGNMENT( ( #88 ) );
#46 = ADVANCED_FACE( '', ( #89, #90 ), #91, .T. );
#47 = PRESENTATION_STYLE_ASSIGNMENT( ( #92 ) );
#48 = ADVANCED_FACE( '', ( #93, #94 ), #95, .F. );
#49 = PRESENTATION_STYLE_ASSIGNMENT( ( #96 ) );
#50 = ADVANCED_FACE( '', ( #97 ), #98, .F. );
#51 = PRESENTATION_STYLE_ASSIGNMENT( ( #99 ) );
#52 = ADVANCED_FACE( '', ( #100 ), #101, .T. );
#53 = PRODUCT( '_K0493.4120X1000_1000', '_K0493.4120X1000_1000', 'PART-_K0493.4120X1000_1000-DESC', ( #102 ) );
#54 = PRODUCT_DEFINITION( 'NONE', 'NONE', #103, #2 );
#55 = MANIFOLD_SOLID_BREP( '_K0493.4120X1000_1000', #104 );
#56 = AXIS2_PLACEMENT_3D( '', #105, #106, #107 );
#59 = LENGTH_MEASURE_WITH_UNIT( LENGTH_MEASURE( 1.00000000000000 ), #108 );
#62 = DIMENSIONAL_EXPONENTS( 1.00000000000000, 0.000000000000000, 0.000000000000000, 0.000000000000000, 0.000000000000000, 0.000000000000000, 0.000000000000000 );
#64 = DIMENSIONAL_EXPONENTS( 0.000000000000000, 0.000000000000000, 0.000000000000000, 0.000000000000000, 0.000000000000000, 0.000000000000000, 0.000000000000000 );
#70 = SURFACE_STYLE_USAGE( .BOTH., #109 );
#71 = FACE_OUTER_BOUND( '', #110, .T. );
#72 = PLANE( '', #111 );
#73 = SURFACE_STYLE_USAGE( .BOTH., #112 );
#74 = FACE_OUTER_BOUND( '', #113, .T. );
#75 = PLANE( '', #114 );
#76 = SURFACE_STYLE_USAGE( .BOTH., #115 );
#77 = FACE_OUTER_BOUND( '', #116, .T. );
#78 = PLANE( '', #117 );
#79 = SURFACE_STYLE_USAGE( .BOTH., #118 );
#80 = FACE_OUTER_BOUND( '', #119, .T. );
#81 = PLANE( '', #120 );
#82 = SURFACE_STYLE_USAGE( .BOTH., #121 );
#83 = FACE_OUTER_BOUND( '', #122, .T. );
#84 = PLANE( '', #123 );
#85 = SURFACE_STYLE_USAGE( .BOTH., #124 );
#86 = FACE_OUTER_BOUND( '', #125, .T. );
#87 = PLANE( '', #126 );
#88 = SURFACE_STYLE_USAGE( .BOTH., #127 );
#89 = FACE_OUTER_BOUND( '', #128, .T. );
#90 = FACE_BOUND( '', #129, .T. );
#91 = PLANE( '', #130 );
#92 = SURFACE_STYLE_USAGE( .BOTH., #131 );
#93 = FACE_OUTER_BOUND( '', #132, .T. );
#94 = FACE_BOUND( '', #133, .T. );
#95 = PLANE( '', #134 );
#96 = SURFACE_STYLE_USAGE( .BOTH., #135 );
#97 = FACE_OUTER_BOUND( '', #136, .T. );
#98 = PLANE( '', #137 );
#99 = SURFACE_STYLE_USAGE( .BOTH., #138 );
#100 = FACE_OUTER_BOUND( '', #139, .T. );
#101 = PLANE( '', #140 );
#102 = PRODUCT_CONTEXT( '', #20, 'mechanical' );
#103 = PRODUCT_DEFINITION_FORMATION_WITH_SPECIFIED_SOURCE( ' ', 'NONE', #53, .NOT_KNOWN. );
#104 = CLOSED_SHELL( '', ( #50, #34, #36, #46, #48, #40, #38, #52, #42, #44 ) );
#105 = CARTESIAN_POINT( '', ( 0.000000000000000, 0.000000000000000, 0.000000000000000 ) );
#106 = DIRECTION( '', ( 0.000000000000000, 0.000000000000000, 1.00000000000000 ) );
#107 = DIRECTION( '', ( 1.00000000000000, 0.000000000000000, 0.000000000000000 ) );
#108 =  ( LENGTH_UNIT(  )NAMED_UNIT( #62 )SI_UNIT( .MILLI., .METRE. ) );
#109 = SURFACE_SIDE_STYLE( '', ( #142 ) );
#110 = EDGE_LOOP( '', ( #143, #144, #145, #146 ) );
#111 = AXIS2_PLACEMENT_3D( '', #147, #148, #149 );
#112 = SURFACE_SIDE_STYLE( '', ( #150 ) );
#113 = EDGE_LOOP( '', ( #151, #152, #153, #154 ) );
#114 = AXIS2_PLACEMENT_3D( '', #155, #156, #157 );
#115 = SURFACE_SIDE_STYLE( '', ( #158 ) );
#116 = EDGE_LOOP( '', ( #159, #160, #161, #162 ) );
#117 = AXIS2_PLACEMENT_3D( '', #163, #164, #165 );
#118 = SURFACE_SIDE_STYLE( '', ( #166 ) );
#119 = EDGE_LOOP( '', ( #167, #168, #169, #170 ) );
#120 = AXIS2_PLACEMENT_3D( '', #171, #172, #173 );
#121 = SURFACE_SIDE_STYLE( '', ( #174 ) );
#122 = EDGE_LOOP( '', ( #175, #176, #177, #178 ) );
#123 = AXIS2_PLACEMENT_3D( '', #179, #180, #181 );
#124 = SURFACE_SIDE_STYLE( '', ( #182 ) );
#125 = EDGE_LOOP( '', ( #183, #184, #185, #186 ) );
#126 = AXIS2_PLACEMENT_3D( '', #187, #188, #189 );
#127 = SURFACE_SIDE_STYLE( '', ( #190 ) );
#128 = EDGE_LOOP( '', ( #191, #192, #193, #194 ) );
#129 = EDGE_LOOP( '', ( #195, #196, #197, #198 ) );
#130 = AXIS2_PLACEMENT_3D( '', #199, #200, #201 );
#131 = SURFACE_SIDE_STYLE( '', ( #202 ) );
#132 = EDGE_LOOP( '', ( #203, #204, #205, #206 ) );
#133 = EDGE_LOOP( '', ( #207, #208, #209, #210 ) );
#134 = AXIS2_PLACEMENT_3D( '', #211, #212, #213 );
#135 = SURFACE_SIDE_STYLE( '', ( #214 ) );
#136 = EDGE_LOOP( '', ( #215, #216, #217, #218 ) );
#137 = AXIS2_PLACEMENT_3D( '', #219, #220, #221 );
#138 = SURFACE_SIDE_STYLE( '', ( #222 ) );
#139 = EDGE_LOOP( '', ( #223, #224, #225, #226 ) );
#140 = AXIS2_PLACEMENT_3D( '', #227, #228, #229 );
#142 = SURFACE_STYLE_FILL_AREA( #230 );
#143 = ORIENTED_EDGE( '', *, *, #231, .T. );
#144 = ORIENTED_EDGE( '', *, *, #232, .F. );
#145 = ORIENTED_EDGE( '', *, *, #233, .F. );
#146 = ORIENTED_EDGE( '', *, *, #234, .T. );
#147 = CARTESIAN_POINT( '', ( 1000.00000000000, -10.0000000000000, -10.0000000000000 ) );
#148 = DIRECTION( '', ( 0.000000000000000, 0.000000000000000, 1.00000000000000 ) );
#149 = DIRECTION( '', ( 1.00000000000000, 0.000000000000000, -0.000000000000000 ) );
#150 = SURFACE_STYLE_FILL_AREA( #235 );
#151 = ORIENTED_EDGE( '', *, *, #236, .T. );
#152 = ORIENTED_EDGE( '', *, *, #237, .F. );
#153 = ORIENTED_EDGE( '', *, *, #238, .F. );
#154 = ORIENTED_EDGE( '', *, *, #239, .T. );
#155 = CARTESIAN_POINT( '', ( 1000.00000000000, 10.0000000000000, 10.0000000000000 ) );
#156 = DIRECTION( '', ( 0.000000000000000, 0.000000000000000, -1.00000000000000 ) );
#157 = DIRECTION( '', ( -1.00000000000000, 0.000000000000000, 0.000000000000000 ) );
#158 = SURFACE_STYLE_FILL_AREA( #240 );
#159 = ORIENTED_EDGE( '', *, *, #241, .F. );
#160 = ORIENTED_EDGE( '', *, *, #242, .F. );
#161 = ORIENTED_EDGE( '', *, *, #243, .T. );
#162 = ORIENTED_EDGE( '', *, *, #244, .T. );
#163 = CARTESIAN_POINT( '', ( 1000.00000000000, 9.00000000000000, 9.00000000000000 ) );
#164 = DIRECTION( '', ( 0.000000000000000, 0.000000000000000, -1.00000000000000 ) );
#165 = DIRECTION( '', ( -1.00000000000000, 0.000000000000000, 0.000000000000000 ) );
#166 = SURFACE_STYLE_FILL_AREA( #245 );
#167 = ORIENTED_EDGE( '', *, *, #246, .T. );
#168 = ORIENTED_EDGE( '', *, *, #239, .F. );
#169 = ORIENTED_EDGE( '', *, *, #247, .F. );
#170 = ORIENTED_EDGE( '', *, *, #232, .T. );
#171 = CARTESIAN_POINT( '', ( 1000.00000000000, 10.0000000000000, -10.0000000000000 ) );
#172 = DIRECTION( '', ( 0.000000000000000, -1.00000000000000, 0.000000000000000 ) );
#173 = DIRECTION( '', ( 0.000000000000000, 0.000000000000000, -1.00000000000000 ) );
#174 = SURFACE_STYLE_FILL_AREA( #248 );
#175 = ORIENTED_EDGE( '', *, *, #249, .F. );
#176 = ORIENTED_EDGE( '', *, *, #250, .F. );
#177 = ORIENTED_EDGE( '', *, *, #251, .T. );
#178 = ORIENTED_EDGE( '', *, *, #252, .T. );
#179 = CARTESIAN_POINT( '', ( 1000.00000000000, -9.00000000000000, -9.00000000000000 ) );
#180 = DIRECTION( '', ( 0.000000000000000, 0.000000000000000, 1.00000000000000 ) );
#181 = DIRECTION( '', ( 1.00000000000000, 0.000000000000000, -0.000000000000000 ) );
#182 = SURFACE_STYLE_FILL_AREA( #253 );
#183 = ORIENTED_EDGE( '', *, *, #254, .F. );
#184 = ORIENTED_EDGE( '', *, *, #252, .F. );
#185 = ORIENTED_EDGE( '', *, *, #255, .T. );
#186 = ORIENTED_EDGE( '', *, *, #242, .T. );
#187 = CARTESIAN_POINT( '', ( 1000.00000000000, 9.00000000000000, -9.00000000000000 ) );
#188 = DIRECTION( '', ( 0.000000000000000, -1.00000000000000, 0.000000000000000 ) );
#189 = DIRECTION( '', ( 0.000000000000000, 0.000000000000000, -1.00000000000000 ) );
#190 = SURFACE_STYLE_FILL_AREA( #256 );
#191 = ORIENTED_EDGE( '', *, *, #238, .T. );
#192 = ORIENTED_EDGE( '', *, *, #257, .T. );
#193 = ORIENTED_EDGE( '', *, *, #233, .T. );
#194 = ORIENTED_EDGE( '', *, *, #247, .T. );
#195 = ORIENTED_EDGE( '', *, *, #258, .F. );
#196 = ORIENTED_EDGE( '', *, *, #243, .F. );
#197 = ORIENTED_EDGE( '', *, *, #255, .F. );
#198 = ORIENTED_EDGE( '', *, *, #251, .F. );
#199 = CARTESIAN_POINT( '', ( 1000.00000000000, 0.000000000000000, 0.000000000000000 ) );
#200 = DIRECTION( '', ( 1.00000000000000, 0.000000000000000, 0.000000000000000 ) );
#201 = DIRECTION( '', ( 0.000000000000000, 0.000000000000000, -1.00000000000000 ) );
#202 = SURFACE_STYLE_FILL_AREA( #259 );
#203 = ORIENTED_EDGE( '', *, *, #236, .F. );
#204 = ORIENTED_EDGE( '', *, *, #246, .F. );
#205 = ORIENTED_EDGE( '', *, *, #231, .F. );
#206 = ORIENTED_EDGE( '', *, *, #260, .F. );
#207 = ORIENTED_EDGE( '', *, *, #241, .T. );
#208 = ORIENTED_EDGE( '', *, *, #261, .T. );
#209 = ORIENTED_EDGE( '', *, *, #249, .T. );
#210 = ORIENTED_EDGE( '', *, *, #254, .T. );
#211 = CARTESIAN_POINT( '', ( 0.000000000000000, 0.000000000000000, 0.000000000000000 ) );
#212 = DIRECTION( '', ( 1.00000000000000, 0.000000000000000, 0.000000000000000 ) );
#213 = DIRECTION( '', ( 0.000000000000000, 0.000000000000000, -1.00000000000000 ) );
#214 = SURFACE_STYLE_FILL_AREA( #262 );
#215 = ORIENTED_EDGE( '', *, *, #260, .T. );
#216 = ORIENTED_EDGE( '', *, *, #234, .F. );
#217 = ORIENTED_EDGE( '', *, *, #257, .F. );
#218 = ORIENTED_EDGE( '', *, *, #237, .T. );
#219 = CARTESIAN_POINT( '', ( 1000.00000000000, -10.0000000000000, 10.0000000000000 ) );
#220 = DIRECTION( '', ( -0.000000000000000, 1.00000000000000, 0.000000000000000 ) );
#221 = DIRECTION( '', ( 0.000000000000000, -0.000000000000000, 1.00000000000000 ) );
#222 = SURFACE_STYLE_FILL_AREA( #263 );
#223 = ORIENTED_EDGE( '', *, *, #261, .F. );
#224 = ORIENTED_EDGE( '', *, *, #244, .F. );
#225 = ORIENTED_EDGE( '', *, *, #258, .T. );
#226 = ORIENTED_EDGE( '', *, *, #250, .T. );
#227 = CARTESIAN_POINT( '', ( 1000.00000000000, -9.00000000000000, 9.00000000000000 ) );
#228 = DIRECTION( '', ( -0.000000000000000, 1.00000000000000, 0.000000000000000 ) );
#229 = DIRECTION( '', ( 0.000000000000000, -0.000000000000000, 1.00000000000000 ) );
#230 = FILL_AREA_STYLE( '', ( #264 ) );
#231 = EDGE_CURVE( '', #265, #266, #267, .T. );
#232 = EDGE_CURVE( '', #268, #266, #269, .T. );
#233 = EDGE_CURVE( '', #270, #268, #271, .T. );
#234 = EDGE_CURVE( '', #270, #265, #272, .T. );
#235 = FILL_AREA_STYLE( '', ( #273 ) );
#236 = EDGE_CURVE( '', #274, #275, #276, .T. );
#237 = EDGE_CURVE( '', #277, #275, #278, .T. );
#238 = EDGE_CURVE( '', #279, #277, #280, .T. );
#239 = EDGE_CURVE( '', #279, #274, #281, .T. );
#240 = FILL_AREA_STYLE( '', ( #282 ) );
#241 = EDGE_CURVE( '', #283, #284, #285, .T. );
#242 = EDGE_CURVE( '', #286, #283, #287, .T. );
#243 = EDGE_CURVE( '', #286, #288, #289, .T. );
#244 = EDGE_CURVE( '', #288, #284, #290, .T. );
#245 = FILL_AREA_STYLE( '', ( #291 ) );
#246 = EDGE_CURVE( '', #266, #274, #292, .T. );
#247 = EDGE_CURVE( '', #268, #279, #293, .T. );
#248 = FILL_AREA_STYLE( '', ( #294 ) );
#249 = EDGE_CURVE( '', #295, #296, #297, .T. );
#250 = EDGE_CURVE( '', #298, #295, #299, .T. );
#251 = EDGE_CURVE( '', #298, #300, #301, .T. );
#252 = EDGE_CURVE( '', #300, #296, #302, .T. );
#253 = FILL_AREA_STYLE( '', ( #303 ) );
#254 = EDGE_CURVE( '', #296, #283, #304, .T. );
#255 = EDGE_CURVE( '', #300, #286, #305, .T. );
#256 = FILL_AREA_STYLE( '', ( #306 ) );
#257 = EDGE_CURVE( '', #277, #270, #307, .T. );
#258 = EDGE_CURVE( '', #288, #298, #308, .T. );
#259 = FILL_AREA_STYLE( '', ( #309 ) );
#260 = EDGE_CURVE( '', #275, #265, #310, .T. );
#261 = EDGE_CURVE( '', #284, #295, #311, .T. );
#262 = FILL_AREA_STYLE( '', ( #312 ) );
#263 = FILL_AREA_STYLE( '', ( #313 ) );
#264 = FILL_AREA_STYLE_COLOUR( '', #314 );
#265 = VERTEX_POINT( '', #315 );
#266 = VERTEX_POINT( '', #316 );
#267 = LINE( '', #317, #318 );
#268 = VERTEX_POINT( '', #319 );
#269 = LINE( '', #320, #321 );
#270 = VERTEX_POINT( '', #322 );
#271 = LINE( '', #323, #324 );
#272 = LINE( '', #325, #326 );
#273 = FILL_AREA_STYLE_COLOUR( '', #327 );
#274 = VERTEX_POINT( '', #328 );
#275 = VERTEX_POINT( '', #329 );
#276 = LINE( '', #330, #331 );
#277 = VERTEX_POINT( '', #332 );
#278 = LINE( '', #333, #334 );
#279 = VERTEX_POINT( '', #335 );
#280 = LINE( '', #336, #337 );
#281 = LINE( '', #338, #339 );
#282 = FILL_AREA_STYLE_COLOUR( '', #340 );
#283 = VERTEX_POINT( '', #341 );
#284 = VERTEX_POINT( '', #342 );
#285 = LINE( '', #343, #344 );
#286 = VERTEX_POINT( '', #345 );
#287 = LINE( '', #346, #347 );
#288 = VERTEX_POINT( '', #348 );
#289 = LINE( '', #349, #350 );
#290 = LINE( '', #351, #352 );
#291 = FILL_AREA_STYLE_COLOUR( '', #353 );
#292 = LINE( '', #354, #355 );
#293 = LINE( '', #356, #357 );
#294 = FILL_AREA_STYLE_COLOUR( '', #358 );
#295 = VERTEX_POINT( '', #359 );
#296 = VERTEX_POINT( '', #360 );
#297 = LINE( '', #361, #362 );
#298 = VERTEX_POINT( '', #363 );
#299 = LINE( '', #364, #365 );
#300 = VERTEX_POINT( '', #366 );
#301 = LINE( '', #367, #368 );
#302 = LINE( '', #369, #370 );
#303 = FILL_AREA_STYLE_COLOUR( '', #371 );
#304 = LINE( '', #372, #373 );
#305 = LINE( '', #374, #375 );
#306 = FILL_AREA_STYLE_COLOUR( '', #376 );
#307 = LINE( '', #377, #378 );
#308 = LINE( '', #379, #380 );
#309 = FILL_AREA_STYLE_COLOUR( '', #381 );
#310 = LINE( '', #382, #383 );
#311 = LINE( '', #384, #385 );
#312 = FILL_AREA_STYLE_COLOUR( '', #386 );
#313 = FILL_AREA_STYLE_COLOUR( '', #387 );
#314 = COLOUR_RGB( '', 0.689999997600000, 0.689999997600000, 0.689999997600000 );
#315 = CARTESIAN_POINT( '', ( 0.000000000000000, -10.0000000000000, -10.0000000000000 ) );
#316 = CARTESIAN_POINT( '', ( 0.000000000000000, 10.0000000000000, -10.0000000000000 ) );
#317 = CARTESIAN_POINT( '', ( 0.000000000000000, -10.0000000000000, -10.0000000000000 ) );
#318 = VECTOR( '', #388, 1000.00000000000 );
#319 = CARTESIAN_POINT( '', ( 1000.00000000000, 10.0000000000000, -10.0000000000000 ) );
#320 = CARTESIAN_POINT( '', ( 1000.00000000000, 10.0000000000000, -10.0000000000000 ) );
#321 = VECTOR( '', #389, 1000.00000000000 );
#322 = CARTESIAN_POINT( '', ( 1000.00000000000, -10.0000000000000, -10.0000000000000 ) );
#323 = CARTESIAN_POINT( '', ( 1000.00000000000, -10.0000000000000, -10.0000000000000 ) );
#324 = VECTOR( '', #390, 1000.00000000000 );
#325 = CARTESIAN_POINT( '', ( 1000.00000000000, -10.0000000000000, -10.0000000000000 ) );
#326 = VECTOR( '', #391, 1000.00000000000 );
#327 = COLOUR_RGB( '', 0.689999997600000, 0.689999997600000, 0.689999997600000 );
#328 = CARTESIAN_POINT( '', ( 0.000000000000000, 10.0000000000000, 10.0000000000000 ) );
#329 = CARTESIAN_POINT( '', ( 0.000000000000000, -10.0000000000000, 10.0000000000000 ) );
#330 = CARTESIAN_POINT( '', ( 0.000000000000000, 10.0000000000000, 10.0000000000000 ) );
#331 = VECTOR( '', #392, 1000.00000000000 );
#332 = CARTESIAN_POINT( '', ( 1000.00000000000, -10.0000000000000, 10.0000000000000 ) );
#333 = CARTESIAN_POINT( '', ( 1000.00000000000, -10.0000000000000, 10.0000000000000 ) );
#334 = VECTOR( '', #393, 1000.00000000000 );
#335 = CARTESIAN_POINT( '', ( 1000.00000000000, 10.0000000000000, 10.0000000000000 ) );
#336 = CARTESIAN_POINT( '', ( 1000.00000000000, 10.0000000000000, 10.0000000000000 ) );
#337 = VECTOR( '', #394, 1000.00000000000 );
#338 = CARTESIAN_POINT( '', ( 1000.00000000000, 10.0000000000000, 10.0000000000000 ) );
#339 = VECTOR( '', #395, 1000.00000000000 );
#340 = COLOUR_RGB( '', 0.689999997600000, 0.689999997600000, 0.689999997600000 );
#341 = CARTESIAN_POINT( '', ( 0.000000000000000, 9.00000000000000, 9.00000000000000 ) );
#342 = CARTESIAN_POINT( '', ( 0.000000000000000, -9.00000000000000, 9.00000000000000 ) );
#343 = CARTESIAN_POINT( '', ( 0.000000000000000, 9.00000000000000, 9.00000000000000 ) );
#344 = VECTOR( '', #396, 1000.00000000000 );
#345 = CARTESIAN_POINT( '', ( 1000.00000000000, 9.00000000000000, 9.00000000000000 ) );
#346 = CARTESIAN_POINT( '', ( 1000.00000000000, 9.00000000000000, 9.00000000000000 ) );
#347 = VECTOR( '', #397, 1000.00000000000 );
#348 = CARTESIAN_POINT( '', ( 1000.00000000000, -9.00000000000000, 9.00000000000000 ) );
#349 = CARTESIAN_POINT( '', ( 1000.00000000000, 9.00000000000000, 9.00000000000000 ) );
#350 = VECTOR( '', #398, 1000.00000000000 );
#351 = CARTESIAN_POINT( '', ( 1000.00000000000, -9.00000000000000, 9.00000000000000 ) );
#352 = VECTOR( '', #399, 1000.00000000000 );
#353 = COLOUR_RGB( '', 0.689999997600000, 0.689999997600000, 0.689999997600000 );
#354 = CARTESIAN_POINT( '', ( 0.000000000000000, 10.0000000000000, -10.0000000000000 ) );
#355 = VECTOR( '', #400, 1000.00000000000 );
#356 = CARTESIAN_POINT( '', ( 1000.00000000000, 10.0000000000000, -10.0000000000000 ) );
#357 = VECTOR( '', #401, 1000.00000000000 );
#358 = COLOUR_RGB( '', 0.689999997600000, 0.689999997600000, 0.689999997600000 );
#359 = CARTESIAN_POINT( '', ( 0.000000000000000, -9.00000000000000, -9.00000000000000 ) );
#360 = CARTESIAN_POINT( '', ( 0.000000000000000, 9.00000000000000, -9.00000000000000 ) );
#361 = CARTESIAN_POINT( '', ( 0.000000000000000, -9.00000000000000, -9.00000000000000 ) );
#362 = VECTOR( '', #402, 1000.00000000000 );
#363 = CARTESIAN_POINT( '', ( 1000.00000000000, -9.00000000000000, -9.00000000000000 ) );
#364 = CARTESIAN_POINT( '', ( 1000.00000000000, -9.00000000000000, -9.00000000000000 ) );
#365 = VECTOR( '', #403, 1000.00000000000 );
#366 = CARTESIAN_POINT( '', ( 1000.00000000000, 9.00000000000000, -9.00000000000000 ) );
#367 = CARTESIAN_POINT( '', ( 1000.00000000000, -9.00000000000000, -9.00000000000000 ) );
#368 = VECTOR( '', #404, 1000.00000000000 );
#369 = CARTESIAN_POINT( '', ( 1000.00000000000, 9.00000000000000, -9.00000000000000 ) );
#370 = VECTOR( '', #405, 1000.00000000000 );
#371 = COLOUR_RGB( '', 0.689999997600000, 0.689999997600000, 0.689999997600000 );
#372 = CARTESIAN_POINT( '', ( 0.000000000000000, 9.00000000000000, -9.00000000000000 ) );
#373 = VECTOR( '', #406, 1000.00000000000 );
#374 = CARTESIAN_POINT( '', ( 1000.00000000000, 9.00000000000000, -9.00000000000000 ) );
#375 = VECTOR( '', #407, 1000.00000000000 );
#376 = COLOUR_RGB( '', 0.689999997600000, 0.689999997600000, 0.689999997600000 );
#377 = CARTESIAN_POINT( '', ( 1000.00000000000, -10.0000000000000, 10.0000000000000 ) );
#378 = VECTOR( '', #408, 1000.00000000000 );
#379 = CARTESIAN_POINT( '', ( 1000.00000000000, -9.00000000000000, 9.00000000000000 ) );
#380 = VECTOR( '', #409, 1000.00000000000 );
#381 = COLOUR_RGB( '', 0.689999997600000, 0.689999997600000, 0.689999997600000 );
#382 = CARTESIAN_POINT( '', ( 0.000000000000000, -10.0000000000000, 10.0000000000000 ) );
#383 = VECTOR( '', #410, 1000.00000000000 );
#384 = CARTESIAN_POINT( '', ( 0.000000000000000, -9.00000000000000, 9.00000000000000 ) );
#385 = VECTOR( '', #411, 1000.00000000000 );
#386 = COLOUR_RGB( '', 0.689999997600000, 0.689999997600000, 0.689999997600000 );
#387 = COLOUR_RGB( '', 0.689999997600000, 0.689999997600000, 0.689999997600000 );
#388 = DIRECTION( '', ( 0.000000000000000, 1.00000000000000, 0.000000000000000 ) );
#389 = DIRECTION( '', ( -1.00000000000000, -0.000000000000000, -0.000000000000000 ) );
#390 = DIRECTION( '', ( 0.000000000000000, 1.00000000000000, 0.000000000000000 ) );
#391 = DIRECTION( '', ( -1.00000000000000, -0.000000000000000, -0.000000000000000 ) );
#392 = DIRECTION( '', ( 0.000000000000000, -1.00000000000000, 0.000000000000000 ) );
#393 = DIRECTION( '', ( -1.00000000000000, -0.000000000000000, -0.000000000000000 ) );
#394 = DIRECTION( '', ( 0.000000000000000, -1.00000000000000, 0.000000000000000 ) );
#395 = DIRECTION( '', ( -1.00000000000000, -0.000000000000000, -0.000000000000000 ) );
#396 = DIRECTION( '', ( 0.000000000000000, -1.00000000000000, 0.000000000000000 ) );
#397 = DIRECTION( '', ( -1.00000000000000, -0.000000000000000, -0.000000000000000 ) );
#398 = DIRECTION( '', ( 0.000000000000000, -1.00000000000000, 0.000000000000000 ) );
#399 = DIRECTION( '', ( -1.00000000000000, -0.000000000000000, -0.000000000000000 ) );
#400 = DIRECTION( '', ( 0.000000000000000, 0.000000000000000, 1.00000000000000 ) );
#401 = DIRECTION( '', ( 0.000000000000000, 0.000000000000000, 1.00000000000000 ) );
#402 = DIRECTION( '', ( 0.000000000000000, 1.00000000000000, 0.000000000000000 ) );
#403 = DIRECTION( '', ( -1.00000000000000, -0.000000000000000, -0.000000000000000 ) );
#404 = DIRECTION( '', ( 0.000000000000000, 1.00000000000000, 0.000000000000000 ) );
#405 = DIRECTION( '', ( -1.00000000000000, -0.000000000000000, -0.000000000000000 ) );
#406 = DIRECTION( '', ( 0.000000000000000, 0.000000000000000, 1.00000000000000 ) );
#407 = DIRECTION( '', ( 0.000000000000000, 0.000000000000000, 1.00000000000000 ) );
#408 = DIRECTION( '', ( 0.000000000000000, 0.000000000000000, -1.00000000000000 ) );
#409 = DIRECTION( '', ( 0.000000000000000, 0.000000000000000, -1.00000000000000 ) );
#410 = DIRECTION( '', ( 0.000000000000000, 0.000000000000000, -1.00000000000000 ) );
#411 = DIRECTION( '', ( 0.000000000000000, 0.000000000000000, -1.00000000000000 ) );
ENDSEC;
END-ISO-10303-21;
