ISO-10303-21;
HEADER;
FILE_DESCRIPTION( ( 'STEP AP214' ), '1' );
FILE_NAME( '//goodhand-server/Shared Folders/GoodHand Data/Kipp CAD/K0390/K0390.121X60.stp', '2020-12-07T10:15:46', ( '' ), ( '' ), ' ', 'PARTsolutions', ' ' );
FILE_SCHEMA( ( 'AUTOMOTIVE_DESIGN { 1 0 10303 214 1 1 1 1 }' ) );
ENDSEC;
DATA;
#1 = MECHANICAL_DESIGN_GEOMETRIC_PRESENTATION_REPRESENTATION( ' ', ( #10, #11, #12, #13, #14, #15, #16, #17, #18, #19, #20, #21, #22 ), #6 );
#2 = PRODUCT_DEFINITION_CONTEXT( '', #23, 'design' );
#3 = APPLICATION_PROTOCOL_DEFINITION( 'international standard', 'automotive_design', 2001, #23 );
#4 = PRODUCT_CATEGORY_RELATIONSHIP( 'NONE', 'NONE', #24, #25 );
#5 = SHAPE_DEFINITION_REPRESENTATION( #26, #27 );
#6 =  ( GEOMETRIC_REPRESENTATION_CONTEXT( 3 )GLOBAL_UNCERTAINTY_ASSIGNED_CONTEXT( ( #30 ) )GLOBAL_UNIT_ASSIGNED_CONTEXT( ( #32, #33, #34 ) )REPRESENTATION_CONTEXT( 'NONE', 'WORKSPACE' ) );
#10 = STYLED_ITEM( '', ( #36 ), #37 );
#11 = STYLED_ITEM( '', ( #38 ), #39 );
#12 = STYLED_ITEM( '', ( #40 ), #41 );
#13 = STYLED_ITEM( '', ( #42 ), #43 );
#14 = STYLED_ITEM( '', ( #44 ), #45 );
#15 = STYLED_ITEM( '', ( #46 ), #47 );
#16 = STYLED_ITEM( '', ( #48 ), #49 );
#17 = STYLED_ITEM( '', ( #50 ), #51 );
#18 = STYLED_ITEM( '', ( #52 ), #53 );
#19 = STYLED_ITEM( '', ( #54 ), #55 );
#20 = STYLED_ITEM( '', ( #56 ), #57 );
#21 = STYLED_ITEM( '', ( #58 ), #59 );
#22 = STYLED_ITEM( '', ( #60 ), #61 );
#23 = APPLICATION_CONTEXT( 'core data for automotive mechanical design processes' );
#24 = PRODUCT_CATEGORY( 'part', 'NONE' );
#25 = PRODUCT_RELATED_PRODUCT_CATEGORY( 'detail', ' ', ( #62 ) );
#26 = PRODUCT_DEFINITION_SHAPE( 'NONE', 'NONE', #63 );
#27 = ADVANCED_BREP_SHAPE_REPRESENTATION( '_K0390.121X60', ( #64, #65 ), #6 );
#30 = UNCERTAINTY_MEASURE_WITH_UNIT( LENGTH_MEASURE( 0.00100000000000000 ), #32, '', '' );
#32 =  ( CONVERSION_BASED_UNIT( 'MILLIMETRE', #68 )LENGTH_UNIT(  )NAMED_UNIT( #71 ) );
#33 =  ( NAMED_UNIT( #73 )PLANE_ANGLE_UNIT(  )SI_UNIT( $, .RADIAN. ) );
#34 =  ( NAMED_UNIT( #73 )SI_UNIT( $, .STERADIAN. )SOLID_ANGLE_UNIT(  ) );
#36 = PRESENTATION_STYLE_ASSIGNMENT( ( #79 ) );
#37 = ADVANCED_FACE( '', ( #80 ), #81, .F. );
#38 = PRESENTATION_STYLE_ASSIGNMENT( ( #82 ) );
#39 = ADVANCED_FACE( '', ( #83 ), #84, .F. );
#40 = PRESENTATION_STYLE_ASSIGNMENT( ( #85 ) );
#41 = ADVANCED_FACE( '', ( #86, #87 ), #88, .T. );
#42 = PRESENTATION_STYLE_ASSIGNMENT( ( #89 ) );
#43 = ADVANCED_FACE( '', ( #90, #91 ), #92, .T. );
#44 = PRESENTATION_STYLE_ASSIGNMENT( ( #93 ) );
#45 = ADVANCED_FACE( '', ( #94 ), #95, .T. );
#46 = PRESENTATION_STYLE_ASSIGNMENT( ( #96 ) );
#47 = ADVANCED_FACE( '', ( #97, #98 ), #99, .T. );
#48 = PRESENTATION_STYLE_ASSIGNMENT( ( #100 ) );
#49 = ADVANCED_FACE( '', ( #101 ), #102, .T. );
#50 = PRESENTATION_STYLE_ASSIGNMENT( ( #103 ) );
#51 = ADVANCED_FACE( '', ( #104, #105 ), #106, .T. );
#52 = PRESENTATION_STYLE_ASSIGNMENT( ( #107 ) );
#53 = ADVANCED_FACE( '', ( #108 ), #109, .F. );
#54 = PRESENTATION_STYLE_ASSIGNMENT( ( #110 ) );
#55 = ADVANCED_FACE( '', ( #111, #112 ), #113, .T. );
#56 = PRESENTATION_STYLE_ASSIGNMENT( ( #114 ) );
#57 = ADVANCED_FACE( '', ( #115, #116 ), #117, .F. );
#58 = PRESENTATION_STYLE_ASSIGNMENT( ( #118 ) );
#59 = ADVANCED_FACE( '', ( #119 ), #120, .F. );
#60 = PRESENTATION_STYLE_ASSIGNMENT( ( #121 ) );
#61 = ADVANCED_FACE( '', ( #122 ), #123, .T. );
#62 = PRODUCT( '_K0390.121X60', '_K0390.121X60', 'PART-_K0390.121X60-DESC', ( #124 ) );
#63 = PRODUCT_DEFINITION( 'NONE', 'NONE', #125, #2 );
#64 = MANIFOLD_SOLID_BREP( '_K0390.121X60', #126 );
#65 = AXIS2_PLACEMENT_3D( '', #127, #128, #129 );
#68 = LENGTH_MEASURE_WITH_UNIT( LENGTH_MEASURE( 1.00000000000000 ), #130 );
#71 = DIMENSIONAL_EXPONENTS( 1.00000000000000, 0.000000000000000, 0.000000000000000, 0.000000000000000, 0.000000000000000, 0.000000000000000, 0.000000000000000 );
#73 = DIMENSIONAL_EXPONENTS( 0.000000000000000, 0.000000000000000, 0.000000000000000, 0.000000000000000, 0.000000000000000, 0.000000000000000, 0.000000000000000 );
#79 = SURFACE_STYLE_USAGE( .BOTH., #131 );
#80 = FACE_OUTER_BOUND( '', #132, .T. );
#81 = PLANE( '', #133 );
#82 = SURFACE_STYLE_USAGE( .BOTH., #134 );
#83 = FACE_OUTER_BOUND( '', #135, .T. );
#84 = PLANE( '', #136 );
#85 = SURFACE_STYLE_USAGE( .BOTH., #137 );
#86 = FACE_OUTER_BOUND( '', #138, .T. );
#87 = FACE_OUTER_BOUND( '', #139, .T. );
#88 = CYLINDRICAL_SURFACE( '', #140, 3.60000000000000 );
#89 = SURFACE_STYLE_USAGE( .BOTH., #141 );
#90 = FACE_BOUND( '', #142, .T. );
#91 = FACE_OUTER_BOUND( '', #143, .T. );
#92 = CONICAL_SURFACE( '', #144, 6.00000000000000, 1.18946407340000 );
#93 = SURFACE_STYLE_USAGE( .BOTH., #145 );
#94 = FACE_OUTER_BOUND( '', #146, .T. );
#95 = CONICAL_SURFACE( '', #147, 4.92650000000000, 0.785398163400000 );
#96 = SURFACE_STYLE_USAGE( .BOTH., #148 );
#97 = FACE_BOUND( '', #149, .T. );
#98 = FACE_OUTER_BOUND( '', #150, .T. );
#99 = SPHERICAL_SURFACE( '', #151, 6.70960000000000 );
#100 = SURFACE_STYLE_USAGE( .BOTH., #152 );
#101 = FACE_OUTER_BOUND( '', #153, .T. );
#102 = PLANE( '', #154 );
#103 = SURFACE_STYLE_USAGE( .BOTH., #155 );
#104 = FACE_OUTER_BOUND( '', #156, .T. );
#105 = FACE_OUTER_BOUND( '', #157, .T. );
#106 = CYLINDRICAL_SURFACE( '', #158, 4.00000000000000 );
#107 = SURFACE_STYLE_USAGE( .BOTH., #159 );
#108 = FACE_OUTER_BOUND( '', #160, .T. );
#109 = PLANE( '', #161 );
#110 = SURFACE_STYLE_USAGE( .BOTH., #162 );
#111 = FACE_OUTER_BOUND( '', #163, .T. );
#112 = FACE_OUTER_BOUND( '', #164, .T. );
#113 = CYLINDRICAL_SURFACE( '', #165, 6.00000000000000 );
#114 = SURFACE_STYLE_USAGE( .BOTH., #166 );
#115 = FACE_OUTER_BOUND( '', #167, .T. );
#116 = FACE_BOUND( '', #168, .T. );
#117 = PLANE( '', #169 );
#118 = SURFACE_STYLE_USAGE( .BOTH., #170 );
#119 = FACE_OUTER_BOUND( '', #171, .T. );
#120 = PLANE( '', #172 );
#121 = SURFACE_STYLE_USAGE( .BOTH., #173 );
#122 = FACE_OUTER_BOUND( '', #174, .T. );
#123 = CONICAL_SURFACE( '', #175, 4.92650000000000, 0.785398163400000 );
#124 = PRODUCT_CONTEXT( '', #23, 'mechanical' );
#125 = PRODUCT_DEFINITION_FORMATION_WITH_SPECIFIED_SOURCE( ' ', 'NONE', #62, .NOT_KNOWN. );
#126 = CLOSED_SHELL( '', ( #39, #59, #47, #51, #57, #41, #43, #55, #61, #53, #45, #37, #49 ) );
#127 = CARTESIAN_POINT( '', ( 0.000000000000000, 0.000000000000000, 0.000000000000000 ) );
#128 = DIRECTION( '', ( 0.000000000000000, 0.000000000000000, 1.00000000000000 ) );
#129 = DIRECTION( '', ( 1.00000000000000, 0.000000000000000, 0.000000000000000 ) );
#130 =  ( LENGTH_UNIT(  )NAMED_UNIT( #71 )SI_UNIT( .MILLI., .METRE. ) );
#131 = SURFACE_SIDE_STYLE( '', ( #177 ) );
#132 = EDGE_LOOP( '', ( #178, #179 ) );
#133 = AXIS2_PLACEMENT_3D( '', #180, #181, #182 );
#134 = SURFACE_SIDE_STYLE( '', ( #183 ) );
#135 = EDGE_LOOP( '', ( #184, #185, #186, #187, #188, #189 ) );
#136 = AXIS2_PLACEMENT_3D( '', #190, #191, #192 );
#137 = SURFACE_SIDE_STYLE( '', ( #193 ) );
#138 = EDGE_LOOP( '', ( #194 ) );
#139 = EDGE_LOOP( '', ( #195 ) );
#140 = AXIS2_PLACEMENT_3D( '', #196, #197, #198 );
#141 = SURFACE_SIDE_STYLE( '', ( #199 ) );
#142 = EDGE_LOOP( '', ( #200 ) );
#143 = EDGE_LOOP( '', ( #201 ) );
#144 = AXIS2_PLACEMENT_3D( '', #202, #203, #204 );
#145 = SURFACE_SIDE_STYLE( '', ( #205 ) );
#146 = EDGE_LOOP( '', ( #206, #207, #208, #209 ) );
#147 = AXIS2_PLACEMENT_3D( '', #210, #211, #212 );
#148 = SURFACE_SIDE_STYLE( '', ( #213 ) );
#149 = VERTEX_LOOP( '', #214 );
#150 = EDGE_LOOP( '', ( #215 ) );
#151 = AXIS2_PLACEMENT_3D( '', #216, #217, #218 );
#152 = SURFACE_SIDE_STYLE( '', ( #219 ) );
#153 = EDGE_LOOP( '', ( #220, #221, #222, #223 ) );
#154 = AXIS2_PLACEMENT_3D( '', #224, #225, #226 );
#155 = SURFACE_SIDE_STYLE( '', ( #227 ) );
#156 = EDGE_LOOP( '', ( #228 ) );
#157 = EDGE_LOOP( '', ( #229 ) );
#158 = AXIS2_PLACEMENT_3D( '', #230, #231, #232 );
#159 = SURFACE_SIDE_STYLE( '', ( #233 ) );
#160 = EDGE_LOOP( '', ( #234, #235 ) );
#161 = AXIS2_PLACEMENT_3D( '', #236, #237, #238 );
#162 = SURFACE_SIDE_STYLE( '', ( #239 ) );
#163 = EDGE_LOOP( '', ( #240 ) );
#164 = EDGE_LOOP( '', ( #241, #242, #243, #244, #245, #246, #247, #248 ) );
#165 = AXIS2_PLACEMENT_3D( '', #249, #250, #251 );
#166 = SURFACE_SIDE_STYLE( '', ( #252 ) );
#167 = EDGE_LOOP( '', ( #253 ) );
#168 = EDGE_LOOP( '', ( #254 ) );
#169 = AXIS2_PLACEMENT_3D( '', #255, #256, #257 );
#170 = SURFACE_SIDE_STYLE( '', ( #258 ) );
#171 = EDGE_LOOP( '', ( #259, #260, #261, #262, #263, #264 ) );
#172 = AXIS2_PLACEMENT_3D( '', #265, #266, #267 );
#173 = SURFACE_SIDE_STYLE( '', ( #268 ) );
#174 = EDGE_LOOP( '', ( #269, #270, #271, #272 ) );
#175 = AXIS2_PLACEMENT_3D( '', #273, #274, #275 );
#177 = SURFACE_STYLE_FILL_AREA( #276 );
#178 = ORIENTED_EDGE( '', *, *, #277, .F. );
#179 = ORIENTED_EDGE( '', *, *, #278, .F. );
#180 = CARTESIAN_POINT( '', ( -1.50830561399986E-16, 5.45029723684231E-15, 0.000000000000000 ) );
#181 = DIRECTION( '', ( 1.00000000000000, -6.12323399573677E-17, -0.000000000000000 ) );
#182 = DIRECTION( '', ( 6.12323399573677E-17, 1.00000000000000, 0.000000000000000 ) );
#183 = SURFACE_STYLE_FILL_AREA( #279 );
#184 = ORIENTED_EDGE( '', *, *, #280, .F. );
#185 = ORIENTED_EDGE( '', *, *, #278, .T. );
#186 = ORIENTED_EDGE( '', *, *, #281, .F. );
#187 = ORIENTED_EDGE( '', *, *, #282, .F. );
#188 = ORIENTED_EDGE( '', *, *, #283, .F. );
#189 = ORIENTED_EDGE( '', *, *, #284, .F. );
#190 = CARTESIAN_POINT( '', ( 3.00000000000000, 0.900000000000005, 10.5000000000000 ) );
#191 = DIRECTION( '', ( 0.000000000000000, 1.00000000000000, 0.000000000000000 ) );
#192 = DIRECTION( '', ( 0.000000000000000, -0.000000000000000, 1.00000000000000 ) );
#193 = SURFACE_STYLE_FILL_AREA( #285 );
#194 = ORIENTED_EDGE( '', *, *, #286, .F. );
#195 = ORIENTED_EDGE( '', *, *, #287, .T. );
#196 = CARTESIAN_POINT( '', ( 60.0000000000000, 1.77635683940025E-15, 0.000000000000000 ) );
#197 = DIRECTION( '', ( -1.00000000000000, 6.12323399573677E-17, 0.000000000000000 ) );
#198 = DIRECTION( '', ( 6.12323399573677E-17, 1.00000000000000, 0.000000000000000 ) );
#199 = SURFACE_STYLE_FILL_AREA( #288 );
#200 = ORIENTED_EDGE( '', *, *, #287, .F. );
#201 = ORIENTED_EDGE( '', *, *, #289, .T. );
#202 = CARTESIAN_POINT( '', ( 50.0000000000000, 2.38868023897393E-15, 0.000000000000000 ) );
#203 = DIRECTION( '', ( -1.00000000000000, 6.12323399573677E-17, -0.000000000000000 ) );
#204 = DIRECTION( '', ( -6.12323399573677E-17, -1.00000000000000, 0.000000000000000 ) );
#205 = SURFACE_STYLE_FILL_AREA( #290 );
#206 = ORIENTED_EDGE( '', *, *, #291, .F. );
#207 = ORIENTED_EDGE( '', *, *, #292, .T. );
#208 = ORIENTED_EDGE( '', *, *, #293, .T. );
#209 = ORIENTED_EDGE( '', *, *, #294, .T. );
#210 = CARTESIAN_POINT( '', ( 0.000000000000000, 5.45029723684231E-15, 0.000000000000000 ) );
#211 = DIRECTION( '', ( 1.00000000000000, -6.12323399573677E-17, -0.000000000000000 ) );
#212 = DIRECTION( '', ( 6.12323399573677E-17, 1.00000000000000, 0.000000000000000 ) );
#213 = SURFACE_STYLE_FILL_AREA( #295 );
#214 = VERTEX_POINT( '', #296 );
#215 = ORIENTED_EDGE( '', *, *, #297, .T. );
#216 = CARTESIAN_POINT( '', ( 53.2904000000000, 1.38777878078145E-14, 0.000000000000000 ) );
#217 = DIRECTION( '', ( 1.00000000000000, 0.000000000000000, 0.000000000000000 ) );
#218 = DIRECTION( '', ( 0.000000000000000, -1.00000000000000, 0.000000000000000 ) );
#219 = SURFACE_STYLE_FILL_AREA( #298 );
#220 = ORIENTED_EDGE( '', *, *, #299, .T. );
#221 = ORIENTED_EDGE( '', *, *, #300, .T. );
#222 = ORIENTED_EDGE( '', *, *, #301, .T. );
#223 = ORIENTED_EDGE( '', *, *, #283, .T. );
#224 = CARTESIAN_POINT( '', ( 3.00000000000000, 0.000000000000000, 0.000000000000000 ) );
#225 = DIRECTION( '', ( -1.00000000000000, 0.000000000000000, 0.000000000000000 ) );
#226 = DIRECTION( '', ( 0.000000000000000, 0.000000000000000, 1.00000000000000 ) );
#227 = SURFACE_STYLE_FILL_AREA( #302 );
#228 = ORIENTED_EDGE( '', *, *, #297, .F. );
#229 = ORIENTED_EDGE( '', *, *, #303, .T. );
#230 = CARTESIAN_POINT( '', ( 60.0000000000000, 1.77635683940025E-15, 0.000000000000000 ) );
#231 = DIRECTION( '', ( -1.00000000000000, 6.12323399573677E-17, 0.000000000000000 ) );
#232 = DIRECTION( '', ( 6.12323399573677E-17, 1.00000000000000, 0.000000000000000 ) );
#233 = SURFACE_STYLE_FILL_AREA( #304 );
#234 = ORIENTED_EDGE( '', *, *, #293, .F. );
#235 = ORIENTED_EDGE( '', *, *, #305, .F. );
#236 = CARTESIAN_POINT( '', ( -1.50830561399986E-16, 5.45029723684231E-15, 0.000000000000000 ) );
#237 = DIRECTION( '', ( 1.00000000000000, -6.12323399573677E-17, -0.000000000000000 ) );
#238 = DIRECTION( '', ( 6.12323399573677E-17, 1.00000000000000, 0.000000000000000 ) );
#239 = SURFACE_STYLE_FILL_AREA( #306 );
#240 = ORIENTED_EDGE( '', *, *, #289, .F. );
#241 = ORIENTED_EDGE( '', *, *, #291, .T. );
#242 = ORIENTED_EDGE( '', *, *, #307, .T. );
#243 = ORIENTED_EDGE( '', *, *, #299, .F. );
#244 = ORIENTED_EDGE( '', *, *, #282, .T. );
#245 = ORIENTED_EDGE( '', *, *, #308, .T. );
#246 = ORIENTED_EDGE( '', *, *, #284, .T. );
#247 = ORIENTED_EDGE( '', *, *, #301, .F. );
#248 = ORIENTED_EDGE( '', *, *, #309, .T. );
#249 = CARTESIAN_POINT( '', ( 60.0000000000000, 1.77635683940025E-15, 0.000000000000000 ) );
#250 = DIRECTION( '', ( -1.00000000000000, 6.12323399573677E-17, 0.000000000000000 ) );
#251 = DIRECTION( '', ( 6.12323399573677E-17, 1.00000000000000, 0.000000000000000 ) );
#252 = SURFACE_STYLE_FILL_AREA( #310 );
#253 = ORIENTED_EDGE( '', *, *, #303, .F. );
#254 = ORIENTED_EDGE( '', *, *, #286, .T. );
#255 = CARTESIAN_POINT( '', ( 55.5000000000000, 3.60000000000000, 0.000000000000000 ) );
#256 = DIRECTION( '', ( 1.00000000000000, -6.12323399573677E-17, -0.000000000000000 ) );
#257 = DIRECTION( '', ( 6.12323399573677E-17, 1.00000000000000, 0.000000000000000 ) );
#258 = SURFACE_STYLE_FILL_AREA( #311 );
#259 = ORIENTED_EDGE( '', *, *, #305, .T. );
#260 = ORIENTED_EDGE( '', *, *, #292, .F. );
#261 = ORIENTED_EDGE( '', *, *, #309, .F. );
#262 = ORIENTED_EDGE( '', *, *, #300, .F. );
#263 = ORIENTED_EDGE( '', *, *, #307, .F. );
#264 = ORIENTED_EDGE( '', *, *, #294, .F. );
#265 = CARTESIAN_POINT( '', ( 3.00000000000000, -0.899999999999995, -10.5000000000000 ) );
#266 = DIRECTION( '', ( 0.000000000000000, -1.00000000000000, 0.000000000000000 ) );
#267 = DIRECTION( '', ( 0.000000000000000, 0.000000000000000, -1.00000000000000 ) );
#268 = SURFACE_STYLE_FILL_AREA( #312 );
#269 = ORIENTED_EDGE( '', *, *, #277, .T. );
#270 = ORIENTED_EDGE( '', *, *, #280, .T. );
#271 = ORIENTED_EDGE( '', *, *, #308, .F. );
#272 = ORIENTED_EDGE( '', *, *, #281, .T. );
#273 = CARTESIAN_POINT( '', ( 0.000000000000000, 5.45029723684231E-15, 0.000000000000000 ) );
#274 = DIRECTION( '', ( 1.00000000000000, -6.12323399573677E-17, -0.000000000000000 ) );
#275 = DIRECTION( '', ( 6.12323399573677E-17, 1.00000000000000, 0.000000000000000 ) );
#276 = FILL_AREA_STYLE( '', ( #313 ) );
#277 = EDGE_CURVE( '', #314, #315, #316, .T. );
#278 = EDGE_CURVE( '', #315, #314, #317, .T. );
#279 = FILL_AREA_STYLE( '', ( #318 ) );
#280 = EDGE_CURVE( '', #315, #319, #320, .T. );
#281 = EDGE_CURVE( '', #321, #314, #322, .T. );
#282 = EDGE_CURVE( '', #323, #321, #324, .F. );
#283 = EDGE_CURVE( '', #325, #323, #326, .T. );
#284 = EDGE_CURVE( '', #319, #325, #327, .T. );
#285 = FILL_AREA_STYLE( '', ( #328 ) );
#286 = EDGE_CURVE( '', #329, #329, #330, .T. );
#287 = EDGE_CURVE( '', #331, #331, #332, .T. );
#288 = FILL_AREA_STYLE( '', ( #333 ) );
#289 = EDGE_CURVE( '', #334, #334, #335, .T. );
#290 = FILL_AREA_STYLE( '', ( #336 ) );
#291 = EDGE_CURVE( '', #337, #338, #339, .T. );
#292 = EDGE_CURVE( '', #337, #340, #341, .T. );
#293 = EDGE_CURVE( '', #340, #342, #343, .T. );
#294 = EDGE_CURVE( '', #342, #338, #344, .T. );
#295 = FILL_AREA_STYLE( '', ( #345 ) );
#296 = CARTESIAN_POINT( '', ( 60.0000000000000, 1.30560987914585E-14, 0.000000000000000 ) );
#297 = EDGE_CURVE( '', #346, #346, #347, .T. );
#298 = FILL_AREA_STYLE( '', ( #348 ) );
#299 = EDGE_CURVE( '', #323, #349, #350, .T. );
#300 = EDGE_CURVE( '', #349, #351, #352, .T. );
#301 = EDGE_CURVE( '', #351, #325, #353, .T. );
#302 = FILL_AREA_STYLE( '', ( #354 ) );
#303 = EDGE_CURVE( '', #355, #355, #356, .T. );
#304 = FILL_AREA_STYLE( '', ( #357 ) );
#305 = EDGE_CURVE( '', #342, #340, #358, .T. );
#306 = FILL_AREA_STYLE( '', ( #359 ) );
#307 = EDGE_CURVE( '', #338, #349, #360, .T. );
#308 = EDGE_CURVE( '', #321, #319, #361, .T. );
#309 = EDGE_CURVE( '', #351, #337, #362, .F. );
#310 = FILL_AREA_STYLE( '', ( #363 ) );
#311 = FILL_AREA_STYLE( '', ( #364 ) );
#312 = FILL_AREA_STYLE( '', ( #365 ) );
#313 = FILL_AREA_STYLE_COLOUR( '', #366 );
#314 = VERTEX_POINT( '', #367 );
#315 = VERTEX_POINT( '', #368 );
#316 = CIRCLE( '', #369, 4.92650000000000 );
#317 = LINE( '', #370, #371 );
#318 = FILL_AREA_STYLE_COLOUR( '', #372 );
#319 = VERTEX_POINT( '', #373 );
#320 = B_SPLINE_CURVE_WITH_KNOTS( '', 3, ( #374, #375, #376, #377 ), .UNSPECIFIED., .F., .F., ( 4, 4 ), ( 0.0245656796122453, 0.0261075036220750 ), .UNSPECIFIED. );
#321 = VERTEX_POINT( '', #378 );
#322 = B_SPLINE_CURVE_WITH_KNOTS( '', 3, ( #379, #380, #381, #382 ), .UNSPECIFIED., .F., .F., ( 4, 4 ), ( 0.0102495533465439, 0.0117783706769767 ), .UNSPECIFIED. );
#323 = VERTEX_POINT( '', #383 );
#324 = LINE( '', #384, #385 );
#325 = VERTEX_POINT( '', #386 );
#326 = LINE( '', #387, #388 );
#327 = LINE( '', #389, #390 );
#328 = FILL_AREA_STYLE_COLOUR( '', #391 );
#329 = VERTEX_POINT( '', #392 );
#330 = CIRCLE( '', #393, 3.60000000000000 );
#331 = VERTEX_POINT( '', #394 );
#332 = CIRCLE( '', #395, 3.60000000000000 );
#333 = FILL_AREA_STYLE_COLOUR( '', #396 );
#334 = VERTEX_POINT( '', #397 );
#335 = CIRCLE( '', #398, 6.00000000000000 );
#336 = FILL_AREA_STYLE_COLOUR( '', #399 );
#337 = VERTEX_POINT( '', #400 );
#338 = VERTEX_POINT( '', #401 );
#339 = CIRCLE( '', #402, 6.00000000000000 );
#340 = VERTEX_POINT( '', #403 );
#341 = B_SPLINE_CURVE_WITH_KNOTS( '', 3, ( #404, #405, #406, #407 ), .UNSPECIFIED., .F., .F., ( 4, 4 ), ( 0.0102495533465439, 0.0117783706769767 ), .UNSPECIFIED. );
#342 = VERTEX_POINT( '', #408 );
#343 = CIRCLE( '', #409, 4.92650000000000 );
#344 = B_SPLINE_CURVE_WITH_KNOTS( '', 3, ( #410, #411, #412, #413 ), .UNSPECIFIED., .F., .F., ( 4, 4 ), ( 0.0245656796122453, 0.0261075036220750 ), .UNSPECIFIED. );
#345 = FILL_AREA_STYLE_COLOUR( '', #414 );
#346 = VERTEX_POINT( '', #415 );
#347 = CIRCLE( '', #416, 4.00000000000000 );
#348 = FILL_AREA_STYLE_COLOUR( '', #417 );
#349 = VERTEX_POINT( '', #418 );
#350 = CIRCLE( '', #419, 6.00000000000000 );
#351 = VERTEX_POINT( '', #420 );
#352 = LINE( '', #421, #422 );
#353 = CIRCLE( '', #423, 6.00000000000000 );
#354 = FILL_AREA_STYLE_COLOUR( '', #424 );
#355 = VERTEX_POINT( '', #425 );
#356 = CIRCLE( '', #426, 4.00000000000000 );
#357 = FILL_AREA_STYLE_COLOUR( '', #427 );
#358 = LINE( '', #428, #429 );
#359 = FILL_AREA_STYLE_COLOUR( '', #430 );
#360 = LINE( '', #431, #432 );
#361 = CIRCLE( '', #433, 6.00000000000000 );
#362 = LINE( '', #434, #435 );
#363 = FILL_AREA_STYLE_COLOUR( '', #436 );
#364 = FILL_AREA_STYLE_COLOUR( '', #437 );
#365 = FILL_AREA_STYLE_COLOUR( '', #438 );
#366 = COLOUR_RGB( '', 0.689999997600000, 0.689999997600000, 0.689999997600000 );
#367 = CARTESIAN_POINT( '', ( 0.000000000000000, 0.900000000000005, -4.84359393942143 ) );
#368 = CARTESIAN_POINT( '', ( 0.000000000000000, 0.900000000000005, 4.84359393942143 ) );
#369 = AXIS2_PLACEMENT_3D( '', #439, #440, #441 );
#370 = CARTESIAN_POINT( '', ( 0.000000000000000, 0.900000000000005, 10.5000000000000 ) );
#371 = VECTOR( '', #442, 1000.00000000000 );
#372 = COLOUR_RGB( '', 0.689999997600000, 0.689999997600000, 0.689999997600000 );
#373 = CARTESIAN_POINT( '', ( 1.07350000000001, 0.900000000000009, 5.93211597998556 ) );
#374 = CARTESIAN_POINT( '', ( -5.06370476846247E-16, 0.900000000000005, 4.84359393942143 ) );
#375 = CARTESIAN_POINT( '', ( 0.357276898579809, 0.900000000000005, 5.20698621855697 ) );
#376 = CARTESIAN_POINT( '', ( 0.715211048721679, 0.900000000000005, 5.56972695810484 ) );
#377 = CARTESIAN_POINT( '', ( 1.07350000000000, 0.900000000000005, 5.93211597998556 ) );
#378 = CARTESIAN_POINT( '', ( 1.07350000000001, 0.900000000000009, -5.93211597998556 ) );
#379 = CARTESIAN_POINT( '', ( 1.07350000000000, 0.900000000000005, -5.93211597998556 ) );
#380 = CARTESIAN_POINT( '', ( 0.715209951210056, 0.900000000000005, -5.56972584803387 ) );
#381 = CARTESIAN_POINT( '', ( 0.357275562011624, 0.900000000000005, -5.20698485911122 ) );
#382 = CARTESIAN_POINT( '', ( -1.14293206055662E-16, 0.900000000000005, -4.84359393942143 ) );
#383 = CARTESIAN_POINT( '', ( 3.00000000000000, 0.900000000000005, -5.93211597998556 ) );
#384 = CARTESIAN_POINT( '', ( 60.0000000000000, 0.900000000000005, -5.93211597998556 ) );
#385 = VECTOR( '', #443, 1000.00000000000 );
#386 = CARTESIAN_POINT( '', ( 3.00000000000000, 0.900000000000005, 5.93211597998556 ) );
#387 = CARTESIAN_POINT( '', ( 3.00000000000000, 0.900000000000005, 10.5000000000000 ) );
#388 = VECTOR( '', #444, 1000.00000000000 );
#389 = CARTESIAN_POINT( '', ( 60.0000000000000, 0.900000000000005, 5.93211597998556 ) );
#390 = VECTOR( '', #445, 1000.00000000000 );
#391 = COLOUR_RGB( '', 0.689999997600000, 0.689999997600000, 0.689999997600000 );
#392 = CARTESIAN_POINT( '', ( 55.5000000000000, 3.60000000000000, 0.000000000000000 ) );
#393 = AXIS2_PLACEMENT_3D( '', #446, #447, #448 );
#394 = CARTESIAN_POINT( '', ( 50.9623000000000, 3.60000000000000, 0.000000000000000 ) );
#395 = AXIS2_PLACEMENT_3D( '', #449, #450, #451 );
#396 = COLOUR_RGB( '', 0.689999997600000, 0.689999997600000, 0.689999997600000 );
#397 = CARTESIAN_POINT( '', ( 50.0000000000000, 6.00000000000000, 0.000000000000000 ) );
#398 = AXIS2_PLACEMENT_3D( '', #452, #453, #454 );
#399 = COLOUR_RGB( '', 0.689999997600000, 0.689999997600000, 0.689999997600000 );
#400 = CARTESIAN_POINT( '', ( 1.07350000000001, -0.899999999999991, 5.93211597998556 ) );
#401 = CARTESIAN_POINT( '', ( 1.07350000000001, -0.899999999999991, -5.93211597998556 ) );
#402 = AXIS2_PLACEMENT_3D( '', #455, #456, #457 );
#403 = CARTESIAN_POINT( '', ( 0.000000000000000, -0.899999999999994, 4.84359393942143 ) );
#404 = CARTESIAN_POINT( '', ( 1.07350000000000, -0.899999999999995, 5.93211597998556 ) );
#405 = CARTESIAN_POINT( '', ( 0.715209951210058, -0.899999999999995, 5.56972584803388 ) );
#406 = CARTESIAN_POINT( '', ( 0.357275562011625, -0.899999999999995, 5.20698485911123 ) );
#407 = CARTESIAN_POINT( '', ( 6.98226359409550E-16, -0.899999999999995, 4.84359393942143 ) );
#408 = CARTESIAN_POINT( '', ( 0.000000000000000, -0.899999999999994, -4.84359393942143 ) );
#409 = AXIS2_PLACEMENT_3D( '', #458, #459, #460 );
#410 = CARTESIAN_POINT( '', ( -1.21594927074896E-15, -0.899999999999995, -4.84359393942143 ) );
#411 = CARTESIAN_POINT( '', ( 0.357276898579809, -0.899999999999995, -5.20698621855697 ) );
#412 = CARTESIAN_POINT( '', ( 0.715211048721680, -0.899999999999995, -5.56972695810484 ) );
#413 = CARTESIAN_POINT( '', ( 1.07350000000000, -0.899999999999995, -5.93211597998556 ) );
#414 = COLOUR_RGB( '', 0.689999997600000, 0.689999997600000, 0.689999997600000 );
#415 = CARTESIAN_POINT( '', ( 58.6773037637589, 4.00000000000000, 0.000000000000000 ) );
#416 = AXIS2_PLACEMENT_3D( '', #461, #462, #463 );
#417 = COLOUR_RGB( '', 0.689999997600000, 0.689999997600000, 0.689999997600000 );
#418 = CARTESIAN_POINT( '', ( 3.00000000000000, -0.899999999999994, -5.93211597998556 ) );
#419 = AXIS2_PLACEMENT_3D( '', #464, #465, #466 );
#420 = CARTESIAN_POINT( '', ( 3.00000000000000, -0.899999999999994, 5.93211597998556 ) );
#421 = CARTESIAN_POINT( '', ( 3.00000000000000, -0.899999999999995, -10.5000000000000 ) );
#422 = VECTOR( '', #467, 1000.00000000000 );
#423 = AXIS2_PLACEMENT_3D( '', #468, #469, #470 );
#424 = COLOUR_RGB( '', 0.689999997600000, 0.689999997600000, 0.689999997600000 );
#425 = CARTESIAN_POINT( '', ( 55.5000000000000, 4.00000000000000, 0.000000000000000 ) );
#426 = AXIS2_PLACEMENT_3D( '', #471, #472, #473 );
#427 = COLOUR_RGB( '', 0.689999997600000, 0.689999997600000, 0.689999997600000 );
#428 = CARTESIAN_POINT( '', ( 0.000000000000000, -0.899999999999995, -10.5000000000000 ) );
#429 = VECTOR( '', #474, 1000.00000000000 );
#430 = COLOUR_RGB( '', 0.689999997600000, 0.689999997600000, 0.689999997600000 );
#431 = CARTESIAN_POINT( '', ( 60.0000000000000, -0.899999999999995, -5.93211597998556 ) );
#432 = VECTOR( '', #475, 1000.00000000000 );
#433 = AXIS2_PLACEMENT_3D( '', #476, #477, #478 );
#434 = CARTESIAN_POINT( '', ( 60.0000000000000, -0.899999999999995, 5.93211597998556 ) );
#435 = VECTOR( '', #479, 1000.00000000000 );
#436 = COLOUR_RGB( '', 0.689999997600000, 0.689999997600000, 0.689999997600000 );
#437 = COLOUR_RGB( '', 0.689999997600000, 0.689999997600000, 0.689999997600000 );
#438 = COLOUR_RGB( '', 0.689999997600000, 0.689999997600000, 0.689999997600000 );
#439 = CARTESIAN_POINT( '', ( 0.000000000000000, 5.45029723684231E-15, 0.000000000000000 ) );
#440 = DIRECTION( '', ( 1.00000000000000, -6.12323399573677E-17, -0.000000000000000 ) );
#441 = DIRECTION( '', ( 6.12323399573677E-17, 1.00000000000000, 0.000000000000000 ) );
#442 = DIRECTION( '', ( 0.000000000000000, 0.000000000000000, -1.00000000000000 ) );
#443 = DIRECTION( '', ( 1.00000000000000, -6.12323399573677E-17, -0.000000000000000 ) );
#444 = DIRECTION( '', ( 0.000000000000000, 0.000000000000000, -1.00000000000000 ) );
#445 = DIRECTION( '', ( 1.00000000000000, -6.12323399573677E-17, -0.000000000000000 ) );
#446 = CARTESIAN_POINT( '', ( 55.5000000000000, 2.05190236920840E-15, 0.000000000000000 ) );
#447 = DIRECTION( '', ( 1.00000000000000, -6.12323399573677E-17, -0.000000000000000 ) );
#448 = DIRECTION( '', ( 6.12323399573677E-17, 1.00000000000000, 0.000000000000000 ) );
#449 = CARTESIAN_POINT( '', ( 50.9623000000000, 2.32975635823295E-15, 0.000000000000000 ) );
#450 = DIRECTION( '', ( 1.00000000000000, -6.12323399573677E-17, -0.000000000000000 ) );
#451 = DIRECTION( '', ( 6.12323399573677E-17, 1.00000000000000, 0.000000000000000 ) );
#452 = CARTESIAN_POINT( '', ( 50.0000000000000, 2.38868023897393E-15, 0.000000000000000 ) );
#453 = DIRECTION( '', ( 1.00000000000000, -6.12323399573677E-17, -0.000000000000000 ) );
#454 = DIRECTION( '', ( 6.12323399573677E-17, 1.00000000000000, 0.000000000000000 ) );
#455 = CARTESIAN_POINT( '', ( 1.07350000000000, 5.38456431989808E-15, 0.000000000000000 ) );
#456 = DIRECTION( '', ( 1.00000000000000, -6.12323399573677E-17, -0.000000000000000 ) );
#457 = DIRECTION( '', ( 6.12323399573677E-17, 1.00000000000000, 0.000000000000000 ) );
#458 = CARTESIAN_POINT( '', ( 0.000000000000000, 5.45029723684231E-15, 0.000000000000000 ) );
#459 = DIRECTION( '', ( 1.00000000000000, -6.12323399573677E-17, -0.000000000000000 ) );
#460 = DIRECTION( '', ( 6.12323399573677E-17, 1.00000000000000, 0.000000000000000 ) );
#461 = CARTESIAN_POINT( '', ( 58.6773037637589, 1.85734862499809E-15, 0.000000000000000 ) );
#462 = DIRECTION( '', ( 1.00000000000000, -6.12323399573677E-17, -0.000000000000000 ) );
#463 = DIRECTION( '', ( 6.12323399573677E-17, 1.00000000000000, 0.000000000000000 ) );
#464 = CARTESIAN_POINT( '', ( 3.00000000000000, 5.26660021697021E-15, 0.000000000000000 ) );
#465 = DIRECTION( '', ( -1.00000000000000, 0.000000000000000, 0.000000000000000 ) );
#466 = DIRECTION( '', ( 0.000000000000000, 0.000000000000000, 1.00000000000000 ) );
#467 = DIRECTION( '', ( 0.000000000000000, 0.000000000000000, 1.00000000000000 ) );
#468 = CARTESIAN_POINT( '', ( 3.00000000000000, 5.26660021697021E-15, 0.000000000000000 ) );
#469 = DIRECTION( '', ( -1.00000000000000, 0.000000000000000, 0.000000000000000 ) );
#470 = DIRECTION( '', ( 0.000000000000000, 0.000000000000000, 1.00000000000000 ) );
#471 = CARTESIAN_POINT( '', ( 55.5000000000000, 2.05190236920840E-15, 0.000000000000000 ) );
#472 = DIRECTION( '', ( 1.00000000000000, -6.12323399573677E-17, -0.000000000000000 ) );
#473 = DIRECTION( '', ( 6.12323399573677E-17, 1.00000000000000, 0.000000000000000 ) );
#474 = DIRECTION( '', ( 0.000000000000000, 0.000000000000000, 1.00000000000000 ) );
#475 = DIRECTION( '', ( 1.00000000000000, -6.12323399573677E-17, -0.000000000000000 ) );
#476 = CARTESIAN_POINT( '', ( 1.07350000000000, 5.38456431989808E-15, 0.000000000000000 ) );
#477 = DIRECTION( '', ( 1.00000000000000, -6.12323399573677E-17, -0.000000000000000 ) );
#478 = DIRECTION( '', ( 6.12323399573677E-17, 1.00000000000000, 0.000000000000000 ) );
#479 = DIRECTION( '', ( 1.00000000000000, -6.12323399573677E-17, -0.000000000000000 ) );
ENDSEC;
END-ISO-10303-21;
