ISO-10303-21;
HEADER;
FILE_DESCRIPTION( ( 'STEP AP214' ), '1' );
FILE_NAME( '//goodhand-server/Shared Folders/GoodHand Data/Kipp CAD/K1154/K1154.2181130.stp', '2020-12-10T10:27:00', ( '' ), ( '' ), ' ', 'PARTsolutions', ' ' );
FILE_SCHEMA( ( 'AUTOMOTIVE_DESIGN { 1 0 10303 214 1 1 1 1 }' ) );
ENDSEC;
DATA;
#1 = MECHANICAL_DESIGN_GEOMETRIC_PRESENTATION_REPRESENTATION( ' ', ( #10, #11, #12, #13, #14, #15, #16, #17, #18, #19, #20, #21, #22, #23 ), #6 );
#2 = PRODUCT_DEFINITION_CONTEXT( '', #24, 'design' );
#3 = APPLICATION_PROTOCOL_DEFINITION( 'international standard', 'automotive_design', 2001, #24 );
#4 = PRODUCT_CATEGORY_RELATIONSHIP( 'NONE', 'NONE', #25, #26 );
#5 = SHAPE_DEFINITION_REPRESENTATION( #27, #28 );
#6 =  ( GEOMETRIC_REPRESENTATION_CONTEXT( 3 )GLOBAL_UNCERTAINTY_ASSIGNED_CONTEXT( ( #31 ) )GLOBAL_UNIT_ASSIGNED_CONTEXT( ( #33, #34, #35 ) )REPRESENTATION_CONTEXT( 'NONE', 'WORKSPACE' ) );
#10 = STYLED_ITEM( '', ( #37 ), #38 );
#11 = STYLED_ITEM( '', ( #39 ), #40 );
#12 = STYLED_ITEM( '', ( #41 ), #42 );
#13 = STYLED_ITEM( '', ( #43 ), #44 );
#14 = STYLED_ITEM( '', ( #45 ), #46 );
#15 = STYLED_ITEM( '', ( #47 ), #48 );
#16 = STYLED_ITEM( '', ( #49 ), #50 );
#17 = STYLED_ITEM( '', ( #51 ), #52 );
#18 = STYLED_ITEM( '', ( #53 ), #54 );
#19 = STYLED_ITEM( '', ( #55 ), #56 );
#20 = STYLED_ITEM( '', ( #57 ), #58 );
#21 = STYLED_ITEM( '', ( #59 ), #60 );
#22 = STYLED_ITEM( '', ( #61 ), #62 );
#23 = STYLED_ITEM( '', ( #63 ), #64 );
#24 = APPLICATION_CONTEXT( 'core data for automotive mechanical design processes' );
#25 = PRODUCT_CATEGORY( 'part', 'NONE' );
#26 = PRODUCT_RELATED_PRODUCT_CATEGORY( 'detail', ' ', ( #65 ) );
#27 = PRODUCT_DEFINITION_SHAPE( 'NONE', 'NONE', #66 );
#28 = ADVANCED_BREP_SHAPE_REPRESENTATION( '_K1154.2181130', ( #67, #68 ), #6 );
#31 = UNCERTAINTY_MEASURE_WITH_UNIT( LENGTH_MEASURE( 0.00100000000000000 ), #33, '', '' );
#33 =  ( CONVERSION_BASED_UNIT( 'MILLIMETRE', #71 )LENGTH_UNIT(  )NAMED_UNIT( #74 ) );
#34 =  ( NAMED_UNIT( #76 )PLANE_ANGLE_UNIT(  )SI_UNIT( $, .RADIAN. ) );
#35 =  ( NAMED_UNIT( #76 )SI_UNIT( $, .STERADIAN. )SOLID_ANGLE_UNIT(  ) );
#37 = PRESENTATION_STYLE_ASSIGNMENT( ( #82 ) );
#38 = ADVANCED_FACE( '', ( #83, #84 ), #85, .T. );
#39 = PRESENTATION_STYLE_ASSIGNMENT( ( #86 ) );
#40 = ADVANCED_FACE( '', ( #87, #88, #89, #90, #91 ), #92, .F. );
#41 = PRESENTATION_STYLE_ASSIGNMENT( ( #93 ) );
#42 = ADVANCED_FACE( '', ( #94 ), #95, .T. );
#43 = PRESENTATION_STYLE_ASSIGNMENT( ( #96 ) );
#44 = ADVANCED_FACE( '', ( #97, #98 ), #99, .F. );
#45 = PRESENTATION_STYLE_ASSIGNMENT( ( #100 ) );
#46 = ADVANCED_FACE( '', ( #101, #102 ), #103, .F. );
#47 = PRESENTATION_STYLE_ASSIGNMENT( ( #104 ) );
#48 = ADVANCED_FACE( '', ( #105, #106, #107, #108, #109 ), #110, .F. );
#49 = PRESENTATION_STYLE_ASSIGNMENT( ( #111 ) );
#50 = ADVANCED_FACE( '', ( #112, #113 ), #114, .T. );
#51 = PRESENTATION_STYLE_ASSIGNMENT( ( #115 ) );
#52 = ADVANCED_FACE( '', ( #116, #117 ), #118, .F. );
#53 = PRESENTATION_STYLE_ASSIGNMENT( ( #119 ) );
#54 = ADVANCED_FACE( '', ( #120, #121 ), #122, .T. );
#55 = PRESENTATION_STYLE_ASSIGNMENT( ( #123 ) );
#56 = ADVANCED_FACE( '', ( #124, #125 ), #126, .F. );
#57 = PRESENTATION_STYLE_ASSIGNMENT( ( #127 ) );
#58 = ADVANCED_FACE( '', ( #128, #129 ), #130, .F. );
#59 = PRESENTATION_STYLE_ASSIGNMENT( ( #131 ) );
#60 = ADVANCED_FACE( '', ( #132 ), #133, .F. );
#61 = PRESENTATION_STYLE_ASSIGNMENT( ( #134 ) );
#62 = ADVANCED_FACE( '', ( #135, #136 ), #137, .T. );
#63 = PRESENTATION_STYLE_ASSIGNMENT( ( #138 ) );
#64 = ADVANCED_FACE( '', ( #139, #140 ), #141, .F. );
#65 = PRODUCT( '_K1154.2181130', '_K1154.2181130', 'PART-_K1154.2181130-DESC', ( #142 ) );
#66 = PRODUCT_DEFINITION( 'NONE', 'NONE', #143, #2 );
#67 = MANIFOLD_SOLID_BREP( '_K1154.2181130', #144 );
#68 = AXIS2_PLACEMENT_3D( '', #145, #146, #147 );
#71 = LENGTH_MEASURE_WITH_UNIT( LENGTH_MEASURE( 1.00000000000000 ), #148 );
#74 = DIMENSIONAL_EXPONENTS( 1.00000000000000, 0.000000000000000, 0.000000000000000, 0.000000000000000, 0.000000000000000, 0.000000000000000, 0.000000000000000 );
#76 = DIMENSIONAL_EXPONENTS( 0.000000000000000, 0.000000000000000, 0.000000000000000, 0.000000000000000, 0.000000000000000, 0.000000000000000, 0.000000000000000 );
#82 = SURFACE_STYLE_USAGE( .BOTH., #149 );
#83 = FACE_OUTER_BOUND( '', #150, .T. );
#84 = FACE_OUTER_BOUND( '', #151, .T. );
#85 = CYLINDRICAL_SURFACE( '', #152, 15.0000000000000 );
#86 = SURFACE_STYLE_USAGE( .BOTH., #153 );
#87 = FACE_BOUND( '', #154, .T. );
#88 = FACE_OUTER_BOUND( '', #155, .T. );
#89 = FACE_BOUND( '', #156, .T. );
#90 = FACE_BOUND( '', #157, .T. );
#91 = FACE_BOUND( '', #158, .T. );
#92 = PLANE( '', #159 );
#93 = SURFACE_STYLE_USAGE( .BOTH., #160 );
#94 = FACE_OUTER_BOUND( '', #161, .T. );
#95 = PLANE( '', #162 );
#96 = SURFACE_STYLE_USAGE( .BOTH., #163 );
#97 = FACE_OUTER_BOUND( '', #164, .T. );
#98 = FACE_OUTER_BOUND( '', #165, .T. );
#99 = CYLINDRICAL_SURFACE( '', #166, 1.00000000000000 );
#100 = SURFACE_STYLE_USAGE( .BOTH., #167 );
#101 = FACE_OUTER_BOUND( '', #168, .T. );
#102 = FACE_BOUND( '', #169, .T. );
#103 = CONICAL_SURFACE( '', #170, 6.00000000000000, 1.09106768910000 );
#104 = SURFACE_STYLE_USAGE( .BOTH., #171 );
#105 = FACE_OUTER_BOUND( '', #172, .T. );
#106 = FACE_BOUND( '', #173, .T. );
#107 = FACE_BOUND( '', #174, .T. );
#108 = FACE_BOUND( '', #175, .T. );
#109 = FACE_BOUND( '', #176, .T. );
#110 = PLANE( '', #177 );
#111 = SURFACE_STYLE_USAGE( .BOTH., #178 );
#112 = FACE_OUTER_BOUND( '', #179, .T. );
#113 = FACE_OUTER_BOUND( '', #180, .T. );
#114 = TOROIDAL_SURFACE( '', #181, 6.65000000000000, 0.300000000000000 );
#115 = SURFACE_STYLE_USAGE( .BOTH., #182 );
#116 = FACE_OUTER_BOUND( '', #183, .T. );
#117 = FACE_BOUND( '', #184, .T. );
#118 = CONICAL_SURFACE( '', #185, 7.30000000000000, 1.35212738090000 );
#119 = SURFACE_STYLE_USAGE( .BOTH., #186 );
#120 = FACE_OUTER_BOUND( '', #187, .T. );
#121 = FACE_OUTER_BOUND( '', #188, .T. );
#122 = CYLINDRICAL_SURFACE( '', #189, 9.00000000000000 );
#123 = SURFACE_STYLE_USAGE( .BOTH., #190 );
#124 = FACE_OUTER_BOUND( '', #191, .T. );
#125 = FACE_OUTER_BOUND( '', #192, .T. );
#126 = CYLINDRICAL_SURFACE( '', #193, 1.00000000000000 );
#127 = SURFACE_STYLE_USAGE( .BOTH., #194 );
#128 = FACE_OUTER_BOUND( '', #195, .T. );
#129 = FACE_OUTER_BOUND( '', #196, .T. );
#130 = CYLINDRICAL_SURFACE( '', #197, 1.00000000000000 );
#131 = SURFACE_STYLE_USAGE( .BOTH., #198 );
#132 = FACE_OUTER_BOUND( '', #199, .T. );
#133 = PLANE( '', #200 );
#134 = SURFACE_STYLE_USAGE( .BOTH., #201 );
#135 = FACE_OUTER_BOUND( '', #202, .T. );
#136 = FACE_BOUND( '', #203, .T. );
#137 = CONICAL_SURFACE( '', #204, 6.78846153850000, 1.09106768910000 );
#138 = SURFACE_STYLE_USAGE( .BOTH., #205 );
#139 = FACE_OUTER_BOUND( '', #206, .T. );
#140 = FACE_OUTER_BOUND( '', #207, .T. );
#141 = CYLINDRICAL_SURFACE( '', #208, 6.00000000000000 );
#142 = PRODUCT_CONTEXT( '', #24, 'mechanical' );
#143 = PRODUCT_DEFINITION_FORMATION_WITH_SPECIFIED_SOURCE( ' ', 'NONE', #65, .NOT_KNOWN. );
#144 = CLOSED_SHELL( '', ( #40, #58, #56, #60, #54, #48, #38, #44, #50, #42, #64, #46, #62, #52 ) );
#145 = CARTESIAN_POINT( '', ( 0.000000000000000, 0.000000000000000, 0.000000000000000 ) );
#146 = DIRECTION( '', ( 0.000000000000000, 0.000000000000000, 1.00000000000000 ) );
#147 = DIRECTION( '', ( 1.00000000000000, 0.000000000000000, 0.000000000000000 ) );
#148 =  ( LENGTH_UNIT(  )NAMED_UNIT( #74 )SI_UNIT( .MILLI., .METRE. ) );
#149 = SURFACE_SIDE_STYLE( '', ( #210 ) );
#150 = EDGE_LOOP( '', ( #211 ) );
#151 = EDGE_LOOP( '', ( #212 ) );
#152 = AXIS2_PLACEMENT_3D( '', #213, #214, #215 );
#153 = SURFACE_SIDE_STYLE( '', ( #216 ) );
#154 = EDGE_LOOP( '', ( #217 ) );
#155 = EDGE_LOOP( '', ( #218 ) );
#156 = EDGE_LOOP( '', ( #219 ) );
#157 = EDGE_LOOP( '', ( #220 ) );
#158 = EDGE_LOOP( '', ( #221 ) );
#159 = AXIS2_PLACEMENT_3D( '', #222, #223, #224 );
#160 = SURFACE_SIDE_STYLE( '', ( #225 ) );
#161 = EDGE_LOOP( '', ( #226 ) );
#162 = AXIS2_PLACEMENT_3D( '', #227, #228, #229 );
#163 = SURFACE_SIDE_STYLE( '', ( #230 ) );
#164 = EDGE_LOOP( '', ( #231 ) );
#165 = EDGE_LOOP( '', ( #232 ) );
#166 = AXIS2_PLACEMENT_3D( '', #233, #234, #235 );
#167 = SURFACE_SIDE_STYLE( '', ( #236 ) );
#168 = EDGE_LOOP( '', ( #237 ) );
#169 = EDGE_LOOP( '', ( #238 ) );
#170 = AXIS2_PLACEMENT_3D( '', #239, #240, #241 );
#171 = SURFACE_SIDE_STYLE( '', ( #242 ) );
#172 = EDGE_LOOP( '', ( #243 ) );
#173 = EDGE_LOOP( '', ( #244 ) );
#174 = EDGE_LOOP( '', ( #245 ) );
#175 = EDGE_LOOP( '', ( #246 ) );
#176 = EDGE_LOOP( '', ( #247 ) );
#177 = AXIS2_PLACEMENT_3D( '', #248, #249, #250 );
#178 = SURFACE_SIDE_STYLE( '', ( #251 ) );
#179 = EDGE_LOOP( '', ( #252 ) );
#180 = EDGE_LOOP( '', ( #253 ) );
#181 = AXIS2_PLACEMENT_3D( '', #254, #255, #256 );
#182 = SURFACE_SIDE_STYLE( '', ( #257 ) );
#183 = EDGE_LOOP( '', ( #258 ) );
#184 = EDGE_LOOP( '', ( #259 ) );
#185 = AXIS2_PLACEMENT_3D( '', #260, #261, #262 );
#186 = SURFACE_SIDE_STYLE( '', ( #263 ) );
#187 = EDGE_LOOP( '', ( #264 ) );
#188 = EDGE_LOOP( '', ( #265 ) );
#189 = AXIS2_PLACEMENT_3D( '', #266, #267, #268 );
#190 = SURFACE_SIDE_STYLE( '', ( #269 ) );
#191 = EDGE_LOOP( '', ( #270 ) );
#192 = EDGE_LOOP( '', ( #271 ) );
#193 = AXIS2_PLACEMENT_3D( '', #272, #273, #274 );
#194 = SURFACE_SIDE_STYLE( '', ( #275 ) );
#195 = EDGE_LOOP( '', ( #276 ) );
#196 = EDGE_LOOP( '', ( #277 ) );
#197 = AXIS2_PLACEMENT_3D( '', #278, #279, #280 );
#198 = SURFACE_SIDE_STYLE( '', ( #281 ) );
#199 = EDGE_LOOP( '', ( #282 ) );
#200 = AXIS2_PLACEMENT_3D( '', #283, #284, #285 );
#201 = SURFACE_SIDE_STYLE( '', ( #286 ) );
#202 = EDGE_LOOP( '', ( #287 ) );
#203 = EDGE_LOOP( '', ( #288 ) );
#204 = AXIS2_PLACEMENT_3D( '', #289, #290, #291 );
#205 = SURFACE_SIDE_STYLE( '', ( #292 ) );
#206 = EDGE_LOOP( '', ( #293 ) );
#207 = EDGE_LOOP( '', ( #294 ) );
#208 = AXIS2_PLACEMENT_3D( '', #295, #296, #297 );
#210 = SURFACE_STYLE_FILL_AREA( #298 );
#211 = ORIENTED_EDGE( '', *, *, #299, .F. );
#212 = ORIENTED_EDGE( '', *, *, #300, .T. );
#213 = CARTESIAN_POINT( '', ( 0.000000000000000, 0.000000000000000, 0.000000000000000 ) );
#214 = DIRECTION( '', ( -0.000000000000000, 1.00000000000000, 0.000000000000000 ) );
#215 = DIRECTION( '', ( 0.000000000000000, 0.000000000000000, -1.00000000000000 ) );
#216 = SURFACE_STYLE_FILL_AREA( #301 );
#217 = ORIENTED_EDGE( '', *, *, #302, .F. );
#218 = ORIENTED_EDGE( '', *, *, #299, .T. );
#219 = ORIENTED_EDGE( '', *, *, #303, .T. );
#220 = ORIENTED_EDGE( '', *, *, #304, .T. );
#221 = ORIENTED_EDGE( '', *, *, #305, .T. );
#222 = CARTESIAN_POINT( '', ( 15.0000000000000, 0.000000000000000, 0.000000000000000 ) );
#223 = DIRECTION( '', ( 0.000000000000000, 1.00000000000000, 0.000000000000000 ) );
#224 = DIRECTION( '', ( 0.000000000000000, -0.000000000000000, 1.00000000000000 ) );
#225 = SURFACE_STYLE_FILL_AREA( #306 );
#226 = ORIENTED_EDGE( '', *, *, #307, .T. );
#227 = CARTESIAN_POINT( '', ( 0.000000000000000, 1.10000000000000, 0.000000000000000 ) );
#228 = DIRECTION( '', ( 0.000000000000000, -1.00000000000000, -0.000000000000000 ) );
#229 = DIRECTION( '', ( 0.000000000000000, 0.000000000000000, -1.00000000000000 ) );
#230 = SURFACE_STYLE_FILL_AREA( #308 );
#231 = ORIENTED_EDGE( '', *, *, #309, .T. );
#232 = ORIENTED_EDGE( '', *, *, #303, .F. );
#233 = CARTESIAN_POINT( '', ( 6.00000000000000, 3.00000000000000, -10.3923048454133 ) );
#234 = DIRECTION( '', ( -0.000000000000000, 1.00000000000000, -0.000000000000000 ) );
#235 = DIRECTION( '', ( 0.866025403784439, 0.000000000000000, 0.500000000000000 ) );
#236 = SURFACE_STYLE_FILL_AREA( #310 );
#237 = ORIENTED_EDGE( '', *, *, #311, .T. );
#238 = ORIENTED_EDGE( '', *, *, #312, .F. );
#239 = CARTESIAN_POINT( '', ( 0.000000000000000, 0.300000000000001, 0.000000000000000 ) );
#240 = DIRECTION( '', ( -0.000000000000000, -1.00000000000000, -0.000000000000000 ) );
#241 = DIRECTION( '', ( 0.000000000000000, 0.000000000000000, -1.00000000000000 ) );
#242 = SURFACE_STYLE_FILL_AREA( #313 );
#243 = ORIENTED_EDGE( '', *, *, #300, .F. );
#244 = ORIENTED_EDGE( '', *, *, #309, .F. );
#245 = ORIENTED_EDGE( '', *, *, #314, .F. );
#246 = ORIENTED_EDGE( '', *, *, #315, .F. );
#247 = ORIENTED_EDGE( '', *, *, #316, .T. );
#248 = CARTESIAN_POINT( '', ( 9.00000000000000, 3.00000000000000, 0.000000000000000 ) );
#249 = DIRECTION( '', ( 0.000000000000000, -1.00000000000000, -0.000000000000000 ) );
#250 = DIRECTION( '', ( 0.000000000000000, 0.000000000000000, -1.00000000000000 ) );
#251 = SURFACE_STYLE_FILL_AREA( #317 );
#252 = ORIENTED_EDGE( '', *, *, #318, .T. );
#253 = ORIENTED_EDGE( '', *, *, #311, .F. );
#254 = CARTESIAN_POINT( '', ( 0.000000000000000, 0.300000000000000, 0.000000000000000 ) );
#255 = DIRECTION( '', ( 0.000000000000000, -1.00000000000000, -0.000000000000000 ) );
#256 = DIRECTION( '', ( 0.000000000000000, 0.000000000000000, -1.00000000000000 ) );
#257 = SURFACE_STYLE_FILL_AREA( #319 );
#258 = ORIENTED_EDGE( '', *, *, #302, .T. );
#259 = ORIENTED_EDGE( '', *, *, #320, .F. );
#260 = CARTESIAN_POINT( '', ( 0.000000000000000, 0.300000000000004, 0.000000000000000 ) );
#261 = DIRECTION( '', ( -0.000000000000000, -1.00000000000000, -0.000000000000000 ) );
#262 = DIRECTION( '', ( 0.000000000000000, 0.000000000000000, -1.00000000000000 ) );
#263 = SURFACE_STYLE_FILL_AREA( #321 );
#264 = ORIENTED_EDGE( '', *, *, #316, .F. );
#265 = ORIENTED_EDGE( '', *, *, #322, .T. );
#266 = CARTESIAN_POINT( '', ( 0.000000000000000, 0.000000000000000, 0.000000000000000 ) );
#267 = DIRECTION( '', ( -0.000000000000000, 1.00000000000000, 0.000000000000000 ) );
#268 = DIRECTION( '', ( 0.000000000000000, 0.000000000000000, -1.00000000000000 ) );
#269 = SURFACE_STYLE_FILL_AREA( #323 );
#270 = ORIENTED_EDGE( '', *, *, #314, .T. );
#271 = ORIENTED_EDGE( '', *, *, #304, .F. );
#272 = CARTESIAN_POINT( '', ( 6.00000000000000, 3.00000000000000, 10.3923048454133 ) );
#273 = DIRECTION( '', ( -0.000000000000000, 1.00000000000000, -0.000000000000000 ) );
#274 = DIRECTION( '', ( -0.866025403784439, 0.000000000000000, 0.500000000000000 ) );
#275 = SURFACE_STYLE_FILL_AREA( #324 );
#276 = ORIENTED_EDGE( '', *, *, #315, .T. );
#277 = ORIENTED_EDGE( '', *, *, #305, .F. );
#278 = CARTESIAN_POINT( '', ( -12.0000000000000, 3.00000000000000, 0.000000000000000 ) );
#279 = DIRECTION( '', ( -0.000000000000000, 1.00000000000000, 0.000000000000000 ) );
#280 = DIRECTION( '', ( 0.000000000000000, 0.000000000000000, -1.00000000000000 ) );
#281 = SURFACE_STYLE_FILL_AREA( #325 );
#282 = ORIENTED_EDGE( '', *, *, #322, .F. );
#283 = CARTESIAN_POINT( '', ( 0.000000000000000, 11.0000000000000, 0.000000000000000 ) );
#284 = DIRECTION( '', ( 0.000000000000000, -1.00000000000000, -0.000000000000000 ) );
#285 = DIRECTION( '', ( 0.000000000000000, 0.000000000000000, -1.00000000000000 ) );
#286 = SURFACE_STYLE_FILL_AREA( #326 );
#287 = ORIENTED_EDGE( '', *, *, #320, .T. );
#288 = ORIENTED_EDGE( '', *, *, #318, .F. );
#289 = CARTESIAN_POINT( '', ( 0.000000000000000, 0.0338639401229824, 0.000000000000000 ) );
#290 = DIRECTION( '', ( -0.000000000000000, 1.00000000000000, 0.000000000000000 ) );
#291 = DIRECTION( '', ( 0.000000000000000, -0.000000000000000, 1.00000000000000 ) );
#292 = SURFACE_STYLE_FILL_AREA( #327 );
#293 = ORIENTED_EDGE( '', *, *, #312, .T. );
#294 = ORIENTED_EDGE( '', *, *, #307, .F. );
#295 = CARTESIAN_POINT( '', ( 0.000000000000000, -2.00000000000000, 0.000000000000000 ) );
#296 = DIRECTION( '', ( -0.000000000000000, 1.00000000000000, 0.000000000000000 ) );
#297 = DIRECTION( '', ( 0.000000000000000, 0.000000000000000, -1.00000000000000 ) );
#298 = FILL_AREA_STYLE( '', ( #328 ) );
#299 = EDGE_CURVE( '', #329, #329, #330, .T. );
#300 = EDGE_CURVE( '', #331, #331, #332, .T. );
#301 = FILL_AREA_STYLE( '', ( #333 ) );
#302 = EDGE_CURVE( '', #334, #334, #335, .T. );
#303 = EDGE_CURVE( '', #336, #336, #337, .T. );
#304 = EDGE_CURVE( '', #338, #338, #339, .T. );
#305 = EDGE_CURVE( '', #340, #340, #341, .T. );
#306 = FILL_AREA_STYLE( '', ( #342 ) );
#307 = EDGE_CURVE( '', #343, #343, #344, .T. );
#308 = FILL_AREA_STYLE( '', ( #345 ) );
#309 = EDGE_CURVE( '', #346, #346, #347, .T. );
#310 = FILL_AREA_STYLE( '', ( #348 ) );
#311 = EDGE_CURVE( '', #349, #349, #350, .T. );
#312 = EDGE_CURVE( '', #351, #351, #352, .T. );
#313 = FILL_AREA_STYLE( '', ( #353 ) );
#314 = EDGE_CURVE( '', #354, #354, #355, .T. );
#315 = EDGE_CURVE( '', #356, #356, #357, .T. );
#316 = EDGE_CURVE( '', #358, #358, #359, .T. );
#317 = FILL_AREA_STYLE( '', ( #360 ) );
#318 = EDGE_CURVE( '', #361, #361, #362, .T. );
#319 = FILL_AREA_STYLE( '', ( #363 ) );
#320 = EDGE_CURVE( '', #364, #364, #365, .T. );
#321 = FILL_AREA_STYLE( '', ( #366 ) );
#322 = EDGE_CURVE( '', #367, #367, #368, .T. );
#323 = FILL_AREA_STYLE( '', ( #369 ) );
#324 = FILL_AREA_STYLE( '', ( #370 ) );
#325 = FILL_AREA_STYLE( '', ( #371 ) );
#326 = FILL_AREA_STYLE( '', ( #372 ) );
#327 = FILL_AREA_STYLE( '', ( #373 ) );
#328 = FILL_AREA_STYLE_COLOUR( '', #374 );
#329 = VERTEX_POINT( '', #375 );
#330 = CIRCLE( '', #376, 15.0000000000000 );
#331 = VERTEX_POINT( '', #377 );
#332 = CIRCLE( '', #378, 15.0000000000000 );
#333 = FILL_AREA_STYLE_COLOUR( '', #379 );
#334 = VERTEX_POINT( '', #380 );
#335 = CIRCLE( '', #381, 8.65000000000000 );
#336 = VERTEX_POINT( '', #382 );
#337 = CIRCLE( '', #383, 1.00000000000000 );
#338 = VERTEX_POINT( '', #384 );
#339 = CIRCLE( '', #385, 1.00000000000000 );
#340 = VERTEX_POINT( '', #386 );
#341 = CIRCLE( '', #387, 1.00000000000000 );
#342 = FILL_AREA_STYLE_COLOUR( '', #388 );
#343 = VERTEX_POINT( '', #389 );
#344 = CIRCLE( '', #390, 6.00000000000000 );
#345 = FILL_AREA_STYLE_COLOUR( '', #391 );
#346 = VERTEX_POINT( '', #392 );
#347 = CIRCLE( '', #393, 1.00000000000000 );
#348 = FILL_AREA_STYLE_COLOUR( '', #394 );
#349 = VERTEX_POINT( '', #395 );
#350 = CIRCLE( '', #396, 6.51153846150000 );
#351 = VERTEX_POINT( '', #397 );
#352 = CIRCLE( '', #398, 6.00000000000000 );
#353 = FILL_AREA_STYLE_COLOUR( '', #399 );
#354 = VERTEX_POINT( '', #400 );
#355 = CIRCLE( '', #401, 1.00000000000000 );
#356 = VERTEX_POINT( '', #402 );
#357 = CIRCLE( '', #403, 1.00000000000000 );
#358 = VERTEX_POINT( '', #404 );
#359 = CIRCLE( '', #405, 9.00000000000000 );
#360 = FILL_AREA_STYLE_COLOUR( '', #406 );
#361 = VERTEX_POINT( '', #407 );
#362 = CIRCLE( '', #408, 6.78846153850000 );
#363 = FILL_AREA_STYLE_COLOUR( '', #409 );
#364 = VERTEX_POINT( '', #410 );
#365 = CIRCLE( '', #411, 7.30000000000000 );
#366 = FILL_AREA_STYLE_COLOUR( '', #412 );
#367 = VERTEX_POINT( '', #413 );
#368 = CIRCLE( '', #414, 9.00000000000000 );
#369 = FILL_AREA_STYLE_COLOUR( '', #415 );
#370 = FILL_AREA_STYLE_COLOUR( '', #416 );
#371 = FILL_AREA_STYLE_COLOUR( '', #417 );
#372 = FILL_AREA_STYLE_COLOUR( '', #418 );
#373 = FILL_AREA_STYLE_COLOUR( '', #419 );
#374 = COLOUR_RGB( '', 0.689999997600000, 0.689999997600000, 0.689999997600000 );
#375 = CARTESIAN_POINT( '', ( 0.000000000000000, 0.000000000000000, -15.0000000000000 ) );
#376 = AXIS2_PLACEMENT_3D( '', #420, #421, #422 );
#377 = CARTESIAN_POINT( '', ( 0.000000000000000, 3.00000000000000, -15.0000000000000 ) );
#378 = AXIS2_PLACEMENT_3D( '', #423, #424, #425 );
#379 = COLOUR_RGB( '', 0.689999997600000, 0.689999997600000, 0.689999997600000 );
#380 = CARTESIAN_POINT( '', ( 0.000000000000000, 5.20417042793042E-15, -8.65000000000000 ) );
#381 = AXIS2_PLACEMENT_3D( '', #426, #427, #428 );
#382 = CARTESIAN_POINT( '', ( 5.50000000000000, 0.000000000000000, -9.52627944162883 ) );
#383 = AXIS2_PLACEMENT_3D( '', #429, #430, #431 );
#384 = CARTESIAN_POINT( '', ( 5.50000000000000, 0.000000000000000, 9.52627944162883 ) );
#385 = AXIS2_PLACEMENT_3D( '', #432, #433, #434 );
#386 = CARTESIAN_POINT( '', ( -11.0000000000000, 0.000000000000000, 0.000000000000000 ) );
#387 = AXIS2_PLACEMENT_3D( '', #435, #436, #437 );
#388 = COLOUR_RGB( '', 0.689999997600000, 0.689999997600000, 0.689999997600000 );
#389 = CARTESIAN_POINT( '', ( 0.000000000000000, 1.10000000000000, -6.00000000000000 ) );
#390 = AXIS2_PLACEMENT_3D( '', #438, #439, #440 );
#391 = COLOUR_RGB( '', 0.689999997600000, 0.689999997600000, 0.689999997600000 );
#392 = CARTESIAN_POINT( '', ( 5.50000000000000, 3.00000000000000, -9.52627944162883 ) );
#393 = AXIS2_PLACEMENT_3D( '', #441, #442, #443 );
#394 = COLOUR_RGB( '', 0.689999997600000, 0.689999997600000, 0.689999997600000 );
#395 = CARTESIAN_POINT( '', ( 0.000000000000000, 0.0338639401229850, -6.51153846153846 ) );
#396 = AXIS2_PLACEMENT_3D( '', #444, #445, #446 );
#397 = CARTESIAN_POINT( '', ( 0.000000000000000, 0.300000000000001, -6.00000000000000 ) );
#398 = AXIS2_PLACEMENT_3D( '', #447, #448, #449 );
#399 = COLOUR_RGB( '', 0.689999997600000, 0.689999997600000, 0.689999997600000 );
#400 = CARTESIAN_POINT( '', ( 5.50000000000000, 3.00000000000000, 9.52627944162883 ) );
#401 = AXIS2_PLACEMENT_3D( '', #450, #451, #452 );
#402 = CARTESIAN_POINT( '', ( -11.0000000000000, 3.00000000000000, 0.000000000000000 ) );
#403 = AXIS2_PLACEMENT_3D( '', #453, #454, #455 );
#404 = CARTESIAN_POINT( '', ( 0.000000000000000, 3.00000000000000, -9.00000000000000 ) );
#405 = AXIS2_PLACEMENT_3D( '', #456, #457, #458 );
#406 = COLOUR_RGB( '', 0.689999997600000, 0.689999997600000, 0.689999997600000 );
#407 = CARTESIAN_POINT( '', ( 0.000000000000000, 0.0338639401229824, -6.78846153846154 ) );
#408 = AXIS2_PLACEMENT_3D( '', #459, #460, #461 );
#409 = COLOUR_RGB( '', 0.689999997600000, 0.689999997600000, 0.689999997600000 );
#410 = CARTESIAN_POINT( '', ( 0.000000000000000, 0.300000000000004, -7.29999999999999 ) );
#411 = AXIS2_PLACEMENT_3D( '', #462, #463, #464 );
#412 = COLOUR_RGB( '', 0.689999997600000, 0.689999997600000, 0.689999997600000 );
#413 = CARTESIAN_POINT( '', ( 0.000000000000000, 11.0000000000000, -9.00000000000000 ) );
#414 = AXIS2_PLACEMENT_3D( '', #465, #466, #467 );
#415 = COLOUR_RGB( '', 0.689999997600000, 0.689999997600000, 0.689999997600000 );
#416 = COLOUR_RGB( '', 0.689999997600000, 0.689999997600000, 0.689999997600000 );
#417 = COLOUR_RGB( '', 0.689999997600000, 0.689999997600000, 0.689999997600000 );
#418 = COLOUR_RGB( '', 0.689999997600000, 0.689999997600000, 0.689999997600000 );
#419 = COLOUR_RGB( '', 0.689999997600000, 0.689999997600000, 0.689999997600000 );
#420 = CARTESIAN_POINT( '', ( 0.000000000000000, 0.000000000000000, 0.000000000000000 ) );
#421 = DIRECTION( '', ( 0.000000000000000, -1.00000000000000, -0.000000000000000 ) );
#422 = DIRECTION( '', ( 0.000000000000000, 0.000000000000000, -1.00000000000000 ) );
#423 = CARTESIAN_POINT( '', ( 0.000000000000000, 3.00000000000000, 0.000000000000000 ) );
#424 = DIRECTION( '', ( 0.000000000000000, -1.00000000000000, -0.000000000000000 ) );
#425 = DIRECTION( '', ( 0.000000000000000, 0.000000000000000, -1.00000000000000 ) );
#426 = CARTESIAN_POINT( '', ( 0.000000000000000, 5.20417042793042E-15, 0.000000000000000 ) );
#427 = DIRECTION( '', ( 0.000000000000000, -1.00000000000000, -0.000000000000000 ) );
#428 = DIRECTION( '', ( 0.000000000000000, 0.000000000000000, -1.00000000000000 ) );
#429 = CARTESIAN_POINT( '', ( 6.00000000000000, 0.000000000000000, -10.3923048454133 ) );
#430 = DIRECTION( '', ( 0.000000000000000, 1.00000000000000, 0.000000000000000 ) );
#431 = DIRECTION( '', ( -0.500000000000000, 0.000000000000000, 0.866025403784439 ) );
#432 = CARTESIAN_POINT( '', ( 6.00000000000000, 0.000000000000000, 10.3923048454133 ) );
#433 = DIRECTION( '', ( 0.000000000000000, 1.00000000000000, 0.000000000000000 ) );
#434 = DIRECTION( '', ( -0.500000000000000, 0.000000000000000, -0.866025403784439 ) );
#435 = CARTESIAN_POINT( '', ( -12.0000000000000, 0.000000000000000, 0.000000000000000 ) );
#436 = DIRECTION( '', ( -0.000000000000000, 1.00000000000000, 0.000000000000000 ) );
#437 = DIRECTION( '', ( 1.00000000000000, 0.000000000000000, 0.000000000000000 ) );
#438 = CARTESIAN_POINT( '', ( 0.000000000000000, 1.10000000000000, 0.000000000000000 ) );
#439 = DIRECTION( '', ( 0.000000000000000, -1.00000000000000, -0.000000000000000 ) );
#440 = DIRECTION( '', ( 0.000000000000000, 0.000000000000000, -1.00000000000000 ) );
#441 = CARTESIAN_POINT( '', ( 6.00000000000000, 3.00000000000000, -10.3923048454133 ) );
#442 = DIRECTION( '', ( 0.000000000000000, 1.00000000000000, 0.000000000000000 ) );
#443 = DIRECTION( '', ( -0.500000000000000, 0.000000000000000, 0.866025403784439 ) );
#444 = CARTESIAN_POINT( '', ( 0.000000000000000, 0.0338639401229850, 0.000000000000000 ) );
#445 = DIRECTION( '', ( 0.000000000000000, -1.00000000000000, -0.000000000000000 ) );
#446 = DIRECTION( '', ( 0.000000000000000, 0.000000000000000, -1.00000000000000 ) );
#447 = CARTESIAN_POINT( '', ( 0.000000000000000, 0.300000000000001, 0.000000000000000 ) );
#448 = DIRECTION( '', ( 0.000000000000000, -1.00000000000000, -0.000000000000000 ) );
#449 = DIRECTION( '', ( 0.000000000000000, 0.000000000000000, -1.00000000000000 ) );
#450 = CARTESIAN_POINT( '', ( 6.00000000000000, 3.00000000000000, 10.3923048454133 ) );
#451 = DIRECTION( '', ( 0.000000000000000, 1.00000000000000, 0.000000000000000 ) );
#452 = DIRECTION( '', ( -0.500000000000000, 0.000000000000000, -0.866025403784439 ) );
#453 = CARTESIAN_POINT( '', ( -12.0000000000000, 3.00000000000000, 0.000000000000000 ) );
#454 = DIRECTION( '', ( -0.000000000000000, 1.00000000000000, 0.000000000000000 ) );
#455 = DIRECTION( '', ( 1.00000000000000, 0.000000000000000, 0.000000000000000 ) );
#456 = CARTESIAN_POINT( '', ( 0.000000000000000, 3.00000000000000, 0.000000000000000 ) );
#457 = DIRECTION( '', ( 0.000000000000000, -1.00000000000000, -0.000000000000000 ) );
#458 = DIRECTION( '', ( 0.000000000000000, 0.000000000000000, -1.00000000000000 ) );
#459 = CARTESIAN_POINT( '', ( 0.000000000000000, 0.0338639401229824, 0.000000000000000 ) );
#460 = DIRECTION( '', ( 0.000000000000000, -1.00000000000000, -0.000000000000000 ) );
#461 = DIRECTION( '', ( 0.000000000000000, 0.000000000000000, -1.00000000000000 ) );
#462 = CARTESIAN_POINT( '', ( 0.000000000000000, 0.300000000000004, 0.000000000000000 ) );
#463 = DIRECTION( '', ( 0.000000000000000, -1.00000000000000, -0.000000000000000 ) );
#464 = DIRECTION( '', ( 0.000000000000000, 0.000000000000000, -1.00000000000000 ) );
#465 = CARTESIAN_POINT( '', ( 0.000000000000000, 11.0000000000000, 0.000000000000000 ) );
#466 = DIRECTION( '', ( 0.000000000000000, -1.00000000000000, -0.000000000000000 ) );
#467 = DIRECTION( '', ( 0.000000000000000, 0.000000000000000, -1.00000000000000 ) );
ENDSEC;
END-ISO-10303-21;
