ISO-10303-21;
HEADER;
FILE_DESCRIPTION( ( 'STEP AP214' ), '1' );
FILE_NAME( '//goodhand-server/Shared Folders/GoodHand Data/Kipp CAD/K1154/K1154.1171030.stp', '2020-12-10T10:26:50', ( '' ), ( '' ), ' ', 'PARTsolutions', ' ' );
FILE_SCHEMA( ( 'AUTOMOTIVE_DESIGN { 1 0 10303 214 1 1 1 1 }' ) );
ENDSEC;
DATA;
#1 = MECHANICAL_DESIGN_GEOMETRIC_PRESENTATION_REPRESENTATION( ' ', ( #10, #11, #12, #13, #14, #15, #16, #17, #18, #19, #20 ), #6 );
#2 = PRODUCT_DEFINITION_CONTEXT( '', #21, 'design' );
#3 = APPLICATION_PROTOCOL_DEFINITION( 'international standard', 'automotive_design', 2001, #21 );
#4 = PRODUCT_CATEGORY_RELATIONSHIP( 'NONE', 'NONE', #22, #23 );
#5 = SHAPE_DEFINITION_REPRESENTATION( #24, #25 );
#6 =  ( GEOMETRIC_REPRESENTATION_CONTEXT( 3 )GLOBAL_UNCERTAINTY_ASSIGNED_CONTEXT( ( #28 ) )GLOBAL_UNIT_ASSIGNED_CONTEXT( ( #30, #31, #32 ) )REPRESENTATION_CONTEXT( 'NONE', 'WORKSPACE' ) );
#10 = STYLED_ITEM( '', ( #34 ), #35 );
#11 = STYLED_ITEM( '', ( #36 ), #37 );
#12 = STYLED_ITEM( '', ( #38 ), #39 );
#13 = STYLED_ITEM( '', ( #40 ), #41 );
#14 = STYLED_ITEM( '', ( #42 ), #43 );
#15 = STYLED_ITEM( '', ( #44 ), #45 );
#16 = STYLED_ITEM( '', ( #46 ), #47 );
#17 = STYLED_ITEM( '', ( #48 ), #49 );
#18 = STYLED_ITEM( '', ( #50 ), #51 );
#19 = STYLED_ITEM( '', ( #52 ), #53 );
#20 = STYLED_ITEM( '', ( #54 ), #55 );
#21 = APPLICATION_CONTEXT( 'core data for automotive mechanical design processes' );
#22 = PRODUCT_CATEGORY( 'part', 'NONE' );
#23 = PRODUCT_RELATED_PRODUCT_CATEGORY( 'detail', ' ', ( #56 ) );
#24 = PRODUCT_DEFINITION_SHAPE( 'NONE', 'NONE', #57 );
#25 = ADVANCED_BREP_SHAPE_REPRESENTATION( '_K1154.1171030', ( #58, #59 ), #6 );
#28 = UNCERTAINTY_MEASURE_WITH_UNIT( LENGTH_MEASURE( 0.00100000000000000 ), #30, '', '' );
#30 =  ( CONVERSION_BASED_UNIT( 'MILLIMETRE', #62 )LENGTH_UNIT(  )NAMED_UNIT( #65 ) );
#31 =  ( NAMED_UNIT( #67 )PLANE_ANGLE_UNIT(  )SI_UNIT( $, .RADIAN. ) );
#32 =  ( NAMED_UNIT( #67 )SI_UNIT( $, .STERADIAN. )SOLID_ANGLE_UNIT(  ) );
#34 = PRESENTATION_STYLE_ASSIGNMENT( ( #73 ) );
#35 = ADVANCED_FACE( '', ( #74 ), #75, .T. );
#36 = PRESENTATION_STYLE_ASSIGNMENT( ( #76 ) );
#37 = ADVANCED_FACE( '', ( #77, #78 ), #79, .F. );
#38 = PRESENTATION_STYLE_ASSIGNMENT( ( #80 ) );
#39 = ADVANCED_FACE( '', ( #81, #82 ), #83, .T. );
#40 = PRESENTATION_STYLE_ASSIGNMENT( ( #84 ) );
#41 = ADVANCED_FACE( '', ( #85, #86 ), #87, .F. );
#42 = PRESENTATION_STYLE_ASSIGNMENT( ( #88 ) );
#43 = ADVANCED_FACE( '', ( #89, #90 ), #91, .T. );
#44 = PRESENTATION_STYLE_ASSIGNMENT( ( #92 ) );
#45 = ADVANCED_FACE( '', ( #93, #94 ), #95, .F. );
#46 = PRESENTATION_STYLE_ASSIGNMENT( ( #96 ) );
#47 = ADVANCED_FACE( '', ( #97, #98 ), #99, .F. );
#48 = PRESENTATION_STYLE_ASSIGNMENT( ( #100 ) );
#49 = ADVANCED_FACE( '', ( #101, #102, #103, #104, #105 ), #106, .F. );
#50 = PRESENTATION_STYLE_ASSIGNMENT( ( #107 ) );
#51 = ADVANCED_FACE( '', ( #108, #109, #110, #111 ), #112, .F. );
#52 = PRESENTATION_STYLE_ASSIGNMENT( ( #113 ) );
#53 = ADVANCED_FACE( '', ( #114, #115 ), #116, .T. );
#54 = PRESENTATION_STYLE_ASSIGNMENT( ( #117 ) );
#55 = ADVANCED_FACE( '', ( #118, #119 ), #120, .T. );
#56 = PRODUCT( '_K1154.1171030', '_K1154.1171030', 'PART-_K1154.1171030-DESC', ( #121 ) );
#57 = PRODUCT_DEFINITION( 'NONE', 'NONE', #122, #2 );
#58 = MANIFOLD_SOLID_BREP( '_K1154.1171030', #123 );
#59 = AXIS2_PLACEMENT_3D( '', #124, #125, #126 );
#62 = LENGTH_MEASURE_WITH_UNIT( LENGTH_MEASURE( 1.00000000000000 ), #127 );
#65 = DIMENSIONAL_EXPONENTS( 1.00000000000000, 0.000000000000000, 0.000000000000000, 0.000000000000000, 0.000000000000000, 0.000000000000000, 0.000000000000000 );
#67 = DIMENSIONAL_EXPONENTS( 0.000000000000000, 0.000000000000000, 0.000000000000000, 0.000000000000000, 0.000000000000000, 0.000000000000000, 0.000000000000000 );
#73 = SURFACE_STYLE_USAGE( .BOTH., #128 );
#74 = FACE_OUTER_BOUND( '', #129, .T. );
#75 = PLANE( '', #130 );
#76 = SURFACE_STYLE_USAGE( .BOTH., #131 );
#77 = FACE_OUTER_BOUND( '', #132, .T. );
#78 = FACE_OUTER_BOUND( '', #133, .T. );
#79 = CYLINDRICAL_SURFACE( '', #134, 1.00000000000000 );
#80 = SURFACE_STYLE_USAGE( .BOTH., #135 );
#81 = FACE_BOUND( '', #136, .T. );
#82 = FACE_OUTER_BOUND( '', #137, .T. );
#83 = CONICAL_SURFACE( '', #138, 8.50000000000000, 0.766994007900000 );
#84 = SURFACE_STYLE_USAGE( .BOTH., #139 );
#85 = FACE_OUTER_BOUND( '', #140, .T. );
#86 = FACE_OUTER_BOUND( '', #141, .T. );
#87 = CYLINDRICAL_SURFACE( '', #142, 1.00000000000000 );
#88 = SURFACE_STYLE_USAGE( .BOTH., #143 );
#89 = FACE_OUTER_BOUND( '', #144, .T. );
#90 = FACE_OUTER_BOUND( '', #145, .T. );
#91 = CYLINDRICAL_SURFACE( '', #146, 8.50000000000000 );
#92 = SURFACE_STYLE_USAGE( .BOTH., #147 );
#93 = FACE_BOUND( '', #148, .T. );
#94 = FACE_OUTER_BOUND( '', #149, .T. );
#95 = CONICAL_SURFACE( '', #150, 6.60200000000000, 0.766994007900000 );
#96 = SURFACE_STYLE_USAGE( .BOTH., #151 );
#97 = FACE_OUTER_BOUND( '', #152, .T. );
#98 = FACE_OUTER_BOUND( '', #153, .T. );
#99 = CYLINDRICAL_SURFACE( '', #154, 1.00000000000000 );
#100 = SURFACE_STYLE_USAGE( .BOTH., #155 );
#101 = FACE_OUTER_BOUND( '', #156, .T. );
#102 = FACE_BOUND( '', #157, .T. );
#103 = FACE_BOUND( '', #158, .T. );
#104 = FACE_BOUND( '', #159, .T. );
#105 = FACE_BOUND( '', #160, .T. );
#106 = PLANE( '', #161 );
#107 = SURFACE_STYLE_USAGE( .BOTH., #162 );
#108 = FACE_BOUND( '', #163, .T. );
#109 = FACE_BOUND( '', #164, .T. );
#110 = FACE_BOUND( '', #165, .T. );
#111 = FACE_OUTER_BOUND( '', #166, .T. );
#112 = PLANE( '', #167 );
#113 = SURFACE_STYLE_USAGE( .BOTH., #168 );
#114 = FACE_OUTER_BOUND( '', #169, .T. );
#115 = FACE_OUTER_BOUND( '', #170, .T. );
#116 = CYLINDRICAL_SURFACE( '', #171, 12.5000000000000 );
#117 = SURFACE_STYLE_USAGE( .BOTH., #172 );
#118 = FACE_OUTER_BOUND( '', #173, .T. );
#119 = FACE_OUTER_BOUND( '', #174, .T. );
#120 = TOROIDAL_SURFACE( '', #175, 7.25000000000000, 0.900000000000000 );
#121 = PRODUCT_CONTEXT( '', #21, 'mechanical' );
#122 = PRODUCT_DEFINITION_FORMATION_WITH_SPECIFIED_SOURCE( ' ', 'NONE', #56, .NOT_KNOWN. );
#123 = CLOSED_SHELL( '', ( #49, #41, #51, #53, #43, #39, #45, #55, #35, #37, #47 ) );
#124 = CARTESIAN_POINT( '', ( 0.000000000000000, 0.000000000000000, 0.000000000000000 ) );
#125 = DIRECTION( '', ( 0.000000000000000, 0.000000000000000, 1.00000000000000 ) );
#126 = DIRECTION( '', ( 1.00000000000000, 0.000000000000000, 0.000000000000000 ) );
#127 =  ( LENGTH_UNIT(  )NAMED_UNIT( #65 )SI_UNIT( .MILLI., .METRE. ) );
#128 = SURFACE_SIDE_STYLE( '', ( #177 ) );
#129 = EDGE_LOOP( '', ( #178 ) );
#130 = AXIS2_PLACEMENT_3D( '', #179, #180, #181 );
#131 = SURFACE_SIDE_STYLE( '', ( #182 ) );
#132 = EDGE_LOOP( '', ( #183 ) );
#133 = EDGE_LOOP( '', ( #184 ) );
#134 = AXIS2_PLACEMENT_3D( '', #185, #186, #187 );
#135 = SURFACE_SIDE_STYLE( '', ( #188 ) );
#136 = EDGE_LOOP( '', ( #189 ) );
#137 = EDGE_LOOP( '', ( #190 ) );
#138 = AXIS2_PLACEMENT_3D( '', #191, #192, #193 );
#139 = SURFACE_SIDE_STYLE( '', ( #194 ) );
#140 = EDGE_LOOP( '', ( #195 ) );
#141 = EDGE_LOOP( '', ( #196 ) );
#142 = AXIS2_PLACEMENT_3D( '', #197, #198, #199 );
#143 = SURFACE_SIDE_STYLE( '', ( #200 ) );
#144 = EDGE_LOOP( '', ( #201 ) );
#145 = EDGE_LOOP( '', ( #202 ) );
#146 = AXIS2_PLACEMENT_3D( '', #203, #204, #205 );
#147 = SURFACE_SIDE_STYLE( '', ( #206 ) );
#148 = EDGE_LOOP( '', ( #207 ) );
#149 = EDGE_LOOP( '', ( #208 ) );
#150 = AXIS2_PLACEMENT_3D( '', #209, #210, #211 );
#151 = SURFACE_SIDE_STYLE( '', ( #212 ) );
#152 = EDGE_LOOP( '', ( #213 ) );
#153 = EDGE_LOOP( '', ( #214 ) );
#154 = AXIS2_PLACEMENT_3D( '', #215, #216, #217 );
#155 = SURFACE_SIDE_STYLE( '', ( #218 ) );
#156 = EDGE_LOOP( '', ( #219 ) );
#157 = EDGE_LOOP( '', ( #220 ) );
#158 = EDGE_LOOP( '', ( #221 ) );
#159 = EDGE_LOOP( '', ( #222 ) );
#160 = EDGE_LOOP( '', ( #223 ) );
#161 = AXIS2_PLACEMENT_3D( '', #224, #225, #226 );
#162 = SURFACE_SIDE_STYLE( '', ( #227 ) );
#163 = EDGE_LOOP( '', ( #228 ) );
#164 = EDGE_LOOP( '', ( #229 ) );
#165 = EDGE_LOOP( '', ( #230 ) );
#166 = EDGE_LOOP( '', ( #231 ) );
#167 = AXIS2_PLACEMENT_3D( '', #232, #233, #234 );
#168 = SURFACE_SIDE_STYLE( '', ( #235 ) );
#169 = EDGE_LOOP( '', ( #236 ) );
#170 = EDGE_LOOP( '', ( #237 ) );
#171 = AXIS2_PLACEMENT_3D( '', #238, #239, #240 );
#172 = SURFACE_SIDE_STYLE( '', ( #241 ) );
#173 = EDGE_LOOP( '', ( #242 ) );
#174 = EDGE_LOOP( '', ( #243 ) );
#175 = AXIS2_PLACEMENT_3D( '', #244, #245, #246 );
#177 = SURFACE_STYLE_FILL_AREA( #247 );
#178 = ORIENTED_EDGE( '', *, *, #248, .F. );
#179 = CARTESIAN_POINT( '', ( 6.00000000000001, 9.10000000000000, 0.000000000000000 ) );
#180 = DIRECTION( '', ( 0.000000000000000, 1.00000000000000, 0.000000000000000 ) );
#181 = DIRECTION( '', ( 0.000000000000000, -0.000000000000000, 1.00000000000000 ) );
#182 = SURFACE_STYLE_FILL_AREA( #249 );
#183 = ORIENTED_EDGE( '', *, *, #250, .T. );
#184 = ORIENTED_EDGE( '', *, *, #251, .F. );
#185 = CARTESIAN_POINT( '', ( 5.25000000000000, 2.00000000000000, 9.09326673973661 ) );
#186 = DIRECTION( '', ( -0.000000000000000, 1.00000000000000, -0.000000000000000 ) );
#187 = DIRECTION( '', ( -0.866025403784439, 0.000000000000000, 0.500000000000000 ) );
#188 = SURFACE_STYLE_FILL_AREA( #252 );
#189 = ORIENTED_EDGE( '', *, *, #253, .T. );
#190 = ORIENTED_EDGE( '', *, *, #254, .F. );
#191 = CARTESIAN_POINT( '', ( 0.000000000000000, 9.10000000000000, 0.000000000000000 ) );
#192 = DIRECTION( '', ( -0.000000000000000, -1.00000000000000, -0.000000000000000 ) );
#193 = DIRECTION( '', ( 0.000000000000000, 0.000000000000000, -1.00000000000000 ) );
#194 = SURFACE_STYLE_FILL_AREA( #255 );
#195 = ORIENTED_EDGE( '', *, *, #256, .T. );
#196 = ORIENTED_EDGE( '', *, *, #257, .F. );
#197 = CARTESIAN_POINT( '', ( -10.5000000000000, 2.00000000000000, 0.000000000000000 ) );
#198 = DIRECTION( '', ( -0.000000000000000, 1.00000000000000, 0.000000000000000 ) );
#199 = DIRECTION( '', ( 0.000000000000000, 0.000000000000000, -1.00000000000000 ) );
#200 = SURFACE_STYLE_FILL_AREA( #258 );
#201 = ORIENTED_EDGE( '', *, *, #259, .F. );
#202 = ORIENTED_EDGE( '', *, *, #254, .T. );
#203 = CARTESIAN_POINT( '', ( 0.000000000000000, 0.000000000000000, 0.000000000000000 ) );
#204 = DIRECTION( '', ( -0.000000000000000, 1.00000000000000, 0.000000000000000 ) );
#205 = DIRECTION( '', ( 0.000000000000000, 0.000000000000000, -1.00000000000000 ) );
#206 = SURFACE_STYLE_FILL_AREA( #260 );
#207 = ORIENTED_EDGE( '', *, *, #248, .T. );
#208 = ORIENTED_EDGE( '', *, *, #261, .F. );
#209 = CARTESIAN_POINT( '', ( 0.000000000000000, 9.72457665662431, 0.000000000000000 ) );
#210 = DIRECTION( '', ( -0.000000000000000, 1.00000000000000, 0.000000000000000 ) );
#211 = DIRECTION( '', ( 0.000000000000000, -0.000000000000000, 1.00000000000000 ) );
#212 = SURFACE_STYLE_FILL_AREA( #262 );
#213 = ORIENTED_EDGE( '', *, *, #263, .T. );
#214 = ORIENTED_EDGE( '', *, *, #264, .F. );
#215 = CARTESIAN_POINT( '', ( 5.25000000000000, 2.00000000000000, -9.09326673973661 ) );
#216 = DIRECTION( '', ( -0.000000000000000, 1.00000000000000, -0.000000000000000 ) );
#217 = DIRECTION( '', ( 0.866025403784439, 0.000000000000000, 0.500000000000000 ) );
#218 = SURFACE_STYLE_FILL_AREA( #265 );
#219 = ORIENTED_EDGE( '', *, *, #266, .F. );
#220 = ORIENTED_EDGE( '', *, *, #263, .F. );
#221 = ORIENTED_EDGE( '', *, *, #250, .F. );
#222 = ORIENTED_EDGE( '', *, *, #256, .F. );
#223 = ORIENTED_EDGE( '', *, *, #259, .T. );
#224 = CARTESIAN_POINT( '', ( 8.50000000000000, 2.00000000000000, 0.000000000000000 ) );
#225 = DIRECTION( '', ( 0.000000000000000, -1.00000000000000, -0.000000000000000 ) );
#226 = DIRECTION( '', ( 0.000000000000000, 0.000000000000000, -1.00000000000000 ) );
#227 = SURFACE_STYLE_FILL_AREA( #267 );
#228 = ORIENTED_EDGE( '', *, *, #264, .T. );
#229 = ORIENTED_EDGE( '', *, *, #251, .T. );
#230 = ORIENTED_EDGE( '', *, *, #257, .T. );
#231 = ORIENTED_EDGE( '', *, *, #268, .T. );
#232 = CARTESIAN_POINT( '', ( 12.5000000000000, 0.000000000000000, 0.000000000000000 ) );
#233 = DIRECTION( '', ( 0.000000000000000, 1.00000000000000, 0.000000000000000 ) );
#234 = DIRECTION( '', ( 0.000000000000000, -0.000000000000000, 1.00000000000000 ) );
#235 = SURFACE_STYLE_FILL_AREA( #269 );
#236 = ORIENTED_EDGE( '', *, *, #268, .F. );
#237 = ORIENTED_EDGE( '', *, *, #266, .T. );
#238 = CARTESIAN_POINT( '', ( 0.000000000000000, 0.000000000000000, 0.000000000000000 ) );
#239 = DIRECTION( '', ( -0.000000000000000, 1.00000000000000, 0.000000000000000 ) );
#240 = DIRECTION( '', ( 0.000000000000000, 0.000000000000000, -1.00000000000000 ) );
#241 = SURFACE_STYLE_FILL_AREA( #270 );
#242 = ORIENTED_EDGE( '', *, *, #261, .T. );
#243 = ORIENTED_EDGE( '', *, *, #253, .F. );
#244 = CARTESIAN_POINT( '', ( 0.000000000000000, 9.10000000000000, 0.000000000000000 ) );
#245 = DIRECTION( '', ( 0.000000000000000, -1.00000000000000, -0.000000000000000 ) );
#246 = DIRECTION( '', ( 0.000000000000000, 0.000000000000000, -1.00000000000000 ) );
#247 = FILL_AREA_STYLE( '', ( #271 ) );
#248 = EDGE_CURVE( '', #272, #272, #273, .T. );
#249 = FILL_AREA_STYLE( '', ( #274 ) );
#250 = EDGE_CURVE( '', #275, #275, #276, .T. );
#251 = EDGE_CURVE( '', #277, #277, #278, .T. );
#252 = FILL_AREA_STYLE( '', ( #279 ) );
#253 = EDGE_CURVE( '', #280, #280, #281, .T. );
#254 = EDGE_CURVE( '', #282, #282, #283, .T. );
#255 = FILL_AREA_STYLE( '', ( #284 ) );
#256 = EDGE_CURVE( '', #285, #285, #286, .T. );
#257 = EDGE_CURVE( '', #287, #287, #288, .T. );
#258 = FILL_AREA_STYLE( '', ( #289 ) );
#259 = EDGE_CURVE( '', #290, #290, #291, .T. );
#260 = FILL_AREA_STYLE( '', ( #292 ) );
#261 = EDGE_CURVE( '', #293, #293, #294, .T. );
#262 = FILL_AREA_STYLE( '', ( #295 ) );
#263 = EDGE_CURVE( '', #296, #296, #297, .T. );
#264 = EDGE_CURVE( '', #298, #298, #299, .T. );
#265 = FILL_AREA_STYLE( '', ( #300 ) );
#266 = EDGE_CURVE( '', #301, #301, #302, .T. );
#267 = FILL_AREA_STYLE( '', ( #303 ) );
#268 = EDGE_CURVE( '', #304, #304, #305, .T. );
#269 = FILL_AREA_STYLE( '', ( #306 ) );
#270 = FILL_AREA_STYLE( '', ( #307 ) );
#271 = FILL_AREA_STYLE_COLOUR( '', #308 );
#272 = VERTEX_POINT( '', #309 );
#273 = CIRCLE( '', #310, 6.00000000000000 );
#274 = FILL_AREA_STYLE_COLOUR( '', #311 );
#275 = VERTEX_POINT( '', #312 );
#276 = CIRCLE( '', #313, 1.00000000000000 );
#277 = VERTEX_POINT( '', #314 );
#278 = CIRCLE( '', #315, 1.00000000000000 );
#279 = FILL_AREA_STYLE_COLOUR( '', #316 );
#280 = VERTEX_POINT( '', #317 );
#281 = CIRCLE( '', #318, 7.89800000000000 );
#282 = VERTEX_POINT( '', #319 );
#283 = CIRCLE( '', #320, 8.50000000000000 );
#284 = FILL_AREA_STYLE_COLOUR( '', #321 );
#285 = VERTEX_POINT( '', #322 );
#286 = CIRCLE( '', #323, 1.00000000000000 );
#287 = VERTEX_POINT( '', #324 );
#288 = CIRCLE( '', #325, 1.00000000000000 );
#289 = FILL_AREA_STYLE_COLOUR( '', #326 );
#290 = VERTEX_POINT( '', #327 );
#291 = CIRCLE( '', #328, 8.50000000000000 );
#292 = FILL_AREA_STYLE_COLOUR( '', #329 );
#293 = VERTEX_POINT( '', #330 );
#294 = CIRCLE( '', #331, 6.60200000000000 );
#295 = FILL_AREA_STYLE_COLOUR( '', #332 );
#296 = VERTEX_POINT( '', #333 );
#297 = CIRCLE( '', #334, 1.00000000000000 );
#298 = VERTEX_POINT( '', #335 );
#299 = CIRCLE( '', #336, 1.00000000000000 );
#300 = FILL_AREA_STYLE_COLOUR( '', #337 );
#301 = VERTEX_POINT( '', #338 );
#302 = CIRCLE( '', #339, 12.5000000000000 );
#303 = FILL_AREA_STYLE_COLOUR( '', #340 );
#304 = VERTEX_POINT( '', #341 );
#305 = CIRCLE( '', #342, 12.5000000000000 );
#306 = FILL_AREA_STYLE_COLOUR( '', #343 );
#307 = FILL_AREA_STYLE_COLOUR( '', #344 );
#308 = COLOUR_RGB( '', 0.689999997600000, 0.689999997600000, 0.689999997600000 );
#309 = CARTESIAN_POINT( '', ( 0.000000000000000, 9.10000000000000, -6.00000000000001 ) );
#310 = AXIS2_PLACEMENT_3D( '', #345, #346, #347 );
#311 = COLOUR_RGB( '', 0.689999997600000, 0.689999997600000, 0.689999997600000 );
#312 = CARTESIAN_POINT( '', ( 4.75000000000000, 2.00000000000000, 8.22724133595217 ) );
#313 = AXIS2_PLACEMENT_3D( '', #348, #349, #350 );
#314 = CARTESIAN_POINT( '', ( 4.75000000000000, 0.000000000000000, 8.22724133595217 ) );
#315 = AXIS2_PLACEMENT_3D( '', #351, #352, #353 );
#316 = COLOUR_RGB( '', 0.689999997600000, 0.689999997600000, 0.689999997600000 );
#317 = CARTESIAN_POINT( '', ( 0.000000000000000, 9.72457665662431, -7.89800000000000 ) );
#318 = AXIS2_PLACEMENT_3D( '', #354, #355, #356 );
#319 = CARTESIAN_POINT( '', ( 0.000000000000000, 9.10000000000000, -8.50000000000000 ) );
#320 = AXIS2_PLACEMENT_3D( '', #357, #358, #359 );
#321 = COLOUR_RGB( '', 0.689999997600000, 0.689999997600000, 0.689999997600000 );
#322 = CARTESIAN_POINT( '', ( -9.50000000000000, 2.00000000000000, 0.000000000000000 ) );
#323 = AXIS2_PLACEMENT_3D( '', #360, #361, #362 );
#324 = CARTESIAN_POINT( '', ( -9.50000000000000, 0.000000000000000, 0.000000000000000 ) );
#325 = AXIS2_PLACEMENT_3D( '', #363, #364, #365 );
#326 = COLOUR_RGB( '', 0.689999997600000, 0.689999997600000, 0.689999997600000 );
#327 = CARTESIAN_POINT( '', ( 0.000000000000000, 2.00000000000000, -8.50000000000000 ) );
#328 = AXIS2_PLACEMENT_3D( '', #366, #367, #368 );
#329 = COLOUR_RGB( '', 0.689999997600000, 0.689999997600000, 0.689999997600000 );
#330 = CARTESIAN_POINT( '', ( 0.000000000000000, 9.72457665662431, -6.60200000000000 ) );
#331 = AXIS2_PLACEMENT_3D( '', #369, #370, #371 );
#332 = COLOUR_RGB( '', 0.689999997600000, 0.689999997600000, 0.689999997600000 );
#333 = CARTESIAN_POINT( '', ( 4.75000000000000, 2.00000000000000, -8.22724133595217 ) );
#334 = AXIS2_PLACEMENT_3D( '', #372, #373, #374 );
#335 = CARTESIAN_POINT( '', ( 4.75000000000000, 0.000000000000000, -8.22724133595217 ) );
#336 = AXIS2_PLACEMENT_3D( '', #375, #376, #377 );
#337 = COLOUR_RGB( '', 0.689999997600000, 0.689999997600000, 0.689999997600000 );
#338 = CARTESIAN_POINT( '', ( 0.000000000000000, 2.00000000000000, -12.5000000000000 ) );
#339 = AXIS2_PLACEMENT_3D( '', #378, #379, #380 );
#340 = COLOUR_RGB( '', 0.689999997600000, 0.689999997600000, 0.689999997600000 );
#341 = CARTESIAN_POINT( '', ( 0.000000000000000, 0.000000000000000, -12.5000000000000 ) );
#342 = AXIS2_PLACEMENT_3D( '', #381, #382, #383 );
#343 = COLOUR_RGB( '', 0.689999997600000, 0.689999997600000, 0.689999997600000 );
#344 = COLOUR_RGB( '', 0.689999997600000, 0.689999997600000, 0.689999997600000 );
#345 = CARTESIAN_POINT( '', ( 0.000000000000000, 9.10000000000000, 0.000000000000000 ) );
#346 = DIRECTION( '', ( 0.000000000000000, -1.00000000000000, -0.000000000000000 ) );
#347 = DIRECTION( '', ( 0.000000000000000, 0.000000000000000, -1.00000000000000 ) );
#348 = CARTESIAN_POINT( '', ( 5.25000000000000, 2.00000000000000, 9.09326673973661 ) );
#349 = DIRECTION( '', ( 0.000000000000000, 1.00000000000000, 0.000000000000000 ) );
#350 = DIRECTION( '', ( -0.500000000000000, 0.000000000000000, -0.866025403784439 ) );
#351 = CARTESIAN_POINT( '', ( 5.25000000000000, 0.000000000000000, 9.09326673973661 ) );
#352 = DIRECTION( '', ( 0.000000000000000, 1.00000000000000, 0.000000000000000 ) );
#353 = DIRECTION( '', ( -0.500000000000000, 0.000000000000000, -0.866025403784439 ) );
#354 = CARTESIAN_POINT( '', ( 0.000000000000000, 9.72457665662431, 0.000000000000000 ) );
#355 = DIRECTION( '', ( 0.000000000000000, -1.00000000000000, -0.000000000000000 ) );
#356 = DIRECTION( '', ( 0.000000000000000, 0.000000000000000, -1.00000000000000 ) );
#357 = CARTESIAN_POINT( '', ( 0.000000000000000, 9.10000000000000, 0.000000000000000 ) );
#358 = DIRECTION( '', ( 0.000000000000000, -1.00000000000000, -0.000000000000000 ) );
#359 = DIRECTION( '', ( 0.000000000000000, 0.000000000000000, -1.00000000000000 ) );
#360 = CARTESIAN_POINT( '', ( -10.5000000000000, 2.00000000000000, 0.000000000000000 ) );
#361 = DIRECTION( '', ( -0.000000000000000, 1.00000000000000, 0.000000000000000 ) );
#362 = DIRECTION( '', ( 1.00000000000000, 0.000000000000000, 0.000000000000000 ) );
#363 = CARTESIAN_POINT( '', ( -10.5000000000000, 0.000000000000000, 0.000000000000000 ) );
#364 = DIRECTION( '', ( -0.000000000000000, 1.00000000000000, 0.000000000000000 ) );
#365 = DIRECTION( '', ( 1.00000000000000, 0.000000000000000, 0.000000000000000 ) );
#366 = CARTESIAN_POINT( '', ( 0.000000000000000, 2.00000000000000, 0.000000000000000 ) );
#367 = DIRECTION( '', ( 0.000000000000000, -1.00000000000000, -0.000000000000000 ) );
#368 = DIRECTION( '', ( 0.000000000000000, 0.000000000000000, -1.00000000000000 ) );
#369 = CARTESIAN_POINT( '', ( 0.000000000000000, 9.72457665662431, 0.000000000000000 ) );
#370 = DIRECTION( '', ( 0.000000000000000, -1.00000000000000, -0.000000000000000 ) );
#371 = DIRECTION( '', ( 0.000000000000000, 0.000000000000000, -1.00000000000000 ) );
#372 = CARTESIAN_POINT( '', ( 5.25000000000000, 2.00000000000000, -9.09326673973661 ) );
#373 = DIRECTION( '', ( 0.000000000000000, 1.00000000000000, 0.000000000000000 ) );
#374 = DIRECTION( '', ( -0.500000000000000, 0.000000000000000, 0.866025403784439 ) );
#375 = CARTESIAN_POINT( '', ( 5.25000000000000, 0.000000000000000, -9.09326673973661 ) );
#376 = DIRECTION( '', ( 0.000000000000000, 1.00000000000000, 0.000000000000000 ) );
#377 = DIRECTION( '', ( -0.500000000000000, 0.000000000000000, 0.866025403784439 ) );
#378 = CARTESIAN_POINT( '', ( 0.000000000000000, 2.00000000000000, 0.000000000000000 ) );
#379 = DIRECTION( '', ( 0.000000000000000, -1.00000000000000, -0.000000000000000 ) );
#380 = DIRECTION( '', ( 0.000000000000000, 0.000000000000000, -1.00000000000000 ) );
#381 = CARTESIAN_POINT( '', ( 0.000000000000000, 0.000000000000000, 0.000000000000000 ) );
#382 = DIRECTION( '', ( 0.000000000000000, -1.00000000000000, -0.000000000000000 ) );
#383 = DIRECTION( '', ( 0.000000000000000, 0.000000000000000, -1.00000000000000 ) );
ENDSEC;
END-ISO-10303-21;
