ISO-10303-21;
HEADER;
FILE_DESCRIPTION( ( 'STEP AP214' ), '1' );
FILE_NAME( '//goodhand-server/Shared Folders/GoodHand Data/Kipp CAD/K0172/K0172.106.stp', '2020-11-26T10:51:21', ( '' ), ( '' ), ' ', 'PARTsolutions', ' ' );
FILE_SCHEMA( ( 'AUTOMOTIVE_DESIGN { 1 0 10303 214 1 1 1 1 }' ) );
ENDSEC;
DATA;
#1 = MECHANICAL_DESIGN_GEOMETRIC_PRESENTATION_REPRESENTATION( ' ', ( #10, #11, #12, #13, #14, #15, #16, #17 ), #6 );
#2 = PRODUCT_DEFINITION_CONTEXT( '', #18, 'design' );
#3 = APPLICATION_PROTOCOL_DEFINITION( 'international standard', 'automotive_design', 2001, #18 );
#4 = PRODUCT_CATEGORY_RELATIONSHIP( 'NONE', 'NONE', #19, #20 );
#5 = SHAPE_DEFINITION_REPRESENTATION( #21, #22 );
#6 =  ( GEOMETRIC_REPRESENTATION_CONTEXT( 3 )GLOBAL_UNCERTAINTY_ASSIGNED_CONTEXT( ( #25 ) )GLOBAL_UNIT_ASSIGNED_CONTEXT( ( #27, #28, #29 ) )REPRESENTATION_CONTEXT( 'NONE', 'WORKSPACE' ) );
#10 = STYLED_ITEM( '', ( #31 ), #32 );
#11 = STYLED_ITEM( '', ( #33 ), #34 );
#12 = STYLED_ITEM( '', ( #35 ), #36 );
#13 = STYLED_ITEM( '', ( #37 ), #38 );
#14 = STYLED_ITEM( '', ( #39 ), #40 );
#15 = STYLED_ITEM( '', ( #41 ), #42 );
#16 = STYLED_ITEM( '', ( #43 ), #44 );
#17 = STYLED_ITEM( '', ( #45 ), #46 );
#18 = APPLICATION_CONTEXT( 'core data for automotive mechanical design processes' );
#19 = PRODUCT_CATEGORY( 'part', 'NONE' );
#20 = PRODUCT_RELATED_PRODUCT_CATEGORY( 'detail', ' ', ( #47 ) );
#21 = PRODUCT_DEFINITION_SHAPE( 'NONE', 'NONE', #48 );
#22 = ADVANCED_BREP_SHAPE_REPRESENTATION( '_K0172.106', ( #49, #50 ), #6 );
#25 = UNCERTAINTY_MEASURE_WITH_UNIT( LENGTH_MEASURE( 0.00100000000000000 ), #27, '', '' );
#27 =  ( CONVERSION_BASED_UNIT( 'MILLIMETRE', #53 )LENGTH_UNIT(  )NAMED_UNIT( #56 ) );
#28 =  ( NAMED_UNIT( #58 )PLANE_ANGLE_UNIT(  )SI_UNIT( $, .RADIAN. ) );
#29 =  ( NAMED_UNIT( #58 )SI_UNIT( $, .STERADIAN. )SOLID_ANGLE_UNIT(  ) );
#31 = PRESENTATION_STYLE_ASSIGNMENT( ( #64 ) );
#32 = ADVANCED_FACE( '', ( #65, #66 ), #67, .T. );
#33 = PRESENTATION_STYLE_ASSIGNMENT( ( #68 ) );
#34 = ADVANCED_FACE( '', ( #69, #70 ), #71, .F. );
#35 = PRESENTATION_STYLE_ASSIGNMENT( ( #72 ) );
#36 = ADVANCED_FACE( '', ( #73, #74 ), #75, .F. );
#37 = PRESENTATION_STYLE_ASSIGNMENT( ( #76 ) );
#38 = ADVANCED_FACE( '', ( #77, #78 ), #79, .T. );
#39 = PRESENTATION_STYLE_ASSIGNMENT( ( #80 ) );
#40 = ADVANCED_FACE( '', ( #81, #82 ), #83, .T. );
#41 = PRESENTATION_STYLE_ASSIGNMENT( ( #84 ) );
#42 = ADVANCED_FACE( '', ( #85, #86 ), #87, .F. );
#43 = PRESENTATION_STYLE_ASSIGNMENT( ( #88 ) );
#44 = ADVANCED_FACE( '', ( #89, #90 ), #91, .F. );
#45 = PRESENTATION_STYLE_ASSIGNMENT( ( #92 ) );
#46 = ADVANCED_FACE( '', ( #93, #94 ), #95, .T. );
#47 = PRODUCT( '_K0172.106', '_K0172.106', 'PART-_K0172.106-DESC', ( #96 ) );
#48 = PRODUCT_DEFINITION( 'NONE', 'NONE', #97, #2 );
#49 = MANIFOLD_SOLID_BREP( '_K0172.106', #98 );
#50 = AXIS2_PLACEMENT_3D( '', #99, #100, #101 );
#53 = LENGTH_MEASURE_WITH_UNIT( LENGTH_MEASURE( 1.00000000000000 ), #102 );
#56 = DIMENSIONAL_EXPONENTS( 1.00000000000000, 0.000000000000000, 0.000000000000000, 0.000000000000000, 0.000000000000000, 0.000000000000000, 0.000000000000000 );
#58 = DIMENSIONAL_EXPONENTS( 0.000000000000000, 0.000000000000000, 0.000000000000000, 0.000000000000000, 0.000000000000000, 0.000000000000000, 0.000000000000000 );
#64 = SURFACE_STYLE_USAGE( .BOTH., #103 );
#65 = FACE_OUTER_BOUND( '', #104, .T. );
#66 = FACE_OUTER_BOUND( '', #105, .T. );
#67 = CYLINDRICAL_SURFACE( '', #106, 8.50000000000000 );
#68 = SURFACE_STYLE_USAGE( .BOTH., #107 );
#69 = FACE_OUTER_BOUND( '', #108, .T. );
#70 = FACE_BOUND( '', #109, .T. );
#71 = CONICAL_SURFACE( '', #110, 866.025403784400, 1.04719755120000 );
#72 = SURFACE_STYLE_USAGE( .BOTH., #111 );
#73 = FACE_BOUND( '', #112, .T. );
#74 = FACE_OUTER_BOUND( '', #113, .T. );
#75 = PLANE( '', #114 );
#76 = SURFACE_STYLE_USAGE( .BOTH., #115 );
#77 = FACE_BOUND( '', #116, .T. );
#78 = FACE_OUTER_BOUND( '', #117, .T. );
#79 = SPHERICAL_SURFACE( '', #118, 45.0000000000000 );
#80 = SURFACE_STYLE_USAGE( .BOTH., #119 );
#81 = FACE_BOUND( '', #120, .T. );
#82 = FACE_OUTER_BOUND( '', #121, .T. );
#83 = CONICAL_SURFACE( '', #122, 8.50000000000000, 0.0767718913000000 );
#84 = SURFACE_STYLE_USAGE( .BOTH., #123 );
#85 = FACE_OUTER_BOUND( '', #124, .T. );
#86 = FACE_OUTER_BOUND( '', #125, .T. );
#87 = CYLINDRICAL_SURFACE( '', #126, 3.10000000000000 );
#88 = SURFACE_STYLE_USAGE( .BOTH., #127 );
#89 = FACE_OUTER_BOUND( '', #128, .T. );
#90 = FACE_OUTER_BOUND( '', #129, .T. );
#91 = CYLINDRICAL_SURFACE( '', #130, 2.45850000000000 );
#92 = SURFACE_STYLE_USAGE( .BOTH., #131 );
#93 = FACE_OUTER_BOUND( '', #132, .T. );
#94 = FACE_BOUND( '', #133, .T. );
#95 = PLANE( '', #134 );
#96 = PRODUCT_CONTEXT( '', #18, 'mechanical' );
#97 = PRODUCT_DEFINITION_FORMATION_WITH_SPECIFIED_SOURCE( ' ', 'NONE', #47, .NOT_KNOWN. );
#98 = CLOSED_SHELL( '', ( #34, #44, #36, #38, #32, #40, #42, #46 ) );
#99 = CARTESIAN_POINT( '', ( 0.000000000000000, 0.000000000000000, 0.000000000000000 ) );
#100 = DIRECTION( '', ( 0.000000000000000, 0.000000000000000, 1.00000000000000 ) );
#101 = DIRECTION( '', ( 1.00000000000000, 0.000000000000000, 0.000000000000000 ) );
#102 =  ( LENGTH_UNIT(  )NAMED_UNIT( #56 )SI_UNIT( .MILLI., .METRE. ) );
#103 = SURFACE_SIDE_STYLE( '', ( #136 ) );
#104 = EDGE_LOOP( '', ( #137 ) );
#105 = EDGE_LOOP( '', ( #138 ) );
#106 = AXIS2_PLACEMENT_3D( '', #139, #140, #141 );
#107 = SURFACE_SIDE_STYLE( '', ( #142 ) );
#108 = EDGE_LOOP( '', ( #143 ) );
#109 = VERTEX_LOOP( '', #144 );
#110 = AXIS2_PLACEMENT_3D( '', #145, #146, #147 );
#111 = SURFACE_SIDE_STYLE( '', ( #148 ) );
#112 = EDGE_LOOP( '', ( #149 ) );
#113 = EDGE_LOOP( '', ( #150 ) );
#114 = AXIS2_PLACEMENT_3D( '', #151, #152, #153 );
#115 = SURFACE_SIDE_STYLE( '', ( #154 ) );
#116 = VERTEX_LOOP( '', #155 );
#117 = EDGE_LOOP( '', ( #156 ) );
#118 = AXIS2_PLACEMENT_3D( '', #157, #158, #159 );
#119 = SURFACE_SIDE_STYLE( '', ( #160 ) );
#120 = EDGE_LOOP( '', ( #161 ) );
#121 = EDGE_LOOP( '', ( #162 ) );
#122 = AXIS2_PLACEMENT_3D( '', #163, #164, #165 );
#123 = SURFACE_SIDE_STYLE( '', ( #166 ) );
#124 = EDGE_LOOP( '', ( #167 ) );
#125 = EDGE_LOOP( '', ( #168 ) );
#126 = AXIS2_PLACEMENT_3D( '', #169, #170, #171 );
#127 = SURFACE_SIDE_STYLE( '', ( #172 ) );
#128 = EDGE_LOOP( '', ( #173 ) );
#129 = EDGE_LOOP( '', ( #174 ) );
#130 = AXIS2_PLACEMENT_3D( '', #175, #176, #177 );
#131 = SURFACE_SIDE_STYLE( '', ( #178 ) );
#132 = EDGE_LOOP( '', ( #179 ) );
#133 = EDGE_LOOP( '', ( #180 ) );
#134 = AXIS2_PLACEMENT_3D( '', #181, #182, #183 );
#136 = SURFACE_STYLE_FILL_AREA( #184 );
#137 = ORIENTED_EDGE( '', *, *, #185, .F. );
#138 = ORIENTED_EDGE( '', *, *, #186, .T. );
#139 = CARTESIAN_POINT( '', ( 0.000000000000000, 0.000000000000000, 0.000000000000000 ) );
#140 = DIRECTION( '', ( -0.000000000000000, 1.00000000000000, 0.000000000000000 ) );
#141 = DIRECTION( '', ( 0.000000000000000, 0.000000000000000, -1.00000000000000 ) );
#142 = SURFACE_STYLE_FILL_AREA( #187 );
#143 = ORIENTED_EDGE( '', *, *, #188, .T. );
#144 = VERTEX_POINT( '', #189 );
#145 = CARTESIAN_POINT( '', ( 0.000000000000000, -484.580584363197, 0.000000000000000 ) );
#146 = DIRECTION( '', ( -0.000000000000000, -1.00000000000000, -0.000000000000000 ) );
#147 = DIRECTION( '', ( 0.000000000000000, 0.000000000000000, -1.00000000000000 ) );
#148 = SURFACE_STYLE_FILL_AREA( #190 );
#149 = ORIENTED_EDGE( '', *, *, #191, .F. );
#150 = ORIENTED_EDGE( '', *, *, #192, .T. );
#151 = CARTESIAN_POINT( '', ( 6.50000000000000, 0.000000000000000, 0.000000000000000 ) );
#152 = DIRECTION( '', ( 0.000000000000000, 1.00000000000000, 0.000000000000000 ) );
#153 = DIRECTION( '', ( 0.000000000000000, -0.000000000000000, 1.00000000000000 ) );
#154 = SURFACE_STYLE_FILL_AREA( #193 );
#155 = VERTEX_POINT( '', #194 );
#156 = ORIENTED_EDGE( '', *, *, #186, .F. );
#157 = CARTESIAN_POINT( '', ( 1.16660153759440E-13, 0.000000000000000, 0.000000000000000 ) );
#158 = DIRECTION( '', ( 0.000000000000000, -1.00000000000000, 0.000000000000000 ) );
#159 = DIRECTION( '', ( 1.00000000000000, 0.000000000000000, 0.000000000000000 ) );
#160 = SURFACE_STYLE_FILL_AREA( #195 );
#161 = ORIENTED_EDGE( '', *, *, #192, .F. );
#162 = ORIENTED_EDGE( '', *, *, #185, .T. );
#163 = CARTESIAN_POINT( '', ( 0.000000000000000, 26.0000000000000, 0.000000000000000 ) );
#164 = DIRECTION( '', ( -0.000000000000000, 1.00000000000000, 0.000000000000000 ) );
#165 = DIRECTION( '', ( 0.000000000000000, -0.000000000000000, 1.00000000000000 ) );
#166 = SURFACE_STYLE_FILL_AREA( #196 );
#167 = ORIENTED_EDGE( '', *, *, #191, .T. );
#168 = ORIENTED_EDGE( '', *, *, #197, .F. );
#169 = CARTESIAN_POINT( '', ( 0.000000000000000, 0.000000000000000, 0.000000000000000 ) );
#170 = DIRECTION( '', ( -0.000000000000000, 1.00000000000000, 0.000000000000000 ) );
#171 = DIRECTION( '', ( 0.000000000000000, 0.000000000000000, -1.00000000000000 ) );
#172 = SURFACE_STYLE_FILL_AREA( #198 );
#173 = ORIENTED_EDGE( '', *, *, #199, .T. );
#174 = ORIENTED_EDGE( '', *, *, #188, .F. );
#175 = CARTESIAN_POINT( '', ( 0.000000000000000, 0.000000000000000, 0.000000000000000 ) );
#176 = DIRECTION( '', ( -0.000000000000000, 1.00000000000000, 0.000000000000000 ) );
#177 = DIRECTION( '', ( 0.000000000000000, 0.000000000000000, -1.00000000000000 ) );
#178 = SURFACE_STYLE_FILL_AREA( #200 );
#179 = ORIENTED_EDGE( '', *, *, #197, .T. );
#180 = ORIENTED_EDGE( '', *, *, #199, .F. );
#181 = CARTESIAN_POINT( '', ( 2.45850000000000, 2.00000000000000, 0.000000000000000 ) );
#182 = DIRECTION( '', ( 0.000000000000000, -1.00000000000000, -0.000000000000000 ) );
#183 = DIRECTION( '', ( 0.000000000000000, 0.000000000000000, -1.00000000000000 ) );
#184 = FILL_AREA_STYLE( '', ( #201 ) );
#185 = EDGE_CURVE( '', #202, #202, #203, .T. );
#186 = EDGE_CURVE( '', #204, #204, #205, .T. );
#187 = FILL_AREA_STYLE( '', ( #206 ) );
#188 = EDGE_CURVE( '', #207, #207, #208, .T. );
#189 = CARTESIAN_POINT( '', ( 0.000000000000000, 15.4194156368027, 0.000000000000000 ) );
#190 = FILL_AREA_STYLE( '', ( #209 ) );
#191 = EDGE_CURVE( '', #210, #210, #211, .T. );
#192 = EDGE_CURVE( '', #212, #212, #213, .T. );
#193 = FILL_AREA_STYLE( '', ( #214 ) );
#194 = CARTESIAN_POINT( '', ( 1.19415609057522E-13, 45.0000000000000, 0.000000000000000 ) );
#195 = FILL_AREA_STYLE( '', ( #215 ) );
#196 = FILL_AREA_STYLE( '', ( #216 ) );
#197 = EDGE_CURVE( '', #217, #217, #218, .T. );
#198 = FILL_AREA_STYLE( '', ( #219 ) );
#199 = EDGE_CURVE( '', #220, #220, #221, .T. );
#200 = FILL_AREA_STYLE( '', ( #222 ) );
#201 = FILL_AREA_STYLE_COLOUR( '', #223 );
#202 = VERTEX_POINT( '', #224 );
#203 = CIRCLE( '', #225, 8.50000000000000 );
#204 = VERTEX_POINT( '', #226 );
#205 = CIRCLE( '', #227, 8.50000000000000 );
#206 = FILL_AREA_STYLE_COLOUR( '', #228 );
#207 = VERTEX_POINT( '', #229 );
#208 = CIRCLE( '', #230, 2.45850000000000 );
#209 = FILL_AREA_STYLE_COLOUR( '', #231 );
#210 = VERTEX_POINT( '', #232 );
#211 = CIRCLE( '', #233, 3.10000000000000 );
#212 = VERTEX_POINT( '', #234 );
#213 = CIRCLE( '', #235, 6.50000000000000 );
#214 = FILL_AREA_STYLE_COLOUR( '', #236 );
#215 = FILL_AREA_STYLE_COLOUR( '', #237 );
#216 = FILL_AREA_STYLE_COLOUR( '', #238 );
#217 = VERTEX_POINT( '', #239 );
#218 = CIRCLE( '', #240, 3.10000000000000 );
#219 = FILL_AREA_STYLE_COLOUR( '', #241 );
#220 = VERTEX_POINT( '', #242 );
#221 = CIRCLE( '', #243, 2.45850000000000 );
#222 = FILL_AREA_STYLE_COLOUR( '', #244 );
#223 = COLOUR_RGB( '', 0.689999997600000, 0.689999997600000, 0.689999997600000 );
#224 = CARTESIAN_POINT( '', ( 0.000000000000000, 26.0000000000000, -8.50000000000000 ) );
#225 = AXIS2_PLACEMENT_3D( '', #245, #246, #247 );
#226 = CARTESIAN_POINT( '', ( 0.000000000000000, 44.1899309798058, -8.50000000000001 ) );
#227 = AXIS2_PLACEMENT_3D( '', #248, #249, #250 );
#228 = COLOUR_RGB( '', 0.689999997600000, 0.689999997600000, 0.689999997600000 );
#229 = CARTESIAN_POINT( '', ( 0.000000000000000, 14.0000000000000, -2.45850000000000 ) );
#230 = AXIS2_PLACEMENT_3D( '', #251, #252, #253 );
#231 = COLOUR_RGB( '', 0.689999997600000, 0.689999997600000, 0.689999997600000 );
#232 = CARTESIAN_POINT( '', ( 0.000000000000000, 0.000000000000000, -3.10000000000000 ) );
#233 = AXIS2_PLACEMENT_3D( '', #254, #255, #256 );
#234 = CARTESIAN_POINT( '', ( 0.000000000000000, 0.000000000000000, -6.50000000000000 ) );
#235 = AXIS2_PLACEMENT_3D( '', #257, #258, #259 );
#236 = COLOUR_RGB( '', 0.689999997600000, 0.689999997600000, 0.689999997600000 );
#237 = COLOUR_RGB( '', 0.689999997600000, 0.689999997600000, 0.689999997600000 );
#238 = COLOUR_RGB( '', 0.689999997600000, 0.689999997600000, 0.689999997600000 );
#239 = CARTESIAN_POINT( '', ( 0.000000000000000, 2.00000000000000, -3.10000000000000 ) );
#240 = AXIS2_PLACEMENT_3D( '', #260, #261, #262 );
#241 = COLOUR_RGB( '', 0.689999997600000, 0.689999997600000, 0.689999997600000 );
#242 = CARTESIAN_POINT( '', ( 0.000000000000000, 2.00000000000000, -2.45850000000000 ) );
#243 = AXIS2_PLACEMENT_3D( '', #263, #264, #265 );
#244 = COLOUR_RGB( '', 0.689999997600000, 0.689999997600000, 0.689999997600000 );
#245 = CARTESIAN_POINT( '', ( 0.000000000000000, 26.0000000000000, 0.000000000000000 ) );
#246 = DIRECTION( '', ( 0.000000000000000, -1.00000000000000, -0.000000000000000 ) );
#247 = DIRECTION( '', ( 0.000000000000000, 0.000000000000000, -1.00000000000000 ) );
#248 = CARTESIAN_POINT( '', ( 0.000000000000000, 44.1899309798058, 0.000000000000000 ) );
#249 = DIRECTION( '', ( 0.000000000000000, -1.00000000000000, -0.000000000000000 ) );
#250 = DIRECTION( '', ( 0.000000000000000, 0.000000000000000, -1.00000000000000 ) );
#251 = CARTESIAN_POINT( '', ( 0.000000000000000, 14.0000000000000, 0.000000000000000 ) );
#252 = DIRECTION( '', ( 0.000000000000000, -1.00000000000000, -0.000000000000000 ) );
#253 = DIRECTION( '', ( 0.000000000000000, 0.000000000000000, -1.00000000000000 ) );
#254 = CARTESIAN_POINT( '', ( 0.000000000000000, 0.000000000000000, 0.000000000000000 ) );
#255 = DIRECTION( '', ( 0.000000000000000, -1.00000000000000, -0.000000000000000 ) );
#256 = DIRECTION( '', ( 0.000000000000000, 0.000000000000000, -1.00000000000000 ) );
#257 = CARTESIAN_POINT( '', ( 0.000000000000000, 0.000000000000000, 0.000000000000000 ) );
#258 = DIRECTION( '', ( 0.000000000000000, -1.00000000000000, -0.000000000000000 ) );
#259 = DIRECTION( '', ( 0.000000000000000, 0.000000000000000, -1.00000000000000 ) );
#260 = CARTESIAN_POINT( '', ( 0.000000000000000, 2.00000000000000, 0.000000000000000 ) );
#261 = DIRECTION( '', ( 0.000000000000000, -1.00000000000000, -0.000000000000000 ) );
#262 = DIRECTION( '', ( 0.000000000000000, 0.000000000000000, -1.00000000000000 ) );
#263 = CARTESIAN_POINT( '', ( 0.000000000000000, 2.00000000000000, 0.000000000000000 ) );
#264 = DIRECTION( '', ( 0.000000000000000, -1.00000000000000, -0.000000000000000 ) );
#265 = DIRECTION( '', ( 0.000000000000000, 0.000000000000000, -1.00000000000000 ) );
ENDSEC;
END-ISO-10303-21;
