ISO-10303-21;
HEADER;
FILE_DESCRIPTION( ( 'STEP AP214' ), '1' );
FILE_NAME( '//goodhand-server/Shared Folders/GoodHand Data/Kipp CAD/K1154/K1154.2341530.stp', '2020-12-10T10:27:03', ( '' ), ( '' ), ' ', 'PARTsolutions', ' ' );
FILE_SCHEMA( ( 'AUTOMOTIVE_DESIGN { 1 0 10303 214 1 1 1 1 }' ) );
ENDSEC;
DATA;
#1 = MECHANICAL_DESIGN_GEOMETRIC_PRESENTATION_REPRESENTATION( ' ', ( #10, #11, #12, #13, #14, #15, #16, #17, #18, #19, #20, #21, #22, #23 ), #6 );
#2 = PRODUCT_DEFINITION_CONTEXT( '', #24, 'design' );
#3 = APPLICATION_PROTOCOL_DEFINITION( 'international standard', 'automotive_design', 2001, #24 );
#4 = PRODUCT_CATEGORY_RELATIONSHIP( 'NONE', 'NONE', #25, #26 );
#5 = SHAPE_DEFINITION_REPRESENTATION( #27, #28 );
#6 =  ( GEOMETRIC_REPRESENTATION_CONTEXT( 3 )GLOBAL_UNCERTAINTY_ASSIGNED_CONTEXT( ( #31 ) )GLOBAL_UNIT_ASSIGNED_CONTEXT( ( #33, #34, #35 ) )REPRESENTATION_CONTEXT( 'NONE', 'WORKSPACE' ) );
#10 = STYLED_ITEM( '', ( #37 ), #38 );
#11 = STYLED_ITEM( '', ( #39 ), #40 );
#12 = STYLED_ITEM( '', ( #41 ), #42 );
#13 = STYLED_ITEM( '', ( #43 ), #44 );
#14 = STYLED_ITEM( '', ( #45 ), #46 );
#15 = STYLED_ITEM( '', ( #47 ), #48 );
#16 = STYLED_ITEM( '', ( #49 ), #50 );
#17 = STYLED_ITEM( '', ( #51 ), #52 );
#18 = STYLED_ITEM( '', ( #53 ), #54 );
#19 = STYLED_ITEM( '', ( #55 ), #56 );
#20 = STYLED_ITEM( '', ( #57 ), #58 );
#21 = STYLED_ITEM( '', ( #59 ), #60 );
#22 = STYLED_ITEM( '', ( #61 ), #62 );
#23 = STYLED_ITEM( '', ( #63 ), #64 );
#24 = APPLICATION_CONTEXT( 'core data for automotive mechanical design processes' );
#25 = PRODUCT_CATEGORY( 'part', 'NONE' );
#26 = PRODUCT_RELATED_PRODUCT_CATEGORY( 'detail', ' ', ( #65 ) );
#27 = PRODUCT_DEFINITION_SHAPE( 'NONE', 'NONE', #66 );
#28 = ADVANCED_BREP_SHAPE_REPRESENTATION( '_K1154.2341530', ( #67, #68 ), #6 );
#31 = UNCERTAINTY_MEASURE_WITH_UNIT( LENGTH_MEASURE( 0.00100000000000000 ), #33, '', '' );
#33 =  ( CONVERSION_BASED_UNIT( 'MILLIMETRE', #71 )LENGTH_UNIT(  )NAMED_UNIT( #74 ) );
#34 =  ( NAMED_UNIT( #76 )PLANE_ANGLE_UNIT(  )SI_UNIT( $, .RADIAN. ) );
#35 =  ( NAMED_UNIT( #76 )SI_UNIT( $, .STERADIAN. )SOLID_ANGLE_UNIT(  ) );
#37 = PRESENTATION_STYLE_ASSIGNMENT( ( #82 ) );
#38 = ADVANCED_FACE( '', ( #83, #84 ), #85, .T. );
#39 = PRESENTATION_STYLE_ASSIGNMENT( ( #86 ) );
#40 = ADVANCED_FACE( '', ( #87, #88, #89, #90, #91 ), #92, .F. );
#41 = PRESENTATION_STYLE_ASSIGNMENT( ( #93 ) );
#42 = ADVANCED_FACE( '', ( #94 ), #95, .F. );
#43 = PRESENTATION_STYLE_ASSIGNMENT( ( #96 ) );
#44 = ADVANCED_FACE( '', ( #97, #98 ), #99, .F. );
#45 = PRESENTATION_STYLE_ASSIGNMENT( ( #100 ) );
#46 = ADVANCED_FACE( '', ( #101, #102 ), #103, .F. );
#47 = PRESENTATION_STYLE_ASSIGNMENT( ( #104 ) );
#48 = ADVANCED_FACE( '', ( #105, #106 ), #107, .T. );
#49 = PRESENTATION_STYLE_ASSIGNMENT( ( #108 ) );
#50 = ADVANCED_FACE( '', ( #109, #110 ), #111, .T. );
#51 = PRESENTATION_STYLE_ASSIGNMENT( ( #112 ) );
#52 = ADVANCED_FACE( '', ( #113, #114 ), #115, .F. );
#53 = PRESENTATION_STYLE_ASSIGNMENT( ( #116 ) );
#54 = ADVANCED_FACE( '', ( #117, #118 ), #119, .F. );
#55 = PRESENTATION_STYLE_ASSIGNMENT( ( #120 ) );
#56 = ADVANCED_FACE( '', ( #121 ), #122, .T. );
#57 = PRESENTATION_STYLE_ASSIGNMENT( ( #123 ) );
#58 = ADVANCED_FACE( '', ( #124, #125 ), #126, .F. );
#59 = PRESENTATION_STYLE_ASSIGNMENT( ( #127 ) );
#60 = ADVANCED_FACE( '', ( #128, #129, #130, #131, #132 ), #133, .F. );
#61 = PRESENTATION_STYLE_ASSIGNMENT( ( #134 ) );
#62 = ADVANCED_FACE( '', ( #135, #136 ), #137, .F. );
#63 = PRESENTATION_STYLE_ASSIGNMENT( ( #138 ) );
#64 = ADVANCED_FACE( '', ( #139, #140 ), #141, .T. );
#65 = PRODUCT( '_K1154.2341530', '_K1154.2341530', 'PART-_K1154.2341530-DESC', ( #142 ) );
#66 = PRODUCT_DEFINITION( 'NONE', 'NONE', #143, #2 );
#67 = MANIFOLD_SOLID_BREP( '_K1154.2341530', #144 );
#68 = AXIS2_PLACEMENT_3D( '', #145, #146, #147 );
#71 = LENGTH_MEASURE_WITH_UNIT( LENGTH_MEASURE( 1.00000000000000 ), #148 );
#74 = DIMENSIONAL_EXPONENTS( 1.00000000000000, 0.000000000000000, 0.000000000000000, 0.000000000000000, 0.000000000000000, 0.000000000000000, 0.000000000000000 );
#76 = DIMENSIONAL_EXPONENTS( 0.000000000000000, 0.000000000000000, 0.000000000000000, 0.000000000000000, 0.000000000000000, 0.000000000000000, 0.000000000000000 );
#82 = SURFACE_STYLE_USAGE( .BOTH., #149 );
#83 = FACE_OUTER_BOUND( '', #150, .T. );
#84 = FACE_BOUND( '', #151, .T. );
#85 = CONICAL_SURFACE( '', #152, 13.6600000000000, 1.15927948070000 );
#86 = SURFACE_STYLE_USAGE( .BOTH., #153 );
#87 = FACE_OUTER_BOUND( '', #154, .T. );
#88 = FACE_BOUND( '', #155, .T. );
#89 = FACE_BOUND( '', #156, .T. );
#90 = FACE_BOUND( '', #157, .T. );
#91 = FACE_BOUND( '', #158, .T. );
#92 = PLANE( '', #159 );
#93 = SURFACE_STYLE_USAGE( .BOTH., #160 );
#94 = FACE_OUTER_BOUND( '', #161, .T. );
#95 = PLANE( '', #162 );
#96 = SURFACE_STYLE_USAGE( .BOTH., #163 );
#97 = FACE_OUTER_BOUND( '', #164, .T. );
#98 = FACE_BOUND( '', #165, .T. );
#99 = CONICAL_SURFACE( '', #166, 14.5000000000000, 1.19028994970000 );
#100 = SURFACE_STYLE_USAGE( .BOTH., #167 );
#101 = FACE_OUTER_BOUND( '', #168, .T. );
#102 = FACE_OUTER_BOUND( '', #169, .T. );
#103 = CYLINDRICAL_SURFACE( '', #170, 1.50000000000000 );
#104 = SURFACE_STYLE_USAGE( .BOTH., #171 );
#105 = FACE_OUTER_BOUND( '', #172, .T. );
#106 = FACE_OUTER_BOUND( '', #173, .T. );
#107 = CYLINDRICAL_SURFACE( '', #174, 17.0000000000000 );
#108 = SURFACE_STYLE_USAGE( .BOTH., #175 );
#109 = FACE_OUTER_BOUND( '', #176, .T. );
#110 = FACE_OUTER_BOUND( '', #177, .T. );
#111 = CYLINDRICAL_SURFACE( '', #178, 25.0000000000000 );
#112 = SURFACE_STYLE_USAGE( .BOTH., #179 );
#113 = FACE_OUTER_BOUND( '', #180, .T. );
#114 = FACE_OUTER_BOUND( '', #181, .T. );
#115 = CYLINDRICAL_SURFACE( '', #182, 12.5000000000000 );
#116 = SURFACE_STYLE_USAGE( .BOTH., #183 );
#117 = FACE_OUTER_BOUND( '', #184, .T. );
#118 = FACE_OUTER_BOUND( '', #185, .T. );
#119 = CYLINDRICAL_SURFACE( '', #186, 1.50000000000000 );
#120 = SURFACE_STYLE_USAGE( .BOTH., #187 );
#121 = FACE_OUTER_BOUND( '', #188, .T. );
#122 = PLANE( '', #189 );
#123 = SURFACE_STYLE_USAGE( .BOTH., #190 );
#124 = FACE_OUTER_BOUND( '', #191, .T. );
#125 = FACE_BOUND( '', #192, .T. );
#126 = CONICAL_SURFACE( '', #193, 12.5000000000000, 1.15927948070000 );
#127 = SURFACE_STYLE_USAGE( .BOTH., #194 );
#128 = FACE_BOUND( '', #195, .T. );
#129 = FACE_OUTER_BOUND( '', #196, .T. );
#130 = FACE_BOUND( '', #197, .T. );
#131 = FACE_BOUND( '', #198, .T. );
#132 = FACE_BOUND( '', #199, .T. );
#133 = PLANE( '', #200 );
#134 = SURFACE_STYLE_USAGE( .BOTH., #201 );
#135 = FACE_OUTER_BOUND( '', #202, .T. );
#136 = FACE_OUTER_BOUND( '', #203, .T. );
#137 = CYLINDRICAL_SURFACE( '', #204, 1.50000000000000 );
#138 = SURFACE_STYLE_USAGE( .BOTH., #205 );
#139 = FACE_OUTER_BOUND( '', #206, .T. );
#140 = FACE_OUTER_BOUND( '', #207, .T. );
#141 = TOROIDAL_SURFACE( '', #208, 13.5000000000000, 0.400000000000000 );
#142 = PRODUCT_CONTEXT( '', #24, 'mechanical' );
#143 = PRODUCT_DEFINITION_FORMATION_WITH_SPECIFIED_SOURCE( ' ', 'NONE', #65, .NOT_KNOWN. );
#144 = CLOSED_SHELL( '', ( #60, #46, #62, #42, #48, #40, #50, #54, #64, #56, #52, #58, #38, #44 ) );
#145 = CARTESIAN_POINT( '', ( 0.000000000000000, 0.000000000000000, 0.000000000000000 ) );
#146 = DIRECTION( '', ( 0.000000000000000, 0.000000000000000, 1.00000000000000 ) );
#147 = DIRECTION( '', ( 1.00000000000000, 0.000000000000000, 0.000000000000000 ) );
#148 =  ( LENGTH_UNIT(  )NAMED_UNIT( #74 )SI_UNIT( .MILLI., .METRE. ) );
#149 = SURFACE_SIDE_STYLE( '', ( #210 ) );
#150 = EDGE_LOOP( '', ( #211 ) );
#151 = EDGE_LOOP( '', ( #212 ) );
#152 = AXIS2_PLACEMENT_3D( '', #213, #214, #215 );
#153 = SURFACE_SIDE_STYLE( '', ( #216 ) );
#154 = EDGE_LOOP( '', ( #217 ) );
#155 = EDGE_LOOP( '', ( #218 ) );
#156 = EDGE_LOOP( '', ( #219 ) );
#157 = EDGE_LOOP( '', ( #220 ) );
#158 = EDGE_LOOP( '', ( #221 ) );
#159 = AXIS2_PLACEMENT_3D( '', #222, #223, #224 );
#160 = SURFACE_SIDE_STYLE( '', ( #225 ) );
#161 = EDGE_LOOP( '', ( #226 ) );
#162 = AXIS2_PLACEMENT_3D( '', #227, #228, #229 );
#163 = SURFACE_SIDE_STYLE( '', ( #230 ) );
#164 = EDGE_LOOP( '', ( #231 ) );
#165 = EDGE_LOOP( '', ( #232 ) );
#166 = AXIS2_PLACEMENT_3D( '', #233, #234, #235 );
#167 = SURFACE_SIDE_STYLE( '', ( #236 ) );
#168 = EDGE_LOOP( '', ( #237 ) );
#169 = EDGE_LOOP( '', ( #238 ) );
#170 = AXIS2_PLACEMENT_3D( '', #239, #240, #241 );
#171 = SURFACE_SIDE_STYLE( '', ( #242 ) );
#172 = EDGE_LOOP( '', ( #243 ) );
#173 = EDGE_LOOP( '', ( #244 ) );
#174 = AXIS2_PLACEMENT_3D( '', #245, #246, #247 );
#175 = SURFACE_SIDE_STYLE( '', ( #248 ) );
#176 = EDGE_LOOP( '', ( #249 ) );
#177 = EDGE_LOOP( '', ( #250 ) );
#178 = AXIS2_PLACEMENT_3D( '', #251, #252, #253 );
#179 = SURFACE_SIDE_STYLE( '', ( #254 ) );
#180 = EDGE_LOOP( '', ( #255 ) );
#181 = EDGE_LOOP( '', ( #256 ) );
#182 = AXIS2_PLACEMENT_3D( '', #257, #258, #259 );
#183 = SURFACE_SIDE_STYLE( '', ( #260 ) );
#184 = EDGE_LOOP( '', ( #261 ) );
#185 = EDGE_LOOP( '', ( #262 ) );
#186 = AXIS2_PLACEMENT_3D( '', #263, #264, #265 );
#187 = SURFACE_SIDE_STYLE( '', ( #266 ) );
#188 = EDGE_LOOP( '', ( #267 ) );
#189 = AXIS2_PLACEMENT_3D( '', #268, #269, #270 );
#190 = SURFACE_SIDE_STYLE( '', ( #271 ) );
#191 = EDGE_LOOP( '', ( #272 ) );
#192 = EDGE_LOOP( '', ( #273 ) );
#193 = AXIS2_PLACEMENT_3D( '', #274, #275, #276 );
#194 = SURFACE_SIDE_STYLE( '', ( #277 ) );
#195 = EDGE_LOOP( '', ( #278 ) );
#196 = EDGE_LOOP( '', ( #279 ) );
#197 = EDGE_LOOP( '', ( #280 ) );
#198 = EDGE_LOOP( '', ( #281 ) );
#199 = EDGE_LOOP( '', ( #282 ) );
#200 = AXIS2_PLACEMENT_3D( '', #283, #284, #285 );
#201 = SURFACE_SIDE_STYLE( '', ( #286 ) );
#202 = EDGE_LOOP( '', ( #287 ) );
#203 = EDGE_LOOP( '', ( #288 ) );
#204 = AXIS2_PLACEMENT_3D( '', #289, #290, #291 );
#205 = SURFACE_SIDE_STYLE( '', ( #292 ) );
#206 = EDGE_LOOP( '', ( #293 ) );
#207 = EDGE_LOOP( '', ( #294 ) );
#208 = AXIS2_PLACEMENT_3D( '', #295, #296, #297 );
#210 = SURFACE_STYLE_FILL_AREA( #298 );
#211 = ORIENTED_EDGE( '', *, *, #299, .T. );
#212 = ORIENTED_EDGE( '', *, *, #300, .F. );
#213 = CARTESIAN_POINT( '', ( 0.000000000000000, 0.0333939444035368, 0.000000000000000 ) );
#214 = DIRECTION( '', ( -0.000000000000000, 1.00000000000000, 0.000000000000000 ) );
#215 = DIRECTION( '', ( 0.000000000000000, -0.000000000000000, 1.00000000000000 ) );
#216 = SURFACE_STYLE_FILL_AREA( #301 );
#217 = ORIENTED_EDGE( '', *, *, #302, .F. );
#218 = ORIENTED_EDGE( '', *, *, #303, .F. );
#219 = ORIENTED_EDGE( '', *, *, #304, .F. );
#220 = ORIENTED_EDGE( '', *, *, #305, .F. );
#221 = ORIENTED_EDGE( '', *, *, #306, .T. );
#222 = CARTESIAN_POINT( '', ( 17.0000000000000, 5.00000000000000, 0.000000000000000 ) );
#223 = DIRECTION( '', ( 0.000000000000000, -1.00000000000000, -0.000000000000000 ) );
#224 = DIRECTION( '', ( 0.000000000000000, 0.000000000000000, -1.00000000000000 ) );
#225 = SURFACE_STYLE_FILL_AREA( #307 );
#226 = ORIENTED_EDGE( '', *, *, #308, .F. );
#227 = CARTESIAN_POINT( '', ( 0.000000000000000, 15.0000000000000, 0.000000000000000 ) );
#228 = DIRECTION( '', ( 0.000000000000000, -1.00000000000000, -0.000000000000000 ) );
#229 = DIRECTION( '', ( 0.000000000000000, 0.000000000000000, -1.00000000000000 ) );
#230 = SURFACE_STYLE_FILL_AREA( #309 );
#231 = ORIENTED_EDGE( '', *, *, #310, .T. );
#232 = ORIENTED_EDGE( '', *, *, #299, .F. );
#233 = CARTESIAN_POINT( '', ( 0.000000000000000, 0.400000000000006, 0.000000000000000 ) );
#234 = DIRECTION( '', ( -0.000000000000000, -1.00000000000000, -0.000000000000000 ) );
#235 = DIRECTION( '', ( 0.000000000000000, 0.000000000000000, -1.00000000000000 ) );
#236 = SURFACE_STYLE_FILL_AREA( #311 );
#237 = ORIENTED_EDGE( '', *, *, #305, .T. );
#238 = ORIENTED_EDGE( '', *, *, #312, .F. );
#239 = CARTESIAN_POINT( '', ( -21.5000000000000, 5.00000000000000, 0.000000000000000 ) );
#240 = DIRECTION( '', ( -0.000000000000000, 1.00000000000000, 0.000000000000000 ) );
#241 = DIRECTION( '', ( 0.000000000000000, 0.000000000000000, -1.00000000000000 ) );
#242 = SURFACE_STYLE_FILL_AREA( #313 );
#243 = ORIENTED_EDGE( '', *, *, #306, .F. );
#244 = ORIENTED_EDGE( '', *, *, #308, .T. );
#245 = CARTESIAN_POINT( '', ( 0.000000000000000, 0.000000000000000, 0.000000000000000 ) );
#246 = DIRECTION( '', ( -0.000000000000000, 1.00000000000000, 0.000000000000000 ) );
#247 = DIRECTION( '', ( 0.000000000000000, 0.000000000000000, -1.00000000000000 ) );
#248 = SURFACE_STYLE_FILL_AREA( #314 );
#249 = ORIENTED_EDGE( '', *, *, #315, .F. );
#250 = ORIENTED_EDGE( '', *, *, #302, .T. );
#251 = CARTESIAN_POINT( '', ( 0.000000000000000, 0.000000000000000, 0.000000000000000 ) );
#252 = DIRECTION( '', ( -0.000000000000000, 1.00000000000000, 0.000000000000000 ) );
#253 = DIRECTION( '', ( 0.000000000000000, 0.000000000000000, -1.00000000000000 ) );
#254 = SURFACE_STYLE_FILL_AREA( #316 );
#255 = ORIENTED_EDGE( '', *, *, #317, .T. );
#256 = ORIENTED_EDGE( '', *, *, #318, .F. );
#257 = CARTESIAN_POINT( '', ( 0.000000000000000, -2.00000000000000, 0.000000000000000 ) );
#258 = DIRECTION( '', ( -0.000000000000000, 1.00000000000000, 0.000000000000000 ) );
#259 = DIRECTION( '', ( 0.000000000000000, 0.000000000000000, -1.00000000000000 ) );
#260 = SURFACE_STYLE_FILL_AREA( #319 );
#261 = ORIENTED_EDGE( '', *, *, #303, .T. );
#262 = ORIENTED_EDGE( '', *, *, #320, .F. );
#263 = CARTESIAN_POINT( '', ( 10.7500000000000, 5.00000000000000, -18.6195461813654 ) );
#264 = DIRECTION( '', ( -0.000000000000000, 1.00000000000000, -0.000000000000000 ) );
#265 = DIRECTION( '', ( 0.866025403784439, 0.000000000000000, 0.500000000000000 ) );
#266 = SURFACE_STYLE_FILL_AREA( #321 );
#267 = ORIENTED_EDGE( '', *, *, #318, .T. );
#268 = CARTESIAN_POINT( '', ( 0.000000000000000, 1.60000000000000, 0.000000000000000 ) );
#269 = DIRECTION( '', ( 0.000000000000000, -1.00000000000000, -0.000000000000000 ) );
#270 = DIRECTION( '', ( 0.000000000000000, 0.000000000000000, -1.00000000000000 ) );
#271 = SURFACE_STYLE_FILL_AREA( #322 );
#272 = ORIENTED_EDGE( '', *, *, #323, .T. );
#273 = ORIENTED_EDGE( '', *, *, #317, .F. );
#274 = CARTESIAN_POINT( '', ( 0.000000000000000, 0.400000000000000, 0.000000000000000 ) );
#275 = DIRECTION( '', ( -0.000000000000000, -1.00000000000000, -0.000000000000000 ) );
#276 = DIRECTION( '', ( 0.000000000000000, 0.000000000000000, -1.00000000000000 ) );
#277 = SURFACE_STYLE_FILL_AREA( #324 );
#278 = ORIENTED_EDGE( '', *, *, #310, .F. );
#279 = ORIENTED_EDGE( '', *, *, #315, .T. );
#280 = ORIENTED_EDGE( '', *, *, #320, .T. );
#281 = ORIENTED_EDGE( '', *, *, #325, .T. );
#282 = ORIENTED_EDGE( '', *, *, #312, .T. );
#283 = CARTESIAN_POINT( '', ( 25.0000000000000, 0.000000000000000, 0.000000000000000 ) );
#284 = DIRECTION( '', ( 0.000000000000000, 1.00000000000000, 0.000000000000000 ) );
#285 = DIRECTION( '', ( 0.000000000000000, -0.000000000000000, 1.00000000000000 ) );
#286 = SURFACE_STYLE_FILL_AREA( #326 );
#287 = ORIENTED_EDGE( '', *, *, #304, .T. );
#288 = ORIENTED_EDGE( '', *, *, #325, .F. );
#289 = CARTESIAN_POINT( '', ( 10.7500000000000, 5.00000000000000, 18.6195461813654 ) );
#290 = DIRECTION( '', ( -0.000000000000000, 1.00000000000000, -0.000000000000000 ) );
#291 = DIRECTION( '', ( -0.866025403784439, 0.000000000000000, 0.500000000000000 ) );
#292 = SURFACE_STYLE_FILL_AREA( #327 );
#293 = ORIENTED_EDGE( '', *, *, #300, .T. );
#294 = ORIENTED_EDGE( '', *, *, #323, .F. );
#295 = CARTESIAN_POINT( '', ( 0.000000000000000, 0.400000000000012, 0.000000000000000 ) );
#296 = DIRECTION( '', ( 0.000000000000000, -1.00000000000000, -0.000000000000000 ) );
#297 = DIRECTION( '', ( 0.000000000000000, 0.000000000000000, -1.00000000000000 ) );
#298 = FILL_AREA_STYLE( '', ( #328 ) );
#299 = EDGE_CURVE( '', #329, #329, #330, .T. );
#300 = EDGE_CURVE( '', #331, #331, #332, .T. );
#301 = FILL_AREA_STYLE( '', ( #333 ) );
#302 = EDGE_CURVE( '', #334, #334, #335, .T. );
#303 = EDGE_CURVE( '', #336, #336, #337, .T. );
#304 = EDGE_CURVE( '', #338, #338, #339, .T. );
#305 = EDGE_CURVE( '', #340, #340, #341, .T. );
#306 = EDGE_CURVE( '', #342, #342, #343, .T. );
#307 = FILL_AREA_STYLE( '', ( #344 ) );
#308 = EDGE_CURVE( '', #345, #345, #346, .T. );
#309 = FILL_AREA_STYLE( '', ( #347 ) );
#310 = EDGE_CURVE( '', #348, #348, #349, .T. );
#311 = FILL_AREA_STYLE( '', ( #350 ) );
#312 = EDGE_CURVE( '', #351, #351, #352, .T. );
#313 = FILL_AREA_STYLE( '', ( #353 ) );
#314 = FILL_AREA_STYLE( '', ( #354 ) );
#315 = EDGE_CURVE( '', #355, #355, #356, .T. );
#316 = FILL_AREA_STYLE( '', ( #357 ) );
#317 = EDGE_CURVE( '', #358, #358, #359, .T. );
#318 = EDGE_CURVE( '', #360, #360, #361, .T. );
#319 = FILL_AREA_STYLE( '', ( #362 ) );
#320 = EDGE_CURVE( '', #363, #363, #364, .T. );
#321 = FILL_AREA_STYLE( '', ( #365 ) );
#322 = FILL_AREA_STYLE( '', ( #366 ) );
#323 = EDGE_CURVE( '', #367, #367, #368, .T. );
#324 = FILL_AREA_STYLE( '', ( #369 ) );
#325 = EDGE_CURVE( '', #370, #370, #371, .T. );
#326 = FILL_AREA_STYLE( '', ( #372 ) );
#327 = FILL_AREA_STYLE( '', ( #373 ) );
#328 = FILL_AREA_STYLE_COLOUR( '', #374 );
#329 = VERTEX_POINT( '', #375 );
#330 = CIRCLE( '', #376, 14.5000000000000 );
#331 = VERTEX_POINT( '', #377 );
#332 = CIRCLE( '', #378, 13.6600000000000 );
#333 = FILL_AREA_STYLE_COLOUR( '', #379 );
#334 = VERTEX_POINT( '', #380 );
#335 = CIRCLE( '', #381, 25.0000000000000 );
#336 = VERTEX_POINT( '', #382 );
#337 = CIRCLE( '', #383, 1.50000000000000 );
#338 = VERTEX_POINT( '', #384 );
#339 = CIRCLE( '', #385, 1.50000000000000 );
#340 = VERTEX_POINT( '', #386 );
#341 = CIRCLE( '', #387, 1.50000000000000 );
#342 = VERTEX_POINT( '', #388 );
#343 = CIRCLE( '', #389, 17.0000000000000 );
#344 = FILL_AREA_STYLE_COLOUR( '', #390 );
#345 = VERTEX_POINT( '', #391 );
#346 = CIRCLE( '', #392, 17.0000000000000 );
#347 = FILL_AREA_STYLE_COLOUR( '', #393 );
#348 = VERTEX_POINT( '', #394 );
#349 = CIRCLE( '', #395, 15.5000000000000 );
#350 = FILL_AREA_STYLE_COLOUR( '', #396 );
#351 = VERTEX_POINT( '', #397 );
#352 = CIRCLE( '', #398, 1.50000000000000 );
#353 = FILL_AREA_STYLE_COLOUR( '', #399 );
#354 = FILL_AREA_STYLE_COLOUR( '', #400 );
#355 = VERTEX_POINT( '', #401 );
#356 = CIRCLE( '', #402, 25.0000000000000 );
#357 = FILL_AREA_STYLE_COLOUR( '', #403 );
#358 = VERTEX_POINT( '', #404 );
#359 = CIRCLE( '', #405, 12.5000000000000 );
#360 = VERTEX_POINT( '', #406 );
#361 = CIRCLE( '', #407, 12.5000000000000 );
#362 = FILL_AREA_STYLE_COLOUR( '', #408 );
#363 = VERTEX_POINT( '', #409 );
#364 = CIRCLE( '', #410, 1.50000000000000 );
#365 = FILL_AREA_STYLE_COLOUR( '', #411 );
#366 = FILL_AREA_STYLE_COLOUR( '', #412 );
#367 = VERTEX_POINT( '', #413 );
#368 = CIRCLE( '', #414, 13.3400000000000 );
#369 = FILL_AREA_STYLE_COLOUR( '', #415 );
#370 = VERTEX_POINT( '', #416 );
#371 = CIRCLE( '', #417, 1.50000000000000 );
#372 = FILL_AREA_STYLE_COLOUR( '', #418 );
#373 = FILL_AREA_STYLE_COLOUR( '', #419 );
#374 = COLOUR_RGB( '', 0.689999997600000, 0.689999997600000, 0.689999997600000 );
#375 = CARTESIAN_POINT( '', ( 0.000000000000000, 0.400000000000006, -14.5000000000000 ) );
#376 = AXIS2_PLACEMENT_3D( '', #420, #421, #422 );
#377 = CARTESIAN_POINT( '', ( 0.000000000000000, 0.0333939444035368, -13.6600000000000 ) );
#378 = AXIS2_PLACEMENT_3D( '', #423, #424, #425 );
#379 = COLOUR_RGB( '', 0.689999997600000, 0.689999997600000, 0.689999997600000 );
#380 = CARTESIAN_POINT( '', ( 0.000000000000000, 5.00000000000000, -25.0000000000000 ) );
#381 = AXIS2_PLACEMENT_3D( '', #426, #427, #428 );
#382 = CARTESIAN_POINT( '', ( 10.0000000000000, 5.00000000000000, -17.3205080756888 ) );
#383 = AXIS2_PLACEMENT_3D( '', #429, #430, #431 );
#384 = CARTESIAN_POINT( '', ( 10.0000000000000, 5.00000000000000, 17.3205080756888 ) );
#385 = AXIS2_PLACEMENT_3D( '', #432, #433, #434 );
#386 = CARTESIAN_POINT( '', ( -20.0000000000000, 5.00000000000000, 0.000000000000000 ) );
#387 = AXIS2_PLACEMENT_3D( '', #435, #436, #437 );
#388 = CARTESIAN_POINT( '', ( 0.000000000000000, 5.00000000000000, -17.0000000000000 ) );
#389 = AXIS2_PLACEMENT_3D( '', #438, #439, #440 );
#390 = COLOUR_RGB( '', 0.689999997600000, 0.689999997600000, 0.689999997600000 );
#391 = CARTESIAN_POINT( '', ( 0.000000000000000, 15.0000000000000, -17.0000000000000 ) );
#392 = AXIS2_PLACEMENT_3D( '', #441, #442, #443 );
#393 = COLOUR_RGB( '', 0.689999997600000, 0.689999997600000, 0.689999997600000 );
#394 = CARTESIAN_POINT( '', ( 0.000000000000000, 0.000000000000000, -15.5000000000000 ) );
#395 = AXIS2_PLACEMENT_3D( '', #444, #445, #446 );
#396 = COLOUR_RGB( '', 0.689999997600000, 0.689999997600000, 0.689999997600000 );
#397 = CARTESIAN_POINT( '', ( -20.0000000000000, 0.000000000000000, 0.000000000000000 ) );
#398 = AXIS2_PLACEMENT_3D( '', #447, #448, #449 );
#399 = COLOUR_RGB( '', 0.689999997600000, 0.689999997600000, 0.689999997600000 );
#400 = COLOUR_RGB( '', 0.689999997600000, 0.689999997600000, 0.689999997600000 );
#401 = CARTESIAN_POINT( '', ( 0.000000000000000, 0.000000000000000, -25.0000000000000 ) );
#402 = AXIS2_PLACEMENT_3D( '', #450, #451, #452 );
#403 = COLOUR_RGB( '', 0.689999997600000, 0.689999997600000, 0.689999997600000 );
#404 = CARTESIAN_POINT( '', ( 0.000000000000000, 0.400000000000000, -12.5000000000000 ) );
#405 = AXIS2_PLACEMENT_3D( '', #453, #454, #455 );
#406 = CARTESIAN_POINT( '', ( 0.000000000000000, 1.60000000000000, -12.5000000000000 ) );
#407 = AXIS2_PLACEMENT_3D( '', #456, #457, #458 );
#408 = COLOUR_RGB( '', 0.689999997600000, 0.689999997600000, 0.689999997600000 );
#409 = CARTESIAN_POINT( '', ( 10.0000000000000, 0.000000000000000, -17.3205080756888 ) );
#410 = AXIS2_PLACEMENT_3D( '', #459, #460, #461 );
#411 = COLOUR_RGB( '', 0.689999997600000, 0.689999997600000, 0.689999997600000 );
#412 = COLOUR_RGB( '', 0.689999997600000, 0.689999997600000, 0.689999997600000 );
#413 = CARTESIAN_POINT( '', ( 0.000000000000000, 0.0333939444035355, -13.3400000000000 ) );
#414 = AXIS2_PLACEMENT_3D( '', #462, #463, #464 );
#415 = COLOUR_RGB( '', 0.689999997600000, 0.689999997600000, 0.689999997600000 );
#416 = CARTESIAN_POINT( '', ( 10.0000000000000, 0.000000000000000, 17.3205080756888 ) );
#417 = AXIS2_PLACEMENT_3D( '', #465, #466, #467 );
#418 = COLOUR_RGB( '', 0.689999997600000, 0.689999997600000, 0.689999997600000 );
#419 = COLOUR_RGB( '', 0.689999997600000, 0.689999997600000, 0.689999997600000 );
#420 = CARTESIAN_POINT( '', ( 0.000000000000000, 0.400000000000006, 0.000000000000000 ) );
#421 = DIRECTION( '', ( 0.000000000000000, -1.00000000000000, -0.000000000000000 ) );
#422 = DIRECTION( '', ( 0.000000000000000, 0.000000000000000, -1.00000000000000 ) );
#423 = CARTESIAN_POINT( '', ( 0.000000000000000, 0.0333939444035368, 0.000000000000000 ) );
#424 = DIRECTION( '', ( 0.000000000000000, -1.00000000000000, -0.000000000000000 ) );
#425 = DIRECTION( '', ( 0.000000000000000, 0.000000000000000, -1.00000000000000 ) );
#426 = CARTESIAN_POINT( '', ( 0.000000000000000, 5.00000000000000, 0.000000000000000 ) );
#427 = DIRECTION( '', ( 0.000000000000000, -1.00000000000000, -0.000000000000000 ) );
#428 = DIRECTION( '', ( 0.000000000000000, 0.000000000000000, -1.00000000000000 ) );
#429 = CARTESIAN_POINT( '', ( 10.7500000000000, 5.00000000000000, -18.6195461813654 ) );
#430 = DIRECTION( '', ( 0.000000000000000, 1.00000000000000, 0.000000000000000 ) );
#431 = DIRECTION( '', ( -0.500000000000000, 0.000000000000000, 0.866025403784439 ) );
#432 = CARTESIAN_POINT( '', ( 10.7500000000000, 5.00000000000000, 18.6195461813654 ) );
#433 = DIRECTION( '', ( 0.000000000000000, 1.00000000000000, 0.000000000000000 ) );
#434 = DIRECTION( '', ( -0.500000000000000, 0.000000000000000, -0.866025403784439 ) );
#435 = CARTESIAN_POINT( '', ( -21.5000000000000, 5.00000000000000, 0.000000000000000 ) );
#436 = DIRECTION( '', ( -0.000000000000000, 1.00000000000000, 0.000000000000000 ) );
#437 = DIRECTION( '', ( 1.00000000000000, 0.000000000000000, 0.000000000000000 ) );
#438 = CARTESIAN_POINT( '', ( 0.000000000000000, 5.00000000000000, 0.000000000000000 ) );
#439 = DIRECTION( '', ( 0.000000000000000, -1.00000000000000, -0.000000000000000 ) );
#440 = DIRECTION( '', ( 0.000000000000000, 0.000000000000000, -1.00000000000000 ) );
#441 = CARTESIAN_POINT( '', ( 0.000000000000000, 15.0000000000000, 0.000000000000000 ) );
#442 = DIRECTION( '', ( 0.000000000000000, -1.00000000000000, -0.000000000000000 ) );
#443 = DIRECTION( '', ( 0.000000000000000, 0.000000000000000, -1.00000000000000 ) );
#444 = CARTESIAN_POINT( '', ( 0.000000000000000, 0.000000000000000, 0.000000000000000 ) );
#445 = DIRECTION( '', ( 0.000000000000000, -1.00000000000000, -0.000000000000000 ) );
#446 = DIRECTION( '', ( 0.000000000000000, 0.000000000000000, -1.00000000000000 ) );
#447 = CARTESIAN_POINT( '', ( -21.5000000000000, 0.000000000000000, 0.000000000000000 ) );
#448 = DIRECTION( '', ( -0.000000000000000, 1.00000000000000, 0.000000000000000 ) );
#449 = DIRECTION( '', ( 1.00000000000000, 0.000000000000000, 0.000000000000000 ) );
#450 = CARTESIAN_POINT( '', ( 0.000000000000000, 0.000000000000000, 0.000000000000000 ) );
#451 = DIRECTION( '', ( 0.000000000000000, -1.00000000000000, -0.000000000000000 ) );
#452 = DIRECTION( '', ( 0.000000000000000, 0.000000000000000, -1.00000000000000 ) );
#453 = CARTESIAN_POINT( '', ( 0.000000000000000, 0.400000000000000, 0.000000000000000 ) );
#454 = DIRECTION( '', ( 0.000000000000000, -1.00000000000000, -0.000000000000000 ) );
#455 = DIRECTION( '', ( 0.000000000000000, 0.000000000000000, -1.00000000000000 ) );
#456 = CARTESIAN_POINT( '', ( 0.000000000000000, 1.60000000000000, 0.000000000000000 ) );
#457 = DIRECTION( '', ( 0.000000000000000, -1.00000000000000, -0.000000000000000 ) );
#458 = DIRECTION( '', ( 0.000000000000000, 0.000000000000000, -1.00000000000000 ) );
#459 = CARTESIAN_POINT( '', ( 10.7500000000000, 0.000000000000000, -18.6195461813654 ) );
#460 = DIRECTION( '', ( 0.000000000000000, 1.00000000000000, 0.000000000000000 ) );
#461 = DIRECTION( '', ( -0.500000000000000, 0.000000000000000, 0.866025403784439 ) );
#462 = CARTESIAN_POINT( '', ( 0.000000000000000, 0.0333939444035355, 0.000000000000000 ) );
#463 = DIRECTION( '', ( 0.000000000000000, -1.00000000000000, -0.000000000000000 ) );
#464 = DIRECTION( '', ( 0.000000000000000, 0.000000000000000, -1.00000000000000 ) );
#465 = CARTESIAN_POINT( '', ( 10.7500000000000, 0.000000000000000, 18.6195461813654 ) );
#466 = DIRECTION( '', ( 0.000000000000000, 1.00000000000000, 0.000000000000000 ) );
#467 = DIRECTION( '', ( -0.500000000000000, 0.000000000000000, -0.866025403784439 ) );
ENDSEC;
END-ISO-10303-21;
