ISO-10303-21;
HEADER;
FILE_DESCRIPTION( ( 'STEP AP214' ), '1' );
FILE_NAME( '//goodhand-server/Shared Folders/GoodHand Data/Kipp CAD/K0390/K0390.12X100.stp', '2020-12-07T10:14:45', ( '' ), ( '' ), ' ', 'PARTsolutions', ' ' );
FILE_SCHEMA( ( 'AUTOMOTIVE_DESIGN { 1 0 10303 214 1 1 1 1 }' ) );
ENDSEC;
DATA;
#1 = MECHANICAL_DESIGN_GEOMETRIC_PRESENTATION_REPRESENTATION( ' ', ( #10, #11, #12, #13, #14, #15, #16, #17, #18, #19, #20, #21, #22 ), #6 );
#2 = PRODUCT_DEFINITION_CONTEXT( '', #23, 'design' );
#3 = APPLICATION_PROTOCOL_DEFINITION( 'international standard', 'automotive_design', 2001, #23 );
#4 = PRODUCT_CATEGORY_RELATIONSHIP( 'NONE', 'NONE', #24, #25 );
#5 = SHAPE_DEFINITION_REPRESENTATION( #26, #27 );
#6 =  ( GEOMETRIC_REPRESENTATION_CONTEXT( 3 )GLOBAL_UNCERTAINTY_ASSIGNED_CONTEXT( ( #30 ) )GLOBAL_UNIT_ASSIGNED_CONTEXT( ( #32, #33, #34 ) )REPRESENTATION_CONTEXT( 'NONE', 'WORKSPACE' ) );
#10 = STYLED_ITEM( '', ( #36 ), #37 );
#11 = STYLED_ITEM( '', ( #38 ), #39 );
#12 = STYLED_ITEM( '', ( #40 ), #41 );
#13 = STYLED_ITEM( '', ( #42 ), #43 );
#14 = STYLED_ITEM( '', ( #44 ), #45 );
#15 = STYLED_ITEM( '', ( #46 ), #47 );
#16 = STYLED_ITEM( '', ( #48 ), #49 );
#17 = STYLED_ITEM( '', ( #50 ), #51 );
#18 = STYLED_ITEM( '', ( #52 ), #53 );
#19 = STYLED_ITEM( '', ( #54 ), #55 );
#20 = STYLED_ITEM( '', ( #56 ), #57 );
#21 = STYLED_ITEM( '', ( #58 ), #59 );
#22 = STYLED_ITEM( '', ( #60 ), #61 );
#23 = APPLICATION_CONTEXT( 'core data for automotive mechanical design processes' );
#24 = PRODUCT_CATEGORY( 'part', 'NONE' );
#25 = PRODUCT_RELATED_PRODUCT_CATEGORY( 'detail', ' ', ( #62 ) );
#26 = PRODUCT_DEFINITION_SHAPE( 'NONE', 'NONE', #63 );
#27 = ADVANCED_BREP_SHAPE_REPRESENTATION( '_K0390.12X100', ( #64, #65 ), #6 );
#30 = UNCERTAINTY_MEASURE_WITH_UNIT( LENGTH_MEASURE( 0.00100000000000000 ), #32, '', '' );
#32 =  ( CONVERSION_BASED_UNIT( 'MILLIMETRE', #68 )LENGTH_UNIT(  )NAMED_UNIT( #71 ) );
#33 =  ( NAMED_UNIT( #73 )PLANE_ANGLE_UNIT(  )SI_UNIT( $, .RADIAN. ) );
#34 =  ( NAMED_UNIT( #73 )SI_UNIT( $, .STERADIAN. )SOLID_ANGLE_UNIT(  ) );
#36 = PRESENTATION_STYLE_ASSIGNMENT( ( #79 ) );
#37 = ADVANCED_FACE( '', ( #80, #81 ), #82, .T. );
#38 = PRESENTATION_STYLE_ASSIGNMENT( ( #83 ) );
#39 = ADVANCED_FACE( '', ( #84, #85 ), #86, .T. );
#40 = PRESENTATION_STYLE_ASSIGNMENT( ( #87 ) );
#41 = ADVANCED_FACE( '', ( #88 ), #89, .T. );
#42 = PRESENTATION_STYLE_ASSIGNMENT( ( #90 ) );
#43 = ADVANCED_FACE( '', ( #91, #92 ), #93, .T. );
#44 = PRESENTATION_STYLE_ASSIGNMENT( ( #94 ) );
#45 = ADVANCED_FACE( '', ( #95, #96 ), #97, .T. );
#46 = PRESENTATION_STYLE_ASSIGNMENT( ( #98 ) );
#47 = ADVANCED_FACE( '', ( #99, #100 ), #101, .F. );
#48 = PRESENTATION_STYLE_ASSIGNMENT( ( #102 ) );
#49 = ADVANCED_FACE( '', ( #103 ), #104, .F. );
#50 = PRESENTATION_STYLE_ASSIGNMENT( ( #105 ) );
#51 = ADVANCED_FACE( '', ( #106 ), #107, .T. );
#52 = PRESENTATION_STYLE_ASSIGNMENT( ( #108 ) );
#53 = ADVANCED_FACE( '', ( #109 ), #110, .F. );
#54 = PRESENTATION_STYLE_ASSIGNMENT( ( #111 ) );
#55 = ADVANCED_FACE( '', ( #112 ), #113, .F. );
#56 = PRESENTATION_STYLE_ASSIGNMENT( ( #114 ) );
#57 = ADVANCED_FACE( '', ( #115 ), #116, .T. );
#58 = PRESENTATION_STYLE_ASSIGNMENT( ( #117 ) );
#59 = ADVANCED_FACE( '', ( #118 ), #119, .F. );
#60 = PRESENTATION_STYLE_ASSIGNMENT( ( #120 ) );
#61 = ADVANCED_FACE( '', ( #121, #122 ), #123, .T. );
#62 = PRODUCT( '_K0390.12X100', '_K0390.12X100', 'PART-_K0390.12X100-DESC', ( #124 ) );
#63 = PRODUCT_DEFINITION( 'NONE', 'NONE', #125, #2 );
#64 = MANIFOLD_SOLID_BREP( '_K0390.12X100', #126 );
#65 = AXIS2_PLACEMENT_3D( '', #127, #128, #129 );
#68 = LENGTH_MEASURE_WITH_UNIT( LENGTH_MEASURE( 1.00000000000000 ), #130 );
#71 = DIMENSIONAL_EXPONENTS( 1.00000000000000, 0.000000000000000, 0.000000000000000, 0.000000000000000, 0.000000000000000, 0.000000000000000, 0.000000000000000 );
#73 = DIMENSIONAL_EXPONENTS( 0.000000000000000, 0.000000000000000, 0.000000000000000, 0.000000000000000, 0.000000000000000, 0.000000000000000, 0.000000000000000 );
#79 = SURFACE_STYLE_USAGE( .BOTH., #131 );
#80 = FACE_OUTER_BOUND( '', #132, .T. );
#81 = FACE_OUTER_BOUND( '', #133, .T. );
#82 = CYLINDRICAL_SURFACE( '', #134, 6.00000000000000 );
#83 = SURFACE_STYLE_USAGE( .BOTH., #135 );
#84 = FACE_BOUND( '', #136, .T. );
#85 = FACE_OUTER_BOUND( '', #137, .T. );
#86 = SPHERICAL_SURFACE( '', #138, 6.70960000000000 );
#87 = SURFACE_STYLE_USAGE( .BOTH., #139 );
#88 = FACE_OUTER_BOUND( '', #140, .T. );
#89 = PLANE( '', #141 );
#90 = SURFACE_STYLE_USAGE( .BOTH., #142 );
#91 = FACE_OUTER_BOUND( '', #143, .T. );
#92 = FACE_OUTER_BOUND( '', #144, .T. );
#93 = CYLINDRICAL_SURFACE( '', #145, 4.00000000000000 );
#94 = SURFACE_STYLE_USAGE( .BOTH., #146 );
#95 = FACE_OUTER_BOUND( '', #147, .T. );
#96 = FACE_OUTER_BOUND( '', #148, .T. );
#97 = CYLINDRICAL_SURFACE( '', #149, 3.60000000000000 );
#98 = SURFACE_STYLE_USAGE( .BOTH., #150 );
#99 = FACE_OUTER_BOUND( '', #151, .T. );
#100 = FACE_BOUND( '', #152, .T. );
#101 = PLANE( '', #153 );
#102 = SURFACE_STYLE_USAGE( .BOTH., #154 );
#103 = FACE_OUTER_BOUND( '', #155, .T. );
#104 = PLANE( '', #156 );
#105 = SURFACE_STYLE_USAGE( .BOTH., #157 );
#106 = FACE_OUTER_BOUND( '', #158, .T. );
#107 = CONICAL_SURFACE( '', #159, 4.92650000000000, 0.785398163400000 );
#108 = SURFACE_STYLE_USAGE( .BOTH., #160 );
#109 = FACE_OUTER_BOUND( '', #161, .T. );
#110 = PLANE( '', #162 );
#111 = SURFACE_STYLE_USAGE( .BOTH., #163 );
#112 = FACE_OUTER_BOUND( '', #164, .T. );
#113 = PLANE( '', #165 );
#114 = SURFACE_STYLE_USAGE( .BOTH., #166 );
#115 = FACE_OUTER_BOUND( '', #167, .T. );
#116 = CONICAL_SURFACE( '', #168, 4.92650000000000, 0.785398163400000 );
#117 = SURFACE_STYLE_USAGE( .BOTH., #169 );
#118 = FACE_OUTER_BOUND( '', #170, .T. );
#119 = PLANE( '', #171 );
#120 = SURFACE_STYLE_USAGE( .BOTH., #172 );
#121 = FACE_BOUND( '', #173, .T. );
#122 = FACE_OUTER_BOUND( '', #174, .T. );
#123 = CONICAL_SURFACE( '', #175, 6.00000000000000, 1.18946407340000 );
#124 = PRODUCT_CONTEXT( '', #23, 'mechanical' );
#125 = PRODUCT_DEFINITION_FORMATION_WITH_SPECIFIED_SOURCE( ' ', 'NONE', #62, .NOT_KNOWN. );
#126 = CLOSED_SHELL( '', ( #49, #55, #39, #43, #47, #45, #61, #37, #51, #53, #57, #59, #41 ) );
#127 = CARTESIAN_POINT( '', ( 0.000000000000000, 0.000000000000000, 0.000000000000000 ) );
#128 = DIRECTION( '', ( 0.000000000000000, 0.000000000000000, 1.00000000000000 ) );
#129 = DIRECTION( '', ( 1.00000000000000, 0.000000000000000, 0.000000000000000 ) );
#130 =  ( LENGTH_UNIT(  )NAMED_UNIT( #71 )SI_UNIT( .MILLI., .METRE. ) );
#131 = SURFACE_SIDE_STYLE( '', ( #177 ) );
#132 = EDGE_LOOP( '', ( #178 ) );
#133 = EDGE_LOOP( '', ( #179, #180, #181, #182, #183, #184, #185, #186 ) );
#134 = AXIS2_PLACEMENT_3D( '', #187, #188, #189 );
#135 = SURFACE_SIDE_STYLE( '', ( #190 ) );
#136 = VERTEX_LOOP( '', #191 );
#137 = EDGE_LOOP( '', ( #192 ) );
#138 = AXIS2_PLACEMENT_3D( '', #193, #194, #195 );
#139 = SURFACE_SIDE_STYLE( '', ( #196 ) );
#140 = EDGE_LOOP( '', ( #197, #198, #199, #200 ) );
#141 = AXIS2_PLACEMENT_3D( '', #201, #202, #203 );
#142 = SURFACE_SIDE_STYLE( '', ( #204 ) );
#143 = EDGE_LOOP( '', ( #205 ) );
#144 = EDGE_LOOP( '', ( #206 ) );
#145 = AXIS2_PLACEMENT_3D( '', #207, #208, #209 );
#146 = SURFACE_SIDE_STYLE( '', ( #210 ) );
#147 = EDGE_LOOP( '', ( #211 ) );
#148 = EDGE_LOOP( '', ( #212 ) );
#149 = AXIS2_PLACEMENT_3D( '', #213, #214, #215 );
#150 = SURFACE_SIDE_STYLE( '', ( #216 ) );
#151 = EDGE_LOOP( '', ( #217 ) );
#152 = EDGE_LOOP( '', ( #218 ) );
#153 = AXIS2_PLACEMENT_3D( '', #219, #220, #221 );
#154 = SURFACE_SIDE_STYLE( '', ( #222 ) );
#155 = EDGE_LOOP( '', ( #223, #224, #225, #226, #227, #228 ) );
#156 = AXIS2_PLACEMENT_3D( '', #229, #230, #231 );
#157 = SURFACE_SIDE_STYLE( '', ( #232 ) );
#158 = EDGE_LOOP( '', ( #233, #234, #235, #236 ) );
#159 = AXIS2_PLACEMENT_3D( '', #237, #238, #239 );
#160 = SURFACE_SIDE_STYLE( '', ( #240 ) );
#161 = EDGE_LOOP( '', ( #241, #242 ) );
#162 = AXIS2_PLACEMENT_3D( '', #243, #244, #245 );
#163 = SURFACE_SIDE_STYLE( '', ( #246 ) );
#164 = EDGE_LOOP( '', ( #247, #248, #249, #250, #251, #252 ) );
#165 = AXIS2_PLACEMENT_3D( '', #253, #254, #255 );
#166 = SURFACE_SIDE_STYLE( '', ( #256 ) );
#167 = EDGE_LOOP( '', ( #257, #258, #259, #260 ) );
#168 = AXIS2_PLACEMENT_3D( '', #261, #262, #263 );
#169 = SURFACE_SIDE_STYLE( '', ( #264 ) );
#170 = EDGE_LOOP( '', ( #265, #266 ) );
#171 = AXIS2_PLACEMENT_3D( '', #267, #268, #269 );
#172 = SURFACE_SIDE_STYLE( '', ( #270 ) );
#173 = EDGE_LOOP( '', ( #271 ) );
#174 = EDGE_LOOP( '', ( #272 ) );
#175 = AXIS2_PLACEMENT_3D( '', #273, #274, #275 );
#177 = SURFACE_STYLE_FILL_AREA( #276 );
#178 = ORIENTED_EDGE( '', *, *, #277, .F. );
#179 = ORIENTED_EDGE( '', *, *, #278, .T. );
#180 = ORIENTED_EDGE( '', *, *, #279, .T. );
#181 = ORIENTED_EDGE( '', *, *, #280, .F. );
#182 = ORIENTED_EDGE( '', *, *, #281, .T. );
#183 = ORIENTED_EDGE( '', *, *, #282, .T. );
#184 = ORIENTED_EDGE( '', *, *, #283, .T. );
#185 = ORIENTED_EDGE( '', *, *, #284, .F. );
#186 = ORIENTED_EDGE( '', *, *, #285, .T. );
#187 = CARTESIAN_POINT( '', ( 100.000000000000, -5.32907051820075E-15, 0.000000000000000 ) );
#188 = DIRECTION( '', ( -1.00000000000000, 6.12323399573677E-17, 0.000000000000000 ) );
#189 = DIRECTION( '', ( 6.12323399573677E-17, 1.00000000000000, 0.000000000000000 ) );
#190 = SURFACE_STYLE_FILL_AREA( #286 );
#191 = VERTEX_POINT( '', #287 );
#192 = ORIENTED_EDGE( '', *, *, #288, .T. );
#193 = CARTESIAN_POINT( '', ( 93.2904000000002, 5.24753851482984E-14, 0.000000000000000 ) );
#194 = DIRECTION( '', ( 1.00000000000000, 0.000000000000000, 0.000000000000000 ) );
#195 = DIRECTION( '', ( 0.000000000000000, -1.00000000000000, 0.000000000000000 ) );
#196 = SURFACE_STYLE_FILL_AREA( #289 );
#197 = ORIENTED_EDGE( '', *, *, #280, .T. );
#198 = ORIENTED_EDGE( '', *, *, #290, .T. );
#199 = ORIENTED_EDGE( '', *, *, #284, .T. );
#200 = ORIENTED_EDGE( '', *, *, #291, .T. );
#201 = CARTESIAN_POINT( '', ( 3.00000000000000, 0.000000000000000, 0.000000000000000 ) );
#202 = DIRECTION( '', ( -1.00000000000000, 0.000000000000000, 0.000000000000000 ) );
#203 = DIRECTION( '', ( 0.000000000000000, 0.000000000000000, 1.00000000000000 ) );
#204 = SURFACE_STYLE_FILL_AREA( #292 );
#205 = ORIENTED_EDGE( '', *, *, #288, .F. );
#206 = ORIENTED_EDGE( '', *, *, #293, .T. );
#207 = CARTESIAN_POINT( '', ( 100.000000000000, -5.32907051820075E-15, 0.000000000000000 ) );
#208 = DIRECTION( '', ( -1.00000000000000, 6.12323399573677E-17, 0.000000000000000 ) );
#209 = DIRECTION( '', ( 6.12323399573677E-17, 1.00000000000000, 0.000000000000000 ) );
#210 = SURFACE_STYLE_FILL_AREA( #294 );
#211 = ORIENTED_EDGE( '', *, *, #295, .F. );
#212 = ORIENTED_EDGE( '', *, *, #296, .T. );
#213 = CARTESIAN_POINT( '', ( 100.000000000000, -5.32907051820075E-15, 0.000000000000000 ) );
#214 = DIRECTION( '', ( -1.00000000000000, 6.12323399573677E-17, 0.000000000000000 ) );
#215 = DIRECTION( '', ( 6.12323399573677E-17, 1.00000000000000, 0.000000000000000 ) );
#216 = SURFACE_STYLE_FILL_AREA( #297 );
#217 = ORIENTED_EDGE( '', *, *, #293, .F. );
#218 = ORIENTED_EDGE( '', *, *, #295, .T. );
#219 = CARTESIAN_POINT( '', ( 95.5000000000000, 3.60000000000000, 0.000000000000000 ) );
#220 = DIRECTION( '', ( 1.00000000000000, -6.12323399573677E-17, -0.000000000000000 ) );
#221 = DIRECTION( '', ( 6.12323399573677E-17, 1.00000000000000, 0.000000000000000 ) );
#222 = SURFACE_STYLE_FILL_AREA( #298 );
#223 = ORIENTED_EDGE( '', *, *, #299, .F. );
#224 = ORIENTED_EDGE( '', *, *, #300, .T. );
#225 = ORIENTED_EDGE( '', *, *, #301, .F. );
#226 = ORIENTED_EDGE( '', *, *, #281, .F. );
#227 = ORIENTED_EDGE( '', *, *, #291, .F. );
#228 = ORIENTED_EDGE( '', *, *, #283, .F. );
#229 = CARTESIAN_POINT( '', ( 3.00000000000000, 0.900000000000001, 10.5000000000000 ) );
#230 = DIRECTION( '', ( 0.000000000000000, 1.00000000000000, 0.000000000000000 ) );
#231 = DIRECTION( '', ( 0.000000000000000, -0.000000000000000, 1.00000000000000 ) );
#232 = SURFACE_STYLE_FILL_AREA( #302 );
#233 = ORIENTED_EDGE( '', *, *, #303, .T. );
#234 = ORIENTED_EDGE( '', *, *, #299, .T. );
#235 = ORIENTED_EDGE( '', *, *, #282, .F. );
#236 = ORIENTED_EDGE( '', *, *, #301, .T. );
#237 = CARTESIAN_POINT( '', ( 0.000000000000000, 7.94163477536016E-16, 0.000000000000000 ) );
#238 = DIRECTION( '', ( 1.00000000000000, -6.12323399573677E-17, -0.000000000000000 ) );
#239 = DIRECTION( '', ( 6.12323399573677E-17, 1.00000000000000, 0.000000000000000 ) );
#240 = SURFACE_STYLE_FILL_AREA( #304 );
#241 = ORIENTED_EDGE( '', *, *, #305, .F. );
#242 = ORIENTED_EDGE( '', *, *, #306, .F. );
#243 = CARTESIAN_POINT( '', ( -1.50830561399986E-16, 7.94163477536015E-16, 0.000000000000000 ) );
#244 = DIRECTION( '', ( 1.00000000000000, -6.12323399573677E-17, -0.000000000000000 ) );
#245 = DIRECTION( '', ( 6.12323399573677E-17, 1.00000000000000, 0.000000000000000 ) );
#246 = SURFACE_STYLE_FILL_AREA( #307 );
#247 = ORIENTED_EDGE( '', *, *, #306, .T. );
#248 = ORIENTED_EDGE( '', *, *, #308, .F. );
#249 = ORIENTED_EDGE( '', *, *, #285, .F. );
#250 = ORIENTED_EDGE( '', *, *, #290, .F. );
#251 = ORIENTED_EDGE( '', *, *, #279, .F. );
#252 = ORIENTED_EDGE( '', *, *, #309, .F. );
#253 = CARTESIAN_POINT( '', ( 3.00000000000000, -0.899999999999999, -10.5000000000000 ) );
#254 = DIRECTION( '', ( 0.000000000000000, -1.00000000000000, 0.000000000000000 ) );
#255 = DIRECTION( '', ( 0.000000000000000, 0.000000000000000, -1.00000000000000 ) );
#256 = SURFACE_STYLE_FILL_AREA( #310 );
#257 = ORIENTED_EDGE( '', *, *, #278, .F. );
#258 = ORIENTED_EDGE( '', *, *, #308, .T. );
#259 = ORIENTED_EDGE( '', *, *, #305, .T. );
#260 = ORIENTED_EDGE( '', *, *, #309, .T. );
#261 = CARTESIAN_POINT( '', ( 0.000000000000000, 7.94163477536016E-16, 0.000000000000000 ) );
#262 = DIRECTION( '', ( 1.00000000000000, -6.12323399573677E-17, -0.000000000000000 ) );
#263 = DIRECTION( '', ( 6.12323399573677E-17, 1.00000000000000, 0.000000000000000 ) );
#264 = SURFACE_STYLE_FILL_AREA( #311 );
#265 = ORIENTED_EDGE( '', *, *, #303, .F. );
#266 = ORIENTED_EDGE( '', *, *, #300, .F. );
#267 = CARTESIAN_POINT( '', ( -1.50830561399986E-16, 7.94163477536015E-16, 0.000000000000000 ) );
#268 = DIRECTION( '', ( 1.00000000000000, -6.12323399573677E-17, -0.000000000000000 ) );
#269 = DIRECTION( '', ( 6.12323399573677E-17, 1.00000000000000, 0.000000000000000 ) );
#270 = SURFACE_STYLE_FILL_AREA( #312 );
#271 = ORIENTED_EDGE( '', *, *, #296, .F. );
#272 = ORIENTED_EDGE( '', *, *, #277, .T. );
#273 = CARTESIAN_POINT( '', ( 90.0000000000000, -4.71674711862707E-15, 0.000000000000000 ) );
#274 = DIRECTION( '', ( -1.00000000000000, 6.12323399573677E-17, -0.000000000000000 ) );
#275 = DIRECTION( '', ( -6.12323399573677E-17, -1.00000000000000, 0.000000000000000 ) );
#276 = FILL_AREA_STYLE( '', ( #313 ) );
#277 = EDGE_CURVE( '', #314, #314, #315, .T. );
#278 = EDGE_CURVE( '', #316, #317, #318, .T. );
#279 = EDGE_CURVE( '', #317, #319, #320, .T. );
#280 = EDGE_CURVE( '', #321, #319, #322, .T. );
#281 = EDGE_CURVE( '', #321, #323, #324, .F. );
#282 = EDGE_CURVE( '', #323, #325, #326, .T. );
#283 = EDGE_CURVE( '', #325, #327, #328, .T. );
#284 = EDGE_CURVE( '', #329, #327, #330, .T. );
#285 = EDGE_CURVE( '', #329, #316, #331, .F. );
#286 = FILL_AREA_STYLE( '', ( #332 ) );
#287 = CARTESIAN_POINT( '', ( 100.000000000000, 5.16536961319425E-14, 0.000000000000000 ) );
#288 = EDGE_CURVE( '', #333, #333, #334, .T. );
#289 = FILL_AREA_STYLE( '', ( #335 ) );
#290 = EDGE_CURVE( '', #319, #329, #336, .T. );
#291 = EDGE_CURVE( '', #327, #321, #337, .T. );
#292 = FILL_AREA_STYLE( '', ( #338 ) );
#293 = EDGE_CURVE( '', #339, #339, #340, .T. );
#294 = FILL_AREA_STYLE( '', ( #341 ) );
#295 = EDGE_CURVE( '', #342, #342, #343, .T. );
#296 = EDGE_CURVE( '', #344, #344, #345, .T. );
#297 = FILL_AREA_STYLE( '', ( #346 ) );
#298 = FILL_AREA_STYLE( '', ( #347 ) );
#299 = EDGE_CURVE( '', #348, #325, #349, .T. );
#300 = EDGE_CURVE( '', #348, #350, #351, .T. );
#301 = EDGE_CURVE( '', #323, #350, #352, .T. );
#302 = FILL_AREA_STYLE( '', ( #353 ) );
#303 = EDGE_CURVE( '', #350, #348, #354, .T. );
#304 = FILL_AREA_STYLE( '', ( #355 ) );
#305 = EDGE_CURVE( '', #356, #357, #358, .T. );
#306 = EDGE_CURVE( '', #357, #356, #359, .T. );
#307 = FILL_AREA_STYLE( '', ( #360 ) );
#308 = EDGE_CURVE( '', #316, #356, #361, .T. );
#309 = EDGE_CURVE( '', #357, #317, #362, .T. );
#310 = FILL_AREA_STYLE( '', ( #363 ) );
#311 = FILL_AREA_STYLE( '', ( #364 ) );
#312 = FILL_AREA_STYLE( '', ( #365 ) );
#313 = FILL_AREA_STYLE_COLOUR( '', #366 );
#314 = VERTEX_POINT( '', #367 );
#315 = CIRCLE( '', #368, 6.00000000000000 );
#316 = VERTEX_POINT( '', #369 );
#317 = VERTEX_POINT( '', #370 );
#318 = CIRCLE( '', #371, 6.00000000000000 );
#319 = VERTEX_POINT( '', #372 );
#320 = LINE( '', #373, #374 );
#321 = VERTEX_POINT( '', #375 );
#322 = CIRCLE( '', #376, 6.00000000000000 );
#323 = VERTEX_POINT( '', #377 );
#324 = LINE( '', #378, #379 );
#325 = VERTEX_POINT( '', #380 );
#326 = CIRCLE( '', #381, 6.00000000000000 );
#327 = VERTEX_POINT( '', #382 );
#328 = LINE( '', #383, #384 );
#329 = VERTEX_POINT( '', #385 );
#330 = CIRCLE( '', #386, 6.00000000000000 );
#331 = LINE( '', #387, #388 );
#332 = FILL_AREA_STYLE_COLOUR( '', #389 );
#333 = VERTEX_POINT( '', #390 );
#334 = CIRCLE( '', #391, 4.00000000000000 );
#335 = FILL_AREA_STYLE_COLOUR( '', #392 );
#336 = LINE( '', #393, #394 );
#337 = LINE( '', #395, #396 );
#338 = FILL_AREA_STYLE_COLOUR( '', #397 );
#339 = VERTEX_POINT( '', #398 );
#340 = CIRCLE( '', #399, 4.00000000000000 );
#341 = FILL_AREA_STYLE_COLOUR( '', #400 );
#342 = VERTEX_POINT( '', #401 );
#343 = CIRCLE( '', #402, 3.60000000000000 );
#344 = VERTEX_POINT( '', #403 );
#345 = CIRCLE( '', #404, 3.60000000000000 );
#346 = FILL_AREA_STYLE_COLOUR( '', #405 );
#347 = FILL_AREA_STYLE_COLOUR( '', #406 );
#348 = VERTEX_POINT( '', #407 );
#349 = B_SPLINE_CURVE_WITH_KNOTS( '', 3, ( #408, #409, #410, #411 ), .UNSPECIFIED., .F., .F., ( 4, 4 ), ( 0.0245656796122453, 0.0261075036220750 ), .UNSPECIFIED. );
#350 = VERTEX_POINT( '', #412 );
#351 = LINE( '', #413, #414 );
#352 = B_SPLINE_CURVE_WITH_KNOTS( '', 3, ( #415, #416, #417, #418 ), .UNSPECIFIED., .F., .F., ( 4, 4 ), ( 0.0102495533465439, 0.0117783706769766 ), .UNSPECIFIED. );
#353 = FILL_AREA_STYLE_COLOUR( '', #419 );
#354 = CIRCLE( '', #420, 4.92650000000000 );
#355 = FILL_AREA_STYLE_COLOUR( '', #421 );
#356 = VERTEX_POINT( '', #422 );
#357 = VERTEX_POINT( '', #423 );
#358 = CIRCLE( '', #424, 4.92650000000000 );
#359 = LINE( '', #425, #426 );
#360 = FILL_AREA_STYLE_COLOUR( '', #427 );
#361 = B_SPLINE_CURVE_WITH_KNOTS( '', 3, ( #428, #429, #430, #431 ), .UNSPECIFIED., .F., .F., ( 4, 4 ), ( 0.0102495533465439, 0.0117783706769766 ), .UNSPECIFIED. );
#362 = B_SPLINE_CURVE_WITH_KNOTS( '', 3, ( #432, #433, #434, #435 ), .UNSPECIFIED., .F., .F., ( 4, 4 ), ( 0.0245656796122453, 0.0261075036220749 ), .UNSPECIFIED. );
#363 = FILL_AREA_STYLE_COLOUR( '', #436 );
#364 = FILL_AREA_STYLE_COLOUR( '', #437 );
#365 = FILL_AREA_STYLE_COLOUR( '', #438 );
#366 = COLOUR_RGB( '', 0.689999997600000, 0.689999997600000, 0.689999997600000 );
#367 = CARTESIAN_POINT( '', ( 90.0000000000000, 6.00000000000000, 0.000000000000000 ) );
#368 = AXIS2_PLACEMENT_3D( '', #439, #440, #441 );
#369 = CARTESIAN_POINT( '', ( 1.07350000000001, -0.899999999999993, 5.93211597998556 ) );
#370 = CARTESIAN_POINT( '', ( 1.07350000000001, -0.899999999999993, -5.93211597998556 ) );
#371 = AXIS2_PLACEMENT_3D( '', #442, #443, #444 );
#372 = CARTESIAN_POINT( '', ( 3.00000000000000, -0.899999999999999, -5.93211597998556 ) );
#373 = CARTESIAN_POINT( '', ( 100.000000000000, -0.899999999999999, -5.93211597998556 ) );
#374 = VECTOR( '', #445, 1000.00000000000 );
#375 = CARTESIAN_POINT( '', ( 3.00000000000000, 0.900000000000001, -5.93211597998556 ) );
#376 = AXIS2_PLACEMENT_3D( '', #446, #447, #448 );
#377 = CARTESIAN_POINT( '', ( 1.07350000000001, 0.900000000000007, -5.93211597998556 ) );
#378 = CARTESIAN_POINT( '', ( 100.000000000000, 0.900000000000001, -5.93211597998556 ) );
#379 = VECTOR( '', #449, 1000.00000000000 );
#380 = CARTESIAN_POINT( '', ( 1.07350000000001, 0.900000000000007, 5.93211597998556 ) );
#381 = AXIS2_PLACEMENT_3D( '', #450, #451, #452 );
#382 = CARTESIAN_POINT( '', ( 3.00000000000000, 0.900000000000001, 5.93211597998556 ) );
#383 = CARTESIAN_POINT( '', ( 100.000000000000, 0.900000000000001, 5.93211597998556 ) );
#384 = VECTOR( '', #453, 1000.00000000000 );
#385 = CARTESIAN_POINT( '', ( 3.00000000000000, -0.899999999999999, 5.93211597998556 ) );
#386 = AXIS2_PLACEMENT_3D( '', #454, #455, #456 );
#387 = CARTESIAN_POINT( '', ( 100.000000000000, -0.899999999999999, 5.93211597998556 ) );
#388 = VECTOR( '', #457, 1000.00000000000 );
#389 = COLOUR_RGB( '', 0.689999997600000, 0.689999997600000, 0.689999997600000 );
#390 = CARTESIAN_POINT( '', ( 98.6773037637589, 3.99999999999999, 0.000000000000000 ) );
#391 = AXIS2_PLACEMENT_3D( '', #458, #459, #460 );
#392 = COLOUR_RGB( '', 0.689999997600000, 0.689999997600000, 0.689999997600000 );
#393 = CARTESIAN_POINT( '', ( 3.00000000000000, -0.899999999999999, -10.5000000000000 ) );
#394 = VECTOR( '', #461, 1000.00000000000 );
#395 = CARTESIAN_POINT( '', ( 3.00000000000000, 0.900000000000001, 10.5000000000000 ) );
#396 = VECTOR( '', #462, 1000.00000000000 );
#397 = COLOUR_RGB( '', 0.689999997600000, 0.689999997600000, 0.689999997600000 );
#398 = CARTESIAN_POINT( '', ( 95.5000000000000, 4.00000000000000, 0.000000000000000 ) );
#399 = AXIS2_PLACEMENT_3D( '', #463, #464, #465 );
#400 = COLOUR_RGB( '', 0.689999997600000, 0.689999997600000, 0.689999997600000 );
#401 = CARTESIAN_POINT( '', ( 95.5000000000000, 3.59999999999999, 0.000000000000000 ) );
#402 = AXIS2_PLACEMENT_3D( '', #466, #467, #468 );
#403 = CARTESIAN_POINT( '', ( 90.9623000000000, 3.59999999999999, 0.000000000000000 ) );
#404 = AXIS2_PLACEMENT_3D( '', #469, #470, #471 );
#405 = COLOUR_RGB( '', 0.689999997600000, 0.689999997600000, 0.689999997600000 );
#406 = COLOUR_RGB( '', 0.689999997600000, 0.689999997600000, 0.689999997600000 );
#407 = CARTESIAN_POINT( '', ( 0.000000000000000, 0.900000000000001, 4.84359393942143 ) );
#408 = CARTESIAN_POINT( '', ( -1.61025414538714E-16, 0.900000000000001, 4.84359393942143 ) );
#409 = CARTESIAN_POINT( '', ( 0.357276898579810, 0.900000000000001, 5.20698621855697 ) );
#410 = CARTESIAN_POINT( '', ( 0.715211048721681, 0.900000000000001, 5.56972695810484 ) );
#411 = CARTESIAN_POINT( '', ( 1.07350000000000, 0.900000000000001, 5.93211597998556 ) );
#412 = CARTESIAN_POINT( '', ( 0.000000000000000, 0.900000000000001, -4.84359393942143 ) );
#413 = CARTESIAN_POINT( '', ( 0.000000000000000, 0.900000000000001, 10.5000000000000 ) );
#414 = VECTOR( '', #472, 1000.00000000000 );
#415 = CARTESIAN_POINT( '', ( 1.07350000000001, 0.900000000000001, -5.93211597998556 ) );
#416 = CARTESIAN_POINT( '', ( 0.715209951210060, 0.900000000000001, -5.56972584803387 ) );
#417 = CARTESIAN_POINT( '', ( 0.357275562011626, 0.900000000000001, -5.20698485911122 ) );
#418 = CARTESIAN_POINT( '', ( 4.35165057730285E-16, 0.900000000000001, -4.84359393942143 ) );
#419 = COLOUR_RGB( '', 0.689999997600000, 0.689999997600000, 0.689999997600000 );
#420 = AXIS2_PLACEMENT_3D( '', #473, #474, #475 );
#421 = COLOUR_RGB( '', 0.689999997600000, 0.689999997600000, 0.689999997600000 );
#422 = CARTESIAN_POINT( '', ( 0.000000000000000, -0.899999999999999, 4.84359393942143 ) );
#423 = CARTESIAN_POINT( '', ( 0.000000000000000, -0.899999999999999, -4.84359393942143 ) );
#424 = AXIS2_PLACEMENT_3D( '', #476, #477, #478 );
#425 = CARTESIAN_POINT( '', ( 0.000000000000000, -0.899999999999999, -10.5000000000000 ) );
#426 = VECTOR( '', #479, 1000.00000000000 );
#427 = COLOUR_RGB( '', 0.689999997600000, 0.689999997600000, 0.689999997600000 );
#428 = CARTESIAN_POINT( '', ( 1.07350000000001, -0.899999999999999, 5.93211597998556 ) );
#429 = CARTESIAN_POINT( '', ( 0.715209951210060, -0.899999999999999, 5.56972584803387 ) );
#430 = CARTESIAN_POINT( '', ( 0.357275562011624, -0.899999999999999, 5.20698485911122 ) );
#431 = CARTESIAN_POINT( '', ( -9.35312530924730E-16, -0.899999999999999, 4.84359393942143 ) );
#432 = CARTESIAN_POINT( '', ( -3.23835936538105E-16, -0.899999999999999, -4.84359393942143 ) );
#433 = CARTESIAN_POINT( '', ( 0.357276898579810, -0.899999999999999, -5.20698621855697 ) );
#434 = CARTESIAN_POINT( '', ( 0.715211048721683, -0.899999999999999, -5.56972695810484 ) );
#435 = CARTESIAN_POINT( '', ( 1.07350000000001, -0.899999999999999, -5.93211597998556 ) );
#436 = COLOUR_RGB( '', 0.689999997600000, 0.689999997600000, 0.689999997600000 );
#437 = COLOUR_RGB( '', 0.689999997600000, 0.689999997600000, 0.689999997600000 );
#438 = COLOUR_RGB( '', 0.689999997600000, 0.689999997600000, 0.689999997600000 );
#439 = CARTESIAN_POINT( '', ( 90.0000000000000, -4.71674711862707E-15, 0.000000000000000 ) );
#440 = DIRECTION( '', ( 1.00000000000000, -6.12323399573677E-17, -0.000000000000000 ) );
#441 = DIRECTION( '', ( 6.12323399573677E-17, 1.00000000000000, 0.000000000000000 ) );
#442 = CARTESIAN_POINT( '', ( 1.07350000000001, 7.28430560591782E-16, 0.000000000000000 ) );
#443 = DIRECTION( '', ( 1.00000000000000, -6.12323399573677E-17, -0.000000000000000 ) );
#444 = DIRECTION( '', ( 6.12323399573677E-17, 1.00000000000000, 0.000000000000000 ) );
#445 = DIRECTION( '', ( 1.00000000000000, -6.12323399573677E-17, -0.000000000000000 ) );
#446 = CARTESIAN_POINT( '', ( 3.00000000000000, 6.10466457663913E-16, 0.000000000000000 ) );
#447 = DIRECTION( '', ( -1.00000000000000, 0.000000000000000, 0.000000000000000 ) );
#448 = DIRECTION( '', ( 0.000000000000000, 0.000000000000000, 1.00000000000000 ) );
#449 = DIRECTION( '', ( 1.00000000000000, -6.12323399573677E-17, -0.000000000000000 ) );
#450 = CARTESIAN_POINT( '', ( 1.07350000000001, 7.28430560591782E-16, 0.000000000000000 ) );
#451 = DIRECTION( '', ( 1.00000000000000, -6.12323399573677E-17, -0.000000000000000 ) );
#452 = DIRECTION( '', ( 6.12323399573677E-17, 1.00000000000000, 0.000000000000000 ) );
#453 = DIRECTION( '', ( 1.00000000000000, -6.12323399573677E-17, -0.000000000000000 ) );
#454 = CARTESIAN_POINT( '', ( 3.00000000000000, 6.10466457663913E-16, 0.000000000000000 ) );
#455 = DIRECTION( '', ( -1.00000000000000, 0.000000000000000, 0.000000000000000 ) );
#456 = DIRECTION( '', ( 0.000000000000000, 0.000000000000000, 1.00000000000000 ) );
#457 = DIRECTION( '', ( 1.00000000000000, -6.12323399573677E-17, -0.000000000000000 ) );
#458 = CARTESIAN_POINT( '', ( 98.6773037637589, -5.24807873260291E-15, 0.000000000000000 ) );
#459 = DIRECTION( '', ( 1.00000000000000, -6.12323399573677E-17, -0.000000000000000 ) );
#460 = DIRECTION( '', ( 6.12323399573677E-17, 1.00000000000000, 0.000000000000000 ) );
#461 = DIRECTION( '', ( 0.000000000000000, 0.000000000000000, 1.00000000000000 ) );
#462 = DIRECTION( '', ( 0.000000000000000, 0.000000000000000, -1.00000000000000 ) );
#463 = CARTESIAN_POINT( '', ( 95.5000000000000, -5.05352498839260E-15, 0.000000000000000 ) );
#464 = DIRECTION( '', ( 1.00000000000000, -6.12323399573677E-17, -0.000000000000000 ) );
#465 = DIRECTION( '', ( 6.12323399573677E-17, 1.00000000000000, 0.000000000000000 ) );
#466 = CARTESIAN_POINT( '', ( 95.5000000000000, -5.05352498839260E-15, 0.000000000000000 ) );
#467 = DIRECTION( '', ( 1.00000000000000, -6.12323399573677E-17, -0.000000000000000 ) );
#468 = DIRECTION( '', ( 6.12323399573677E-17, 1.00000000000000, 0.000000000000000 ) );
#469 = CARTESIAN_POINT( '', ( 90.9623000000000, -4.77567099936805E-15, 0.000000000000000 ) );
#470 = DIRECTION( '', ( 1.00000000000000, -6.12323399573677E-17, -0.000000000000000 ) );
#471 = DIRECTION( '', ( 6.12323399573677E-17, 1.00000000000000, 0.000000000000000 ) );
#472 = DIRECTION( '', ( 0.000000000000000, 0.000000000000000, -1.00000000000000 ) );
#473 = CARTESIAN_POINT( '', ( 0.000000000000000, 7.94163477536016E-16, 0.000000000000000 ) );
#474 = DIRECTION( '', ( 1.00000000000000, -6.12323399573677E-17, -0.000000000000000 ) );
#475 = DIRECTION( '', ( 6.12323399573677E-17, 1.00000000000000, 0.000000000000000 ) );
#476 = CARTESIAN_POINT( '', ( 0.000000000000000, 7.94163477536016E-16, 0.000000000000000 ) );
#477 = DIRECTION( '', ( 1.00000000000000, -6.12323399573677E-17, -0.000000000000000 ) );
#478 = DIRECTION( '', ( 6.12323399573677E-17, 1.00000000000000, 0.000000000000000 ) );
#479 = DIRECTION( '', ( 0.000000000000000, 0.000000000000000, 1.00000000000000 ) );
ENDSEC;
END-ISO-10303-21;
