ISO-10303-21;
HEADER;
FILE_DESCRIPTION( ( 'STEP AP214' ), '1' );
FILE_NAME( '//goodhand-server/Shared Folders/GoodHand Data/Kipp CAD/K0172/K0172.310.stp', '2020-11-26T10:51:44', ( '' ), ( '' ), ' ', 'PARTsolutions', ' ' );
FILE_SCHEMA( ( 'AUTOMOTIVE_DESIGN { 1 0 10303 214 1 1 1 1 }' ) );
ENDSEC;
DATA;
#1 = MECHANICAL_DESIGN_GEOMETRIC_PRESENTATION_REPRESENTATION( ' ', ( #10, #11, #12, #13, #14, #15, #16 ), #6 );
#2 = PRODUCT_DEFINITION_CONTEXT( '', #17, 'design' );
#3 = APPLICATION_PROTOCOL_DEFINITION( 'international standard', 'automotive_design', 2001, #17 );
#4 = PRODUCT_CATEGORY_RELATIONSHIP( 'NONE', 'NONE', #18, #19 );
#5 = SHAPE_DEFINITION_REPRESENTATION( #20, #21 );
#6 =  ( GEOMETRIC_REPRESENTATION_CONTEXT( 3 )GLOBAL_UNCERTAINTY_ASSIGNED_CONTEXT( ( #24 ) )GLOBAL_UNIT_ASSIGNED_CONTEXT( ( #26, #27, #28 ) )REPRESENTATION_CONTEXT( 'NONE', 'WORKSPACE' ) );
#10 = STYLED_ITEM( '', ( #30 ), #31 );
#11 = STYLED_ITEM( '', ( #32 ), #33 );
#12 = STYLED_ITEM( '', ( #34 ), #35 );
#13 = STYLED_ITEM( '', ( #36 ), #37 );
#14 = STYLED_ITEM( '', ( #38 ), #39 );
#15 = STYLED_ITEM( '', ( #40 ), #41 );
#16 = STYLED_ITEM( '', ( #42 ), #43 );
#17 = APPLICATION_CONTEXT( 'core data for automotive mechanical design processes' );
#18 = PRODUCT_CATEGORY( 'part', 'NONE' );
#19 = PRODUCT_RELATED_PRODUCT_CATEGORY( 'detail', ' ', ( #44 ) );
#20 = PRODUCT_DEFINITION_SHAPE( 'NONE', 'NONE', #45 );
#21 = ADVANCED_BREP_SHAPE_REPRESENTATION( '_K0172.310', ( #46, #47 ), #6 );
#24 = UNCERTAINTY_MEASURE_WITH_UNIT( LENGTH_MEASURE( 0.00100000000000000 ), #26, '', '' );
#26 =  ( CONVERSION_BASED_UNIT( 'MILLIMETRE', #50 )LENGTH_UNIT(  )NAMED_UNIT( #53 ) );
#27 =  ( NAMED_UNIT( #55 )PLANE_ANGLE_UNIT(  )SI_UNIT( $, .RADIAN. ) );
#28 =  ( NAMED_UNIT( #55 )SI_UNIT( $, .STERADIAN. )SOLID_ANGLE_UNIT(  ) );
#30 = PRESENTATION_STYLE_ASSIGNMENT( ( #61 ) );
#31 = ADVANCED_FACE( '', ( #62, #63 ), #64, .F. );
#32 = PRESENTATION_STYLE_ASSIGNMENT( ( #65 ) );
#33 = ADVANCED_FACE( '', ( #66, #67 ), #68, .T. );
#34 = PRESENTATION_STYLE_ASSIGNMENT( ( #69 ) );
#35 = ADVANCED_FACE( '', ( #70, #71 ), #72, .T. );
#36 = PRESENTATION_STYLE_ASSIGNMENT( ( #73 ) );
#37 = ADVANCED_FACE( '', ( #74, #75 ), #76, .T. );
#38 = PRESENTATION_STYLE_ASSIGNMENT( ( #77 ) );
#39 = ADVANCED_FACE( '', ( #78, #79 ), #80, .T. );
#40 = PRESENTATION_STYLE_ASSIGNMENT( ( #81 ) );
#41 = ADVANCED_FACE( '', ( #82, #83 ), #84, .T. );
#42 = PRESENTATION_STYLE_ASSIGNMENT( ( #85 ) );
#43 = ADVANCED_FACE( '', ( #86 ), #87, .F. );
#44 = PRODUCT( '_K0172.310', '_K0172.310', 'PART-_K0172.310-DESC', ( #88 ) );
#45 = PRODUCT_DEFINITION( 'NONE', 'NONE', #89, #2 );
#46 = MANIFOLD_SOLID_BREP( '_K0172.310', #90 );
#47 = AXIS2_PLACEMENT_3D( '', #91, #92, #93 );
#50 = LENGTH_MEASURE_WITH_UNIT( LENGTH_MEASURE( 1.00000000000000 ), #94 );
#53 = DIMENSIONAL_EXPONENTS( 1.00000000000000, 0.000000000000000, 0.000000000000000, 0.000000000000000, 0.000000000000000, 0.000000000000000, 0.000000000000000 );
#55 = DIMENSIONAL_EXPONENTS( 0.000000000000000, 0.000000000000000, 0.000000000000000, 0.000000000000000, 0.000000000000000, 0.000000000000000, 0.000000000000000 );
#61 = SURFACE_STYLE_USAGE( .BOTH., #95 );
#62 = FACE_BOUND( '', #96, .T. );
#63 = FACE_OUTER_BOUND( '', #97, .T. );
#64 = PLANE( '', #98 );
#65 = SURFACE_STYLE_USAGE( .BOTH., #99 );
#66 = FACE_OUTER_BOUND( '', #100, .T. );
#67 = FACE_OUTER_BOUND( '', #101, .T. );
#68 = CYLINDRICAL_SURFACE( '', #102, 5.00000000000000 );
#69 = SURFACE_STYLE_USAGE( .BOTH., #103 );
#70 = FACE_BOUND( '', #104, .T. );
#71 = FACE_OUTER_BOUND( '', #105, .T. );
#72 = CONICAL_SURFACE( '', #106, 14.0000000000000, 0.0831412319000000 );
#73 = SURFACE_STYLE_USAGE( .BOTH., #107 );
#74 = FACE_BOUND( '', #108, .T. );
#75 = FACE_OUTER_BOUND( '', #109, .T. );
#76 = SPHERICAL_SURFACE( '', #110, 71.0000000000000 );
#77 = SURFACE_STYLE_USAGE( .BOTH., #111 );
#78 = FACE_OUTER_BOUND( '', #112, .T. );
#79 = FACE_OUTER_BOUND( '', #113, .T. );
#80 = CYLINDRICAL_SURFACE( '', #114, 14.0000000000000 );
#81 = SURFACE_STYLE_USAGE( .BOTH., #115 );
#82 = FACE_BOUND( '', #116, .T. );
#83 = FACE_OUTER_BOUND( '', #117, .T. );
#84 = CONICAL_SURFACE( '', #118, 5.00000000000000, 0.785398163400000 );
#85 = SURFACE_STYLE_USAGE( .BOTH., #119 );
#86 = FACE_OUTER_BOUND( '', #120, .T. );
#87 = PLANE( '', #121 );
#88 = PRODUCT_CONTEXT( '', #17, 'mechanical' );
#89 = PRODUCT_DEFINITION_FORMATION_WITH_SPECIFIED_SOURCE( ' ', 'NONE', #44, .NOT_KNOWN. );
#90 = CLOSED_SHELL( '', ( #41, #33, #31, #37, #39, #35, #43 ) );
#91 = CARTESIAN_POINT( '', ( 0.000000000000000, 0.000000000000000, 0.000000000000000 ) );
#92 = DIRECTION( '', ( 0.000000000000000, 0.000000000000000, 1.00000000000000 ) );
#93 = DIRECTION( '', ( 1.00000000000000, 0.000000000000000, 0.000000000000000 ) );
#94 =  ( LENGTH_UNIT(  )NAMED_UNIT( #53 )SI_UNIT( .MILLI., .METRE. ) );
#95 = SURFACE_SIDE_STYLE( '', ( #123 ) );
#96 = EDGE_LOOP( '', ( #124 ) );
#97 = EDGE_LOOP( '', ( #125 ) );
#98 = AXIS2_PLACEMENT_3D( '', #126, #127, #128 );
#99 = SURFACE_SIDE_STYLE( '', ( #129 ) );
#100 = EDGE_LOOP( '', ( #130 ) );
#101 = EDGE_LOOP( '', ( #131 ) );
#102 = AXIS2_PLACEMENT_3D( '', #132, #133, #134 );
#103 = SURFACE_SIDE_STYLE( '', ( #135 ) );
#104 = EDGE_LOOP( '', ( #136 ) );
#105 = EDGE_LOOP( '', ( #137 ) );
#106 = AXIS2_PLACEMENT_3D( '', #138, #139, #140 );
#107 = SURFACE_SIDE_STYLE( '', ( #141 ) );
#108 = VERTEX_LOOP( '', #142 );
#109 = EDGE_LOOP( '', ( #143 ) );
#110 = AXIS2_PLACEMENT_3D( '', #144, #145, #146 );
#111 = SURFACE_SIDE_STYLE( '', ( #147 ) );
#112 = EDGE_LOOP( '', ( #148 ) );
#113 = EDGE_LOOP( '', ( #149 ) );
#114 = AXIS2_PLACEMENT_3D( '', #150, #151, #152 );
#115 = SURFACE_SIDE_STYLE( '', ( #153 ) );
#116 = EDGE_LOOP( '', ( #154 ) );
#117 = EDGE_LOOP( '', ( #155 ) );
#118 = AXIS2_PLACEMENT_3D( '', #156, #157, #158 );
#119 = SURFACE_SIDE_STYLE( '', ( #159 ) );
#120 = EDGE_LOOP( '', ( #160 ) );
#121 = AXIS2_PLACEMENT_3D( '', #161, #162, #163 );
#123 = SURFACE_STYLE_FILL_AREA( #164 );
#124 = ORIENTED_EDGE( '', *, *, #165, .F. );
#125 = ORIENTED_EDGE( '', *, *, #166, .T. );
#126 = CARTESIAN_POINT( '', ( 10.5000000000000, 0.000000000000000, 0.000000000000000 ) );
#127 = DIRECTION( '', ( 0.000000000000000, 1.00000000000000, 0.000000000000000 ) );
#128 = DIRECTION( '', ( 0.000000000000000, -0.000000000000000, 1.00000000000000 ) );
#129 = SURFACE_STYLE_FILL_AREA( #167 );
#130 = ORIENTED_EDGE( '', *, *, #168, .F. );
#131 = ORIENTED_EDGE( '', *, *, #165, .T. );
#132 = CARTESIAN_POINT( '', ( 0.000000000000000, -20.0000000000000, 0.000000000000000 ) );
#133 = DIRECTION( '', ( -0.000000000000000, 1.00000000000000, 0.000000000000000 ) );
#134 = DIRECTION( '', ( 0.000000000000000, 0.000000000000000, -1.00000000000000 ) );
#135 = SURFACE_STYLE_FILL_AREA( #169 );
#136 = ORIENTED_EDGE( '', *, *, #166, .F. );
#137 = ORIENTED_EDGE( '', *, *, #170, .T. );
#138 = CARTESIAN_POINT( '', ( 0.000000000000000, 42.0000000000000, 0.000000000000000 ) );
#139 = DIRECTION( '', ( -0.000000000000000, 1.00000000000000, 0.000000000000000 ) );
#140 = DIRECTION( '', ( 0.000000000000000, -0.000000000000000, 1.00000000000000 ) );
#141 = SURFACE_STYLE_FILL_AREA( #171 );
#142 = VERTEX_POINT( '', #172 );
#143 = ORIENTED_EDGE( '', *, *, #173, .F. );
#144 = CARTESIAN_POINT( '', ( -6.50521303491303E-15, 1.52655665885959E-13, 0.000000000000000 ) );
#145 = DIRECTION( '', ( 0.000000000000000, -1.00000000000000, 0.000000000000000 ) );
#146 = DIRECTION( '', ( 1.00000000000000, 0.000000000000000, 0.000000000000000 ) );
#147 = SURFACE_STYLE_FILL_AREA( #174 );
#148 = ORIENTED_EDGE( '', *, *, #170, .F. );
#149 = ORIENTED_EDGE( '', *, *, #173, .T. );
#150 = CARTESIAN_POINT( '', ( 0.000000000000000, 0.000000000000000, 0.000000000000000 ) );
#151 = DIRECTION( '', ( -0.000000000000000, 1.00000000000000, 0.000000000000000 ) );
#152 = DIRECTION( '', ( 0.000000000000000, 0.000000000000000, -1.00000000000000 ) );
#153 = SURFACE_STYLE_FILL_AREA( #175 );
#154 = ORIENTED_EDGE( '', *, *, #176, .F. );
#155 = ORIENTED_EDGE( '', *, *, #168, .T. );
#156 = CARTESIAN_POINT( '', ( 0.000000000000000, -19.0800000000000, 0.000000000000000 ) );
#157 = DIRECTION( '', ( -0.000000000000000, 1.00000000000000, 0.000000000000000 ) );
#158 = DIRECTION( '', ( 0.000000000000000, -0.000000000000000, 1.00000000000000 ) );
#159 = SURFACE_STYLE_FILL_AREA( #177 );
#160 = ORIENTED_EDGE( '', *, *, #176, .T. );
#161 = CARTESIAN_POINT( '', ( 4.08000000000000, -20.0000000000000, 0.000000000000000 ) );
#162 = DIRECTION( '', ( 0.000000000000000, 1.00000000000000, 0.000000000000000 ) );
#163 = DIRECTION( '', ( 0.000000000000000, -0.000000000000000, 1.00000000000000 ) );
#164 = FILL_AREA_STYLE( '', ( #178 ) );
#165 = EDGE_CURVE( '', #179, #179, #180, .F. );
#166 = EDGE_CURVE( '', #181, #181, #182, .T. );
#167 = FILL_AREA_STYLE( '', ( #183 ) );
#168 = EDGE_CURVE( '', #184, #184, #185, .T. );
#169 = FILL_AREA_STYLE( '', ( #186 ) );
#170 = EDGE_CURVE( '', #187, #187, #188, .T. );
#171 = FILL_AREA_STYLE( '', ( #189 ) );
#172 = CARTESIAN_POINT( '', ( -2.15771689793993E-15, 71.0000000000000, 0.000000000000000 ) );
#173 = EDGE_CURVE( '', #190, #190, #191, .T. );
#174 = FILL_AREA_STYLE( '', ( #192 ) );
#175 = FILL_AREA_STYLE( '', ( #193 ) );
#176 = EDGE_CURVE( '', #194, #194, #195, .T. );
#177 = FILL_AREA_STYLE( '', ( #196 ) );
#178 = FILL_AREA_STYLE_COLOUR( '', #197 );
#179 = VERTEX_POINT( '', #198 );
#180 = CIRCLE( '', #199, 5.00000000000000 );
#181 = VERTEX_POINT( '', #200 );
#182 = CIRCLE( '', #201, 10.5000000000000 );
#183 = FILL_AREA_STYLE_COLOUR( '', #202 );
#184 = VERTEX_POINT( '', #203 );
#185 = CIRCLE( '', #204, 5.00000000000000 );
#186 = FILL_AREA_STYLE_COLOUR( '', #205 );
#187 = VERTEX_POINT( '', #206 );
#188 = CIRCLE( '', #207, 14.0000000000000 );
#189 = FILL_AREA_STYLE_COLOUR( '', #208 );
#190 = VERTEX_POINT( '', #209 );
#191 = CIRCLE( '', #210, 14.0000000000000 );
#192 = FILL_AREA_STYLE_COLOUR( '', #211 );
#193 = FILL_AREA_STYLE_COLOUR( '', #212 );
#194 = VERTEX_POINT( '', #213 );
#195 = CIRCLE( '', #214, 4.08000000000000 );
#196 = FILL_AREA_STYLE_COLOUR( '', #215 );
#197 = COLOUR_RGB( '', 0.689999997600000, 0.689999997600000, 0.689999997600000 );
#198 = CARTESIAN_POINT( '', ( 0.000000000000000, 0.000000000000000, 5.00000000000000 ) );
#199 = AXIS2_PLACEMENT_3D( '', #216, #217, #218 );
#200 = CARTESIAN_POINT( '', ( 0.000000000000000, 0.000000000000000, -10.5000000000000 ) );
#201 = AXIS2_PLACEMENT_3D( '', #219, #220, #221 );
#202 = COLOUR_RGB( '', 0.689999997600000, 0.689999997600000, 0.689999997600000 );
#203 = CARTESIAN_POINT( '', ( 0.000000000000000, -19.0800000000000, -5.00000000000000 ) );
#204 = AXIS2_PLACEMENT_3D( '', #222, #223, #224 );
#205 = COLOUR_RGB( '', 0.689999997600000, 0.689999997600000, 0.689999997600000 );
#206 = CARTESIAN_POINT( '', ( 0.000000000000000, 42.0000000000000, -14.0000000000000 ) );
#207 = AXIS2_PLACEMENT_3D( '', #225, #226, #227 );
#208 = COLOUR_RGB( '', 0.689999997600000, 0.689999997600000, 0.689999997600000 );
#209 = CARTESIAN_POINT( '', ( 0.000000000000000, 69.6060342211794, -14.0000000000000 ) );
#210 = AXIS2_PLACEMENT_3D( '', #228, #229, #230 );
#211 = COLOUR_RGB( '', 0.689999997600000, 0.689999997600000, 0.689999997600000 );
#212 = COLOUR_RGB( '', 0.689999997600000, 0.689999997600000, 0.689999997600000 );
#213 = CARTESIAN_POINT( '', ( 0.000000000000000, -20.0000000000000, -4.08000000000000 ) );
#214 = AXIS2_PLACEMENT_3D( '', #231, #232, #233 );
#215 = COLOUR_RGB( '', 0.689999997600000, 0.689999997600000, 0.689999997600000 );
#216 = CARTESIAN_POINT( '', ( 0.000000000000000, 0.000000000000000, 0.000000000000000 ) );
#217 = DIRECTION( '', ( 0.000000000000000, 1.00000000000000, 0.000000000000000 ) );
#218 = DIRECTION( '', ( 0.000000000000000, -0.000000000000000, 1.00000000000000 ) );
#219 = CARTESIAN_POINT( '', ( 0.000000000000000, 0.000000000000000, 0.000000000000000 ) );
#220 = DIRECTION( '', ( 0.000000000000000, -1.00000000000000, -0.000000000000000 ) );
#221 = DIRECTION( '', ( 0.000000000000000, 0.000000000000000, -1.00000000000000 ) );
#222 = CARTESIAN_POINT( '', ( 0.000000000000000, -19.0800000000000, 0.000000000000000 ) );
#223 = DIRECTION( '', ( 0.000000000000000, -1.00000000000000, -0.000000000000000 ) );
#224 = DIRECTION( '', ( 0.000000000000000, 0.000000000000000, -1.00000000000000 ) );
#225 = CARTESIAN_POINT( '', ( 0.000000000000000, 42.0000000000000, 0.000000000000000 ) );
#226 = DIRECTION( '', ( 0.000000000000000, -1.00000000000000, -0.000000000000000 ) );
#227 = DIRECTION( '', ( 0.000000000000000, 0.000000000000000, -1.00000000000000 ) );
#228 = CARTESIAN_POINT( '', ( 0.000000000000000, 69.6060342211794, 0.000000000000000 ) );
#229 = DIRECTION( '', ( 0.000000000000000, -1.00000000000000, -0.000000000000000 ) );
#230 = DIRECTION( '', ( 0.000000000000000, 0.000000000000000, -1.00000000000000 ) );
#231 = CARTESIAN_POINT( '', ( 0.000000000000000, -20.0000000000000, 0.000000000000000 ) );
#232 = DIRECTION( '', ( 0.000000000000000, -1.00000000000000, -0.000000000000000 ) );
#233 = DIRECTION( '', ( 0.000000000000000, 0.000000000000000, -1.00000000000000 ) );
ENDSEC;
END-ISO-10303-21;
