ISO-10303-21;
HEADER;
FILE_DESCRIPTION( ( 'STEP AP214' ), '1' );
FILE_NAME( '//goodhand-server/Shared Folders/GoodHand Data/Kipp CAD/K0163/K0163.1200X22.stp', '2020-11-26T10:29:54', ( '' ), ( '' ), ' ', 'PARTsolutions', ' ' );
FILE_SCHEMA( ( 'AUTOMOTIVE_DESIGN { 1 0 10303 214 1 1 1 1 }' ) );
ENDSEC;
DATA;
#1 = MECHANICAL_DESIGN_GEOMETRIC_PRESENTATION_REPRESENTATION( ' ', ( #10, #11, #12, #13, #14, #15, #16, #17, #18, #19, #20, #21, #22, #23, #24 ), #6 );
#2 = PRODUCT_DEFINITION_CONTEXT( '', #25, 'design' );
#3 = APPLICATION_PROTOCOL_DEFINITION( 'international standard', 'automotive_design', 2001, #25 );
#4 = PRODUCT_CATEGORY_RELATIONSHIP( 'NONE', 'NONE', #26, #27 );
#5 = SHAPE_DEFINITION_REPRESENTATION( #28, #29 );
#6 =  ( GEOMETRIC_REPRESENTATION_CONTEXT( 3 )GLOBAL_UNCERTAINTY_ASSIGNED_CONTEXT( ( #32 ) )GLOBAL_UNIT_ASSIGNED_CONTEXT( ( #34, #35, #36 ) )REPRESENTATION_CONTEXT( 'NONE', 'WORKSPACE' ) );
#10 = STYLED_ITEM( '', ( #38 ), #39 );
#11 = STYLED_ITEM( '', ( #40 ), #41 );
#12 = STYLED_ITEM( '', ( #42 ), #43 );
#13 = STYLED_ITEM( '', ( #44 ), #45 );
#14 = STYLED_ITEM( '', ( #46 ), #47 );
#15 = STYLED_ITEM( '', ( #48 ), #49 );
#16 = STYLED_ITEM( '', ( #50 ), #51 );
#17 = STYLED_ITEM( '', ( #52 ), #53 );
#18 = STYLED_ITEM( '', ( #54 ), #55 );
#19 = STYLED_ITEM( '', ( #56 ), #57 );
#20 = STYLED_ITEM( '', ( #58 ), #59 );
#21 = STYLED_ITEM( '', ( #60 ), #61 );
#22 = STYLED_ITEM( '', ( #62 ), #63 );
#23 = STYLED_ITEM( '', ( #64 ), #65 );
#24 = STYLED_ITEM( '', ( #66 ), #67 );
#25 = APPLICATION_CONTEXT( 'core data for automotive mechanical design processes' );
#26 = PRODUCT_CATEGORY( 'part', 'NONE' );
#27 = PRODUCT_RELATED_PRODUCT_CATEGORY( 'detail', ' ', ( #68 ) );
#28 = PRODUCT_DEFINITION_SHAPE( 'NONE', 'NONE', #69 );
#29 = ADVANCED_BREP_SHAPE_REPRESENTATION( '_K0163.1200X22', ( #70, #71 ), #6 );
#32 = UNCERTAINTY_MEASURE_WITH_UNIT( LENGTH_MEASURE( 0.00100000000000000 ), #34, '', '' );
#34 =  ( CONVERSION_BASED_UNIT( 'MILLIMETRE', #74 )LENGTH_UNIT(  )NAMED_UNIT( #77 ) );
#35 =  ( NAMED_UNIT( #79 )PLANE_ANGLE_UNIT(  )SI_UNIT( $, .RADIAN. ) );
#36 =  ( NAMED_UNIT( #79 )SI_UNIT( $, .STERADIAN. )SOLID_ANGLE_UNIT(  ) );
#38 = PRESENTATION_STYLE_ASSIGNMENT( ( #85 ) );
#39 = ADVANCED_FACE( '', ( #86, #87, #88 ), #89, .T. );
#40 = PRESENTATION_STYLE_ASSIGNMENT( ( #90 ) );
#41 = ADVANCED_FACE( '', ( #91, #92 ), #93, .T. );
#42 = PRESENTATION_STYLE_ASSIGNMENT( ( #94 ) );
#43 = ADVANCED_FACE( '', ( #95 ), #96, .T. );
#44 = PRESENTATION_STYLE_ASSIGNMENT( ( #97 ) );
#45 = ADVANCED_FACE( '', ( #98 ), #99, .F. );
#46 = PRESENTATION_STYLE_ASSIGNMENT( ( #100 ) );
#47 = ADVANCED_FACE( '', ( #101, #102 ), #103, .F. );
#48 = PRESENTATION_STYLE_ASSIGNMENT( ( #104 ) );
#49 = ADVANCED_FACE( '', ( #105, #106 ), #107, .F. );
#50 = PRESENTATION_STYLE_ASSIGNMENT( ( #108 ) );
#51 = ADVANCED_FACE( '', ( #109, #110 ), #111, .F. );
#52 = PRESENTATION_STYLE_ASSIGNMENT( ( #112 ) );
#53 = ADVANCED_FACE( '', ( #113, #114 ), #115, .F. );
#54 = PRESENTATION_STYLE_ASSIGNMENT( ( #116 ) );
#55 = ADVANCED_FACE( '', ( #117, #118 ), #119, .F. );
#56 = PRESENTATION_STYLE_ASSIGNMENT( ( #120 ) );
#57 = ADVANCED_FACE( '', ( #121, #122 ), #123, .T. );
#58 = PRESENTATION_STYLE_ASSIGNMENT( ( #124 ) );
#59 = ADVANCED_FACE( '', ( #125, #126 ), #127, .T. );
#60 = PRESENTATION_STYLE_ASSIGNMENT( ( #128 ) );
#61 = ADVANCED_FACE( '', ( #129, #130 ), #131, .T. );
#62 = PRESENTATION_STYLE_ASSIGNMENT( ( #132 ) );
#63 = ADVANCED_FACE( '', ( #133 ), #134, .T. );
#64 = PRESENTATION_STYLE_ASSIGNMENT( ( #135 ) );
#65 = ADVANCED_FACE( '', ( #136, #137 ), #138, .F. );
#66 = PRESENTATION_STYLE_ASSIGNMENT( ( #139 ) );
#67 = ADVANCED_FACE( '', ( #140 ), #141, .T. );
#68 = PRODUCT( '_K0163.1200X22', '_K0163.1200X22', 'PART-_K0163.1200X22-DESC', ( #142 ) );
#69 = PRODUCT_DEFINITION( 'NONE', 'NONE', #143, #2 );
#70 = MANIFOLD_SOLID_BREP( '_K0163.1200X22', #144 );
#71 = AXIS2_PLACEMENT_3D( '', #145, #146, #147 );
#74 = LENGTH_MEASURE_WITH_UNIT( LENGTH_MEASURE( 1.00000000000000 ), #148 );
#77 = DIMENSIONAL_EXPONENTS( 1.00000000000000, 0.000000000000000, 0.000000000000000, 0.000000000000000, 0.000000000000000, 0.000000000000000, 0.000000000000000 );
#79 = DIMENSIONAL_EXPONENTS( 0.000000000000000, 0.000000000000000, 0.000000000000000, 0.000000000000000, 0.000000000000000, 0.000000000000000, 0.000000000000000 );
#85 = SURFACE_STYLE_USAGE( .BOTH., #149 );
#86 = FACE_BOUND( '', #150, .T. );
#87 = FACE_OUTER_BOUND( '', #151, .T. );
#88 = FACE_OUTER_BOUND( '', #152, .T. );
#89 = TOROIDAL_SURFACE( '', #153, 88.2500000000000, 11.7500000000000 );
#90 = SURFACE_STYLE_USAGE( .BOTH., #154 );
#91 = FACE_OUTER_BOUND( '', #155, .T. );
#92 = FACE_OUTER_BOUND( '', #156, .T. );
#93 = CYLINDRICAL_SURFACE( '', #157, 20.0000000000000 );
#94 = SURFACE_STYLE_USAGE( .BOTH., #158 );
#95 = FACE_OUTER_BOUND( '', #159, .T. );
#96 = PLANE( '', #160 );
#97 = SURFACE_STYLE_USAGE( .BOTH., #161 );
#98 = FACE_OUTER_BOUND( '', #162, .T. );
#99 = CYLINDRICAL_SURFACE( '', #163, 11.0000000000000 );
#100 = SURFACE_STYLE_USAGE( .BOTH., #164 );
#101 = FACE_OUTER_BOUND( '', #165, .T. );
#102 = FACE_BOUND( '', #166, .T. );
#103 = CONICAL_SURFACE( '', #167, 85.5000000000000, 0.472698778500000 );
#104 = SURFACE_STYLE_USAGE( .BOTH., #168 );
#105 = FACE_BOUND( '', #169, .T. );
#106 = FACE_OUTER_BOUND( '', #170, .T. );
#107 = PLANE( '', #171 );
#108 = SURFACE_STYLE_USAGE( .BOTH., #172 );
#109 = FACE_BOUND( '', #173, .T. );
#110 = FACE_OUTER_BOUND( '', #174, .T. );
#111 = CONICAL_SURFACE( '', #175, 85.0000000000000, 1.10714871780000 );
#112 = SURFACE_STYLE_USAGE( .BOTH., #176 );
#113 = FACE_OUTER_BOUND( '', #177, .T. );
#114 = FACE_BOUND( '', #178, .T. );
#115 = CONICAL_SURFACE( '', #179, 20.0000000000000, 1.34813538620000 );
#116 = SURFACE_STYLE_USAGE( .BOTH., #180 );
#117 = FACE_BOUND( '', #181, .T. );
#118 = FACE_OUTER_BOUND( '', #182, .T. );
#119 = CONICAL_SURFACE( '', #183, 86.5000000000000, 0.481751705800000 );
#120 = SURFACE_STYLE_USAGE( .BOTH., #184 );
#121 = FACE_OUTER_BOUND( '', #185, .T. );
#122 = FACE_OUTER_BOUND( '', #186, .T. );
#123 = TOROIDAL_SURFACE( '', #187, 90.0349341703000, 20.0000000000000 );
#124 = SURFACE_STYLE_USAGE( .BOTH., #188 );
#125 = FACE_BOUND( '', #189, .T. );
#126 = FACE_OUTER_BOUND( '', #190, .T. );
#127 = CONICAL_SURFACE( '', #191, 78.0000000000000, 1.35852583110000 );
#128 = SURFACE_STYLE_USAGE( .BOTH., #192 );
#129 = FACE_OUTER_BOUND( '', #193, .T. );
#130 = FACE_OUTER_BOUND( '', #194, .T. );
#131 = CYLINDRICAL_SURFACE( '', #195, 20.0000000000000 );
#132 = SURFACE_STYLE_USAGE( .BOTH., #196 );
#133 = FACE_OUTER_BOUND( '', #197, .T. );
#134 = PLANE( '', #198 );
#135 = SURFACE_STYLE_USAGE( .BOTH., #199 );
#136 = FACE_OUTER_BOUND( '', #200, .T. );
#137 = FACE_BOUND( '', #201, .T. );
#138 = PLANE( '', #202 );
#139 = SURFACE_STYLE_USAGE( .BOTH., #203 );
#140 = FACE_OUTER_BOUND( '', #204, .T. );
#141 = PLANE( '', #205 );
#142 = PRODUCT_CONTEXT( '', #25, 'mechanical' );
#143 = PRODUCT_DEFINITION_FORMATION_WITH_SPECIFIED_SOURCE( ' ', 'NONE', #68, .NOT_KNOWN. );
#144 = CLOSED_SHELL( '', ( #65, #43, #67, #45, #63, #49, #41, #59, #51, #55, #39, #47, #57, #53, #61 ) );
#145 = CARTESIAN_POINT( '', ( 0.000000000000000, 0.000000000000000, 0.000000000000000 ) );
#146 = DIRECTION( '', ( 0.000000000000000, 0.000000000000000, 1.00000000000000 ) );
#147 = DIRECTION( '', ( 1.00000000000000, 0.000000000000000, 0.000000000000000 ) );
#148 =  ( LENGTH_UNIT(  )NAMED_UNIT( #77 )SI_UNIT( .MILLI., .METRE. ) );
#149 = SURFACE_SIDE_STYLE( '', ( #207 ) );
#150 = VERTEX_LOOP( '', #208 );
#151 = EDGE_LOOP( '', ( #209 ) );
#152 = EDGE_LOOP( '', ( #210 ) );
#153 = AXIS2_PLACEMENT_3D( '', #211, #212, #213 );
#154 = SURFACE_SIDE_STYLE( '', ( #214 ) );
#155 = EDGE_LOOP( '', ( #215 ) );
#156 = EDGE_LOOP( '', ( #216 ) );
#157 = AXIS2_PLACEMENT_3D( '', #217, #218, #219 );
#158 = SURFACE_SIDE_STYLE( '', ( #220 ) );
#159 = EDGE_LOOP( '', ( #221, #222, #223, #224 ) );
#160 = AXIS2_PLACEMENT_3D( '', #225, #226, #227 );
#161 = SURFACE_SIDE_STYLE( '', ( #228 ) );
#162 = EDGE_LOOP( '', ( #229, #230, #231, #232 ) );
#163 = AXIS2_PLACEMENT_3D( '', #233, #234, #235 );
#164 = SURFACE_SIDE_STYLE( '', ( #236 ) );
#165 = EDGE_LOOP( '', ( #237 ) );
#166 = EDGE_LOOP( '', ( #238 ) );
#167 = AXIS2_PLACEMENT_3D( '', #239, #240, #241 );
#168 = SURFACE_SIDE_STYLE( '', ( #242 ) );
#169 = EDGE_LOOP( '', ( #243, #244, #245, #246 ) );
#170 = EDGE_LOOP( '', ( #247 ) );
#171 = AXIS2_PLACEMENT_3D( '', #248, #249, #250 );
#172 = SURFACE_SIDE_STYLE( '', ( #251 ) );
#173 = EDGE_LOOP( '', ( #252 ) );
#174 = EDGE_LOOP( '', ( #253 ) );
#175 = AXIS2_PLACEMENT_3D( '', #254, #255, #256 );
#176 = SURFACE_SIDE_STYLE( '', ( #257 ) );
#177 = EDGE_LOOP( '', ( #258 ) );
#178 = EDGE_LOOP( '', ( #259 ) );
#179 = AXIS2_PLACEMENT_3D( '', #260, #261, #262 );
#180 = SURFACE_SIDE_STYLE( '', ( #263 ) );
#181 = EDGE_LOOP( '', ( #264 ) );
#182 = EDGE_LOOP( '', ( #265 ) );
#183 = AXIS2_PLACEMENT_3D( '', #266, #267, #268 );
#184 = SURFACE_SIDE_STYLE( '', ( #269 ) );
#185 = EDGE_LOOP( '', ( #270 ) );
#186 = EDGE_LOOP( '', ( #271 ) );
#187 = AXIS2_PLACEMENT_3D( '', #272, #273, #274 );
#188 = SURFACE_SIDE_STYLE( '', ( #275 ) );
#189 = EDGE_LOOP( '', ( #276 ) );
#190 = EDGE_LOOP( '', ( #277 ) );
#191 = AXIS2_PLACEMENT_3D( '', #278, #279, #280 );
#192 = SURFACE_SIDE_STYLE( '', ( #281 ) );
#193 = EDGE_LOOP( '', ( #282 ) );
#194 = EDGE_LOOP( '', ( #283 ) );
#195 = AXIS2_PLACEMENT_3D( '', #284, #285, #286 );
#196 = SURFACE_SIDE_STYLE( '', ( #287 ) );
#197 = EDGE_LOOP( '', ( #288, #289, #290, #291 ) );
#198 = AXIS2_PLACEMENT_3D( '', #292, #293, #294 );
#199 = SURFACE_SIDE_STYLE( '', ( #295 ) );
#200 = EDGE_LOOP( '', ( #296 ) );
#201 = EDGE_LOOP( '', ( #297, #298, #299, #300 ) );
#202 = AXIS2_PLACEMENT_3D( '', #301, #302, #303 );
#203 = SURFACE_SIDE_STYLE( '', ( #304 ) );
#204 = EDGE_LOOP( '', ( #305, #306, #307, #308 ) );
#205 = AXIS2_PLACEMENT_3D( '', #309, #310, #311 );
#207 = SURFACE_STYLE_FILL_AREA( #312 );
#208 = VERTEX_POINT( '', #313 );
#209 = ORIENTED_EDGE( '', *, *, #314, .T. );
#210 = ORIENTED_EDGE( '', *, *, #315, .F. );
#211 = CARTESIAN_POINT( '', ( 32.2500000000000, 0.000000000000000, 0.000000000000000 ) );
#212 = DIRECTION( '', ( -1.00000000000000, 0.000000000000000, 0.000000000000000 ) );
#213 = DIRECTION( '', ( 0.000000000000000, 0.000000000000000, 1.00000000000000 ) );
#214 = SURFACE_STYLE_FILL_AREA( #316 );
#215 = ORIENTED_EDGE( '', *, *, #317, .F. );
#216 = ORIENTED_EDGE( '', *, *, #318, .T. );
#217 = CARTESIAN_POINT( '', ( 0.000000000000000, 0.000000000000000, 0.000000000000000 ) );
#218 = DIRECTION( '', ( 1.00000000000000, -0.000000000000000, -0.000000000000000 ) );
#219 = DIRECTION( '', ( 0.000000000000000, 0.000000000000000, 1.00000000000000 ) );
#220 = SURFACE_STYLE_FILL_AREA( #319 );
#221 = ORIENTED_EDGE( '', *, *, #320, .T. );
#222 = ORIENTED_EDGE( '', *, *, #321, .T. );
#223 = ORIENTED_EDGE( '', *, *, #322, .F. );
#224 = ORIENTED_EDGE( '', *, *, #323, .F. );
#225 = CARTESIAN_POINT( '', ( 36.0000000000000, 13.8000000000000, -3.00000000000000 ) );
#226 = DIRECTION( '', ( 0.000000000000000, -1.00000000000000, 0.000000000000000 ) );
#227 = DIRECTION( '', ( 0.000000000000000, 0.000000000000000, -1.00000000000000 ) );
#228 = SURFACE_STYLE_FILL_AREA( #324 );
#229 = ORIENTED_EDGE( '', *, *, #325, .T. );
#230 = ORIENTED_EDGE( '', *, *, #326, .T. );
#231 = ORIENTED_EDGE( '', *, *, #327, .T. );
#232 = ORIENTED_EDGE( '', *, *, #328, .F. );
#233 = CARTESIAN_POINT( '', ( 36.0000000000000, 6.23416249179165E-16, 2.16840434497101E-16 ) );
#234 = DIRECTION( '', ( 1.00000000000000, -0.000000000000000, -0.000000000000000 ) );
#235 = DIRECTION( '', ( 0.000000000000000, 0.000000000000000, 1.00000000000000 ) );
#236 = SURFACE_STYLE_FILL_AREA( #329 );
#237 = ORIENTED_EDGE( '', *, *, #314, .F. );
#238 = ORIENTED_EDGE( '', *, *, #330, .T. );
#239 = CARTESIAN_POINT( '', ( 41.0000000000000, 0.000000000000000, 0.000000000000000 ) );
#240 = DIRECTION( '', ( 1.00000000000000, -0.000000000000000, 0.000000000000000 ) );
#241 = DIRECTION( '', ( 0.000000000000000, 0.000000000000000, -1.00000000000000 ) );
#242 = SURFACE_STYLE_FILL_AREA( #331 );
#243 = ORIENTED_EDGE( '', *, *, #332, .T. );
#244 = ORIENTED_EDGE( '', *, *, #327, .F. );
#245 = ORIENTED_EDGE( '', *, *, #333, .T. );
#246 = ORIENTED_EDGE( '', *, *, #322, .T. );
#247 = ORIENTED_EDGE( '', *, *, #317, .T. );
#248 = CARTESIAN_POINT( '', ( 8.67361737988404E-16, -20.0000000000000, 0.000000000000000 ) );
#249 = DIRECTION( '', ( 1.00000000000000, 0.000000000000000, 0.000000000000000 ) );
#250 = DIRECTION( '', ( 0.000000000000000, 0.000000000000000, -1.00000000000000 ) );
#251 = SURFACE_STYLE_FILL_AREA( #334 );
#252 = ORIENTED_EDGE( '', *, *, #335, .F. );
#253 = ORIENTED_EDGE( '', *, *, #336, .T. );
#254 = CARTESIAN_POINT( '', ( 23.5000000000000, 0.000000000000000, 0.000000000000000 ) );
#255 = DIRECTION( '', ( -1.00000000000000, -0.000000000000000, -0.000000000000000 ) );
#256 = DIRECTION( '', ( 0.000000000000000, 0.000000000000000, 1.00000000000000 ) );
#257 = SURFACE_STYLE_FILL_AREA( #337 );
#258 = ORIENTED_EDGE( '', *, *, #338, .F. );
#259 = ORIENTED_EDGE( '', *, *, #339, .T. );
#260 = CARTESIAN_POINT( '', ( 20.0000000000000, 0.000000000000000, 0.000000000000000 ) );
#261 = DIRECTION( '', ( 1.00000000000000, -0.000000000000000, 0.000000000000000 ) );
#262 = DIRECTION( '', ( 0.000000000000000, 0.000000000000000, -1.00000000000000 ) );
#263 = SURFACE_STYLE_FILL_AREA( #340 );
#264 = ORIENTED_EDGE( '', *, *, #336, .F. );
#265 = ORIENTED_EDGE( '', *, *, #315, .T. );
#266 = CARTESIAN_POINT( '', ( 20.6310499613777, 0.000000000000000, 0.000000000000000 ) );
#267 = DIRECTION( '', ( -1.00000000000000, -0.000000000000000, -0.000000000000000 ) );
#268 = DIRECTION( '', ( 0.000000000000000, 0.000000000000000, 1.00000000000000 ) );
#269 = SURFACE_STYLE_FILL_AREA( #341 );
#270 = ORIENTED_EDGE( '', *, *, #338, .T. );
#271 = ORIENTED_EDGE( '', *, *, #330, .F. );
#272 = CARTESIAN_POINT( '', ( 21.5209247634560, 0.000000000000000, 0.000000000000000 ) );
#273 = DIRECTION( '', ( -1.00000000000000, 0.000000000000000, 0.000000000000000 ) );
#274 = DIRECTION( '', ( 0.000000000000000, 0.000000000000000, 1.00000000000000 ) );
#275 = SURFACE_STYLE_FILL_AREA( #342 );
#276 = ORIENTED_EDGE( '', *, *, #318, .F. );
#277 = ORIENTED_EDGE( '', *, *, #335, .T. );
#278 = CARTESIAN_POINT( '', ( 27.0000000000000, 0.000000000000000, 0.000000000000000 ) );
#279 = DIRECTION( '', ( 1.00000000000000, -0.000000000000000, 0.000000000000000 ) );
#280 = DIRECTION( '', ( 0.000000000000000, 0.000000000000000, -1.00000000000000 ) );
#281 = SURFACE_STYLE_FILL_AREA( #343 );
#282 = ORIENTED_EDGE( '', *, *, #339, .F. );
#283 = ORIENTED_EDGE( '', *, *, #344, .T. );
#284 = CARTESIAN_POINT( '', ( 0.000000000000000, 0.000000000000000, 0.000000000000000 ) );
#285 = DIRECTION( '', ( 1.00000000000000, -0.000000000000000, -0.000000000000000 ) );
#286 = DIRECTION( '', ( 0.000000000000000, 0.000000000000000, 1.00000000000000 ) );
#287 = SURFACE_STYLE_FILL_AREA( #345 );
#288 = ORIENTED_EDGE( '', *, *, #346, .T. );
#289 = ORIENTED_EDGE( '', *, *, #328, .T. );
#290 = ORIENTED_EDGE( '', *, *, #332, .F. );
#291 = ORIENTED_EDGE( '', *, *, #321, .F. );
#292 = CARTESIAN_POINT( '', ( 36.0000000000000, 13.8000000000000, 3.00000000000000 ) );
#293 = DIRECTION( '', ( 0.000000000000000, 0.000000000000000, -1.00000000000000 ) );
#294 = DIRECTION( '', ( -1.00000000000000, 0.000000000000000, 0.000000000000000 ) );
#295 = SURFACE_STYLE_FILL_AREA( #347 );
#296 = ORIENTED_EDGE( '', *, *, #344, .F. );
#297 = ORIENTED_EDGE( '', *, *, #346, .F. );
#298 = ORIENTED_EDGE( '', *, *, #320, .F. );
#299 = ORIENTED_EDGE( '', *, *, #348, .F. );
#300 = ORIENTED_EDGE( '', *, *, #325, .F. );
#301 = CARTESIAN_POINT( '', ( 24.0000000000000, 0.000000000000000, 0.000000000000000 ) );
#302 = DIRECTION( '', ( -1.00000000000000, 0.000000000000000, 0.000000000000000 ) );
#303 = DIRECTION( '', ( 0.000000000000000, 0.000000000000000, 1.00000000000000 ) );
#304 = SURFACE_STYLE_FILL_AREA( #349 );
#305 = ORIENTED_EDGE( '', *, *, #348, .T. );
#306 = ORIENTED_EDGE( '', *, *, #323, .T. );
#307 = ORIENTED_EDGE( '', *, *, #333, .F. );
#308 = ORIENTED_EDGE( '', *, *, #326, .F. );
#309 = CARTESIAN_POINT( '', ( 36.0000000000000, 10.5830052442584, -3.00000000000000 ) );
#310 = DIRECTION( '', ( 0.000000000000000, 0.000000000000000, 1.00000000000000 ) );
#311 = DIRECTION( '', ( 1.00000000000000, 0.000000000000000, -0.000000000000000 ) );
#312 = FILL_AREA_STYLE( '', ( #350 ) );
#313 = CARTESIAN_POINT( '', ( 32.2500000000000, 0.000000000000000, 100.000000000000 ) );
#314 = EDGE_CURVE( '', #351, #351, #352, .T. );
#315 = EDGE_CURVE( '', #353, #353, #354, .T. );
#316 = FILL_AREA_STYLE( '', ( #355 ) );
#317 = EDGE_CURVE( '', #356, #356, #357, .T. );
#318 = EDGE_CURVE( '', #358, #358, #359, .T. );
#319 = FILL_AREA_STYLE( '', ( #360 ) );
#320 = EDGE_CURVE( '', #361, #362, #363, .T. );
#321 = EDGE_CURVE( '', #362, #364, #365, .T. );
#322 = EDGE_CURVE( '', #366, #364, #367, .T. );
#323 = EDGE_CURVE( '', #361, #366, #368, .T. );
#324 = FILL_AREA_STYLE( '', ( #369 ) );
#325 = EDGE_CURVE( '', #370, #371, #372, .F. );
#326 = EDGE_CURVE( '', #371, #373, #374, .T. );
#327 = EDGE_CURVE( '', #373, #375, #376, .F. );
#328 = EDGE_CURVE( '', #370, #375, #377, .T. );
#329 = FILL_AREA_STYLE( '', ( #378 ) );
#330 = EDGE_CURVE( '', #379, #379, #380, .T. );
#331 = FILL_AREA_STYLE( '', ( #381 ) );
#332 = EDGE_CURVE( '', #364, #375, #382, .T. );
#333 = EDGE_CURVE( '', #373, #366, #383, .T. );
#334 = FILL_AREA_STYLE( '', ( #384 ) );
#335 = EDGE_CURVE( '', #385, #385, #386, .T. );
#336 = EDGE_CURVE( '', #387, #387, #388, .T. );
#337 = FILL_AREA_STYLE( '', ( #389 ) );
#338 = EDGE_CURVE( '', #390, #390, #391, .T. );
#339 = EDGE_CURVE( '', #392, #392, #393, .T. );
#340 = FILL_AREA_STYLE( '', ( #394 ) );
#341 = FILL_AREA_STYLE( '', ( #395 ) );
#342 = FILL_AREA_STYLE( '', ( #396 ) );
#343 = FILL_AREA_STYLE( '', ( #397 ) );
#344 = EDGE_CURVE( '', #398, #398, #399, .T. );
#345 = FILL_AREA_STYLE( '', ( #400 ) );
#346 = EDGE_CURVE( '', #362, #370, #401, .T. );
#347 = FILL_AREA_STYLE( '', ( #402 ) );
#348 = EDGE_CURVE( '', #371, #361, #403, .T. );
#349 = FILL_AREA_STYLE( '', ( #404 ) );
#350 = FILL_AREA_STYLE_COLOUR( '', #405 );
#351 = VERTEX_POINT( '', #406 );
#352 = CIRCLE( '', #407, 87.0000000000000 );
#353 = VERTEX_POINT( '', #408 );
#354 = CIRCLE( '', #409, 86.5000000000000 );
#355 = FILL_AREA_STYLE_COLOUR( '', #410 );
#356 = VERTEX_POINT( '', #411 );
#357 = CIRCLE( '', #412, 20.0000000000000 );
#358 = VERTEX_POINT( '', #413 );
#359 = CIRCLE( '', #414, 20.0000000000000 );
#360 = FILL_AREA_STYLE_COLOUR( '', #415 );
#361 = VERTEX_POINT( '', #416 );
#362 = VERTEX_POINT( '', #417 );
#363 = LINE( '', #418, #419 );
#364 = VERTEX_POINT( '', #420 );
#365 = LINE( '', #421, #422 );
#366 = VERTEX_POINT( '', #423 );
#367 = LINE( '', #424, #425 );
#368 = LINE( '', #426, #427 );
#369 = FILL_AREA_STYLE_COLOUR( '', #428 );
#370 = VERTEX_POINT( '', #429 );
#371 = VERTEX_POINT( '', #430 );
#372 = CIRCLE( '', #431, 11.0000000000000 );
#373 = VERTEX_POINT( '', #432 );
#374 = LINE( '', #433, #434 );
#375 = VERTEX_POINT( '', #435 );
#376 = CIRCLE( '', #436, 11.0000000000000 );
#377 = LINE( '', #437, #438 );
#378 = FILL_AREA_STYLE_COLOUR( '', #439 );
#379 = VERTEX_POINT( '', #440 );
#380 = CIRCLE( '', #441, 85.5000000000000 );
#381 = FILL_AREA_STYLE_COLOUR( '', #442 );
#382 = LINE( '', #443, #444 );
#383 = LINE( '', #445, #446 );
#384 = FILL_AREA_STYLE_COLOUR( '', #447 );
#385 = VERTEX_POINT( '', #448 );
#386 = CIRCLE( '', #449, 78.0000000000000 );
#387 = VERTEX_POINT( '', #450 );
#388 = CIRCLE( '', #451, 85.0000000000000 );
#389 = FILL_AREA_STYLE_COLOUR( '', #452 );
#390 = VERTEX_POINT( '', #453 );
#391 = CIRCLE( '', #454, 73.0000000000000 );
#392 = VERTEX_POINT( '', #455 );
#393 = CIRCLE( '', #456, 20.0000000000000 );
#394 = FILL_AREA_STYLE_COLOUR( '', #457 );
#395 = FILL_AREA_STYLE_COLOUR( '', #458 );
#396 = FILL_AREA_STYLE_COLOUR( '', #459 );
#397 = FILL_AREA_STYLE_COLOUR( '', #460 );
#398 = VERTEX_POINT( '', #461 );
#399 = CIRCLE( '', #462, 20.0000000000000 );
#400 = FILL_AREA_STYLE_COLOUR( '', #463 );
#401 = LINE( '', #464, #465 );
#402 = FILL_AREA_STYLE_COLOUR( '', #466 );
#403 = LINE( '', #467, #468 );
#404 = FILL_AREA_STYLE_COLOUR( '', #469 );
#405 = COLOUR_RGB( '', 0.689999997600000, 0.689999997600000, 0.689999997600000 );
#406 = CARTESIAN_POINT( '', ( 43.9333214455479, 0.000000000000000, 87.0000000000000 ) );
#407 = AXIS2_PLACEMENT_3D( '', #470, #471, #472 );
#408 = CARTESIAN_POINT( '', ( 20.6310499613777, 0.000000000000000, 86.5000000000000 ) );
#409 = AXIS2_PLACEMENT_3D( '', #473, #474, #475 );
#410 = COLOUR_RGB( '', 0.689999997600000, 0.689999997600000, 0.689999997600000 );
#411 = CARTESIAN_POINT( '', ( 1.73472347597681E-15, 0.000000000000000, 20.0000000000000 ) );
#412 = AXIS2_PLACEMENT_3D( '', #476, #477, #478 );
#413 = CARTESIAN_POINT( '', ( 14.5000000000000, 0.000000000000000, 20.0000000000000 ) );
#414 = AXIS2_PLACEMENT_3D( '', #479, #480, #481 );
#415 = COLOUR_RGB( '', 0.689999997600000, 0.689999997600000, 0.689999997600000 );
#416 = CARTESIAN_POINT( '', ( 24.0000000000000, 13.8000000000000, -3.00000000000000 ) );
#417 = CARTESIAN_POINT( '', ( 24.0000000000000, 13.8000000000000, 3.00000000000000 ) );
#418 = CARTESIAN_POINT( '', ( 24.0000000000000, 13.8000000000000, 0.000000000000000 ) );
#419 = VECTOR( '', #482, 1000.00000000000 );
#420 = CARTESIAN_POINT( '', ( 8.67361737988404E-16, 13.8000000000000, 3.00000000000000 ) );
#421 = CARTESIAN_POINT( '', ( 36.0000000000000, 13.8000000000000, 3.00000000000000 ) );
#422 = VECTOR( '', #483, 1000.00000000000 );
#423 = CARTESIAN_POINT( '', ( 0.000000000000000, 13.8000000000000, -3.00000000000000 ) );
#424 = CARTESIAN_POINT( '', ( 0.000000000000000, 13.8000000000000, -3.00000000000000 ) );
#425 = VECTOR( '', #484, 1000.00000000000 );
#426 = CARTESIAN_POINT( '', ( 36.0000000000000, 13.8000000000000, -3.00000000000000 ) );
#427 = VECTOR( '', #485, 1000.00000000000 );
#428 = COLOUR_RGB( '', 0.689999997600000, 0.689999997600000, 0.689999997600000 );
#429 = CARTESIAN_POINT( '', ( 24.0000000000000, 10.5830052442584, 3.00000000000000 ) );
#430 = CARTESIAN_POINT( '', ( 24.0000000000000, 10.5830052442584, -2.99999999999999 ) );
#431 = AXIS2_PLACEMENT_3D( '', #486, #487, #488 );
#432 = CARTESIAN_POINT( '', ( 0.000000000000000, 10.5830052442584, -2.99999999999999 ) );
#433 = CARTESIAN_POINT( '', ( 36.0000000000000, 10.5830052442584, -2.99999999999999 ) );
#434 = VECTOR( '', #489, 1000.00000000000 );
#435 = CARTESIAN_POINT( '', ( 0.000000000000000, 10.5830052442584, 3.00000000000000 ) );
#436 = AXIS2_PLACEMENT_3D( '', #490, #491, #492 );
#437 = CARTESIAN_POINT( '', ( 36.0000000000000, 10.5830052442584, 3.00000000000000 ) );
#438 = VECTOR( '', #493, 1000.00000000000 );
#439 = COLOUR_RGB( '', 0.689999997600000, 0.689999997600000, 0.689999997600000 );
#440 = CARTESIAN_POINT( '', ( 41.0000000000000, 0.000000000000000, 85.5000000000000 ) );
#441 = AXIS2_PLACEMENT_3D( '', #494, #495, #496 );
#442 = COLOUR_RGB( '', 0.689999997600000, 0.689999997600000, 0.689999997600000 );
#443 = CARTESIAN_POINT( '', ( 0.000000000000000, 13.8000000000000, 3.00000000000000 ) );
#444 = VECTOR( '', #497, 1000.00000000000 );
#445 = CARTESIAN_POINT( '', ( 0.000000000000000, 10.5830052442584, -3.00000000000000 ) );
#446 = VECTOR( '', #498, 1000.00000000000 );
#447 = COLOUR_RGB( '', 0.689999997600000, 0.689999997600000, 0.689999997600000 );
#448 = CARTESIAN_POINT( '', ( 27.0000000000000, 0.000000000000000, 78.0000000000000 ) );
#449 = AXIS2_PLACEMENT_3D( '', #499, #500, #501 );
#450 = CARTESIAN_POINT( '', ( 23.5000000000000, 0.000000000000000, 85.0000000000000 ) );
#451 = AXIS2_PLACEMENT_3D( '', #502, #503, #504 );
#452 = COLOUR_RGB( '', 0.689999997600000, 0.689999997600000, 0.689999997600000 );
#453 = CARTESIAN_POINT( '', ( 32.0000000000000, 0.000000000000000, 73.0000000000000 ) );
#454 = AXIS2_PLACEMENT_3D( '', #505, #506, #507 );
#455 = CARTESIAN_POINT( '', ( 20.0000000000000, 0.000000000000000, 20.0000000000000 ) );
#456 = AXIS2_PLACEMENT_3D( '', #508, #509, #510 );
#457 = COLOUR_RGB( '', 0.689999997600000, 0.689999997600000, 0.689999997600000 );
#458 = COLOUR_RGB( '', 0.689999997600000, 0.689999997600000, 0.689999997600000 );
#459 = COLOUR_RGB( '', 0.689999997600000, 0.689999997600000, 0.689999997600000 );
#460 = COLOUR_RGB( '', 0.689999997600000, 0.689999997600000, 0.689999997600000 );
#461 = CARTESIAN_POINT( '', ( 24.0000000000000, 0.000000000000000, 20.0000000000000 ) );
#462 = AXIS2_PLACEMENT_3D( '', #511, #512, #513 );
#463 = COLOUR_RGB( '', 0.689999997600000, 0.689999997600000, 0.689999997600000 );
#464 = CARTESIAN_POINT( '', ( 24.0000000000000, 0.000000000000000, 3.00000000000000 ) );
#465 = VECTOR( '', #514, 1000.00000000000 );
#466 = COLOUR_RGB( '', 0.689999997600000, 0.689999997600000, 0.689999997600000 );
#467 = CARTESIAN_POINT( '', ( 24.0000000000000, 0.000000000000000, -3.00000000000000 ) );
#468 = VECTOR( '', #515, 1000.00000000000 );
#469 = COLOUR_RGB( '', 0.689999997600000, 0.689999997600000, 0.689999997600000 );
#470 = CARTESIAN_POINT( '', ( 43.9333214455479, 0.000000000000000, 0.000000000000000 ) );
#471 = DIRECTION( '', ( -1.00000000000000, 0.000000000000000, 0.000000000000000 ) );
#472 = DIRECTION( '', ( 0.000000000000000, 0.000000000000000, 1.00000000000000 ) );
#473 = CARTESIAN_POINT( '', ( 20.6310499613777, 0.000000000000000, 0.000000000000000 ) );
#474 = DIRECTION( '', ( -1.00000000000000, 0.000000000000000, 0.000000000000000 ) );
#475 = DIRECTION( '', ( 0.000000000000000, 0.000000000000000, 1.00000000000000 ) );
#476 = CARTESIAN_POINT( '', ( 1.73472347597681E-15, 0.000000000000000, 0.000000000000000 ) );
#477 = DIRECTION( '', ( -1.00000000000000, 0.000000000000000, 0.000000000000000 ) );
#478 = DIRECTION( '', ( 0.000000000000000, 0.000000000000000, 1.00000000000000 ) );
#479 = CARTESIAN_POINT( '', ( 14.5000000000000, 0.000000000000000, 0.000000000000000 ) );
#480 = DIRECTION( '', ( -1.00000000000000, 0.000000000000000, 0.000000000000000 ) );
#481 = DIRECTION( '', ( 0.000000000000000, 0.000000000000000, 1.00000000000000 ) );
#482 = DIRECTION( '', ( 0.000000000000000, 0.000000000000000, 1.00000000000000 ) );
#483 = DIRECTION( '', ( -1.00000000000000, -0.000000000000000, -0.000000000000000 ) );
#484 = DIRECTION( '', ( 0.000000000000000, 0.000000000000000, 1.00000000000000 ) );
#485 = DIRECTION( '', ( -1.00000000000000, -0.000000000000000, -0.000000000000000 ) );
#486 = CARTESIAN_POINT( '', ( 24.0000000000000, 6.23416249179165E-16, 2.16840434497101E-16 ) );
#487 = DIRECTION( '', ( -1.00000000000000, 0.000000000000000, 0.000000000000000 ) );
#488 = DIRECTION( '', ( 0.000000000000000, 0.000000000000000, 1.00000000000000 ) );
#489 = DIRECTION( '', ( -1.00000000000000, -0.000000000000000, -0.000000000000000 ) );
#490 = CARTESIAN_POINT( '', ( 0.000000000000000, 6.23416249179165E-16, 2.16840434497101E-16 ) );
#491 = DIRECTION( '', ( 1.00000000000000, 0.000000000000000, 0.000000000000000 ) );
#492 = DIRECTION( '', ( 0.000000000000000, 0.000000000000000, -1.00000000000000 ) );
#493 = DIRECTION( '', ( -1.00000000000000, -0.000000000000000, -0.000000000000000 ) );
#494 = CARTESIAN_POINT( '', ( 41.0000000000000, 0.000000000000000, 0.000000000000000 ) );
#495 = DIRECTION( '', ( -1.00000000000000, 0.000000000000000, 0.000000000000000 ) );
#496 = DIRECTION( '', ( 0.000000000000000, 0.000000000000000, 1.00000000000000 ) );
#497 = DIRECTION( '', ( 0.000000000000000, -1.00000000000000, 0.000000000000000 ) );
#498 = DIRECTION( '', ( 0.000000000000000, 1.00000000000000, 0.000000000000000 ) );
#499 = CARTESIAN_POINT( '', ( 27.0000000000000, 0.000000000000000, 0.000000000000000 ) );
#500 = DIRECTION( '', ( -1.00000000000000, 0.000000000000000, 0.000000000000000 ) );
#501 = DIRECTION( '', ( 0.000000000000000, 0.000000000000000, 1.00000000000000 ) );
#502 = CARTESIAN_POINT( '', ( 23.5000000000000, 0.000000000000000, 0.000000000000000 ) );
#503 = DIRECTION( '', ( -1.00000000000000, 0.000000000000000, 0.000000000000000 ) );
#504 = DIRECTION( '', ( 0.000000000000000, 0.000000000000000, 1.00000000000000 ) );
#505 = CARTESIAN_POINT( '', ( 32.0000000000000, 0.000000000000000, 0.000000000000000 ) );
#506 = DIRECTION( '', ( -1.00000000000000, 0.000000000000000, 0.000000000000000 ) );
#507 = DIRECTION( '', ( 0.000000000000000, 0.000000000000000, 1.00000000000000 ) );
#508 = CARTESIAN_POINT( '', ( 20.0000000000000, 0.000000000000000, 0.000000000000000 ) );
#509 = DIRECTION( '', ( -1.00000000000000, 0.000000000000000, 0.000000000000000 ) );
#510 = DIRECTION( '', ( 0.000000000000000, 0.000000000000000, 1.00000000000000 ) );
#511 = CARTESIAN_POINT( '', ( 24.0000000000000, 0.000000000000000, 0.000000000000000 ) );
#512 = DIRECTION( '', ( -1.00000000000000, 0.000000000000000, 0.000000000000000 ) );
#513 = DIRECTION( '', ( 0.000000000000000, 0.000000000000000, 1.00000000000000 ) );
#514 = DIRECTION( '', ( 0.000000000000000, -1.00000000000000, 0.000000000000000 ) );
#515 = DIRECTION( '', ( 0.000000000000000, 1.00000000000000, 0.000000000000000 ) );
ENDSEC;
END-ISO-10303-21;
