ISO-10303-21;
HEADER;
FILE_DESCRIPTION( ( 'STEP AP214' ), '1' );
FILE_NAME( 'p:/temp/worker_129/temp/app_51_0201905291546306835611810e898ce_000000_00_00_000000/format_2/K0046.9142141.stp', '2019-05-29T13:46:32', ( '' ), ( '' ), ' ', 'PARTsolutions', ' ' );
FILE_SCHEMA( ( 'AUTOMOTIVE_DESIGN { 1 0 10303 214 1 1 1 1 }' ) );
ENDSEC;
DATA;
#1 = MECHANICAL_DESIGN_GEOMETRIC_PRESENTATION_REPRESENTATION( ' ', ( #10, #11, #12, #13, #14, #15, #16, #17, #18, #19, #20, #21 ), #6 );
#2 = PRODUCT_DEFINITION_CONTEXT( '', #22, 'design' );
#3 = APPLICATION_PROTOCOL_DEFINITION( 'international standard', 'automotive_design', 2001, #22 );
#4 = PRODUCT_CATEGORY_RELATIONSHIP( 'NONE', 'NONE', #23, #24 );
#5 = SHAPE_DEFINITION_REPRESENTATION( #25, #26 );
#6 =  ( GEOMETRIC_REPRESENTATION_CONTEXT( 3 )GLOBAL_UNCERTAINTY_ASSIGNED_CONTEXT( ( #29 ) )GLOBAL_UNIT_ASSIGNED_CONTEXT( ( #31, #32, #33 ) )REPRESENTATION_CONTEXT( 'NONE', 'WORKSPACE' ) );
#10 = STYLED_ITEM( '', ( #35 ), #36 );
#11 = STYLED_ITEM( '', ( #37 ), #38 );
#12 = STYLED_ITEM( '', ( #39 ), #40 );
#13 = STYLED_ITEM( '', ( #41 ), #42 );
#14 = STYLED_ITEM( '', ( #43 ), #44 );
#15 = STYLED_ITEM( '', ( #45 ), #46 );
#16 = STYLED_ITEM( '', ( #47 ), #48 );
#17 = STYLED_ITEM( '', ( #49 ), #50 );
#18 = STYLED_ITEM( '', ( #51 ), #52 );
#19 = STYLED_ITEM( '', ( #53 ), #54 );
#20 = STYLED_ITEM( '', ( #55 ), #56 );
#21 = STYLED_ITEM( '', ( #57 ), #58 );
#22 = APPLICATION_CONTEXT( 'core data for automotive mechanical design processes' );
#23 = PRODUCT_CATEGORY( 'part', 'NONE' );
#24 = PRODUCT_RELATED_PRODUCT_CATEGORY( 'detail', ' ', ( #59 ) );
#25 = PRODUCT_DEFINITION_SHAPE( 'NONE', 'NONE', #60 );
#26 = ADVANCED_BREP_SHAPE_REPRESENTATION( '_K0046.9142141', ( #61, #62 ), #6 );
#29 = UNCERTAINTY_MEASURE_WITH_UNIT( LENGTH_MEASURE( 0.00100000000000000 ), #31, '', '' );
#31 =  ( CONVERSION_BASED_UNIT( 'MILLIMETRE', #65 )LENGTH_UNIT(  )NAMED_UNIT( #68 ) );
#32 =  ( NAMED_UNIT( #70 )PLANE_ANGLE_UNIT(  )SI_UNIT( $, .RADIAN. ) );
#33 =  ( NAMED_UNIT( #70 )SI_UNIT( $, .STERADIAN. )SOLID_ANGLE_UNIT(  ) );
#35 = PRESENTATION_STYLE_ASSIGNMENT( ( #76 ) );
#36 = ADVANCED_FACE( '', ( #77, #78 ), #79, .F. );
#37 = PRESENTATION_STYLE_ASSIGNMENT( ( #80 ) );
#38 = ADVANCED_FACE( '', ( #81, #82, #83 ), #84, .F. );
#39 = PRESENTATION_STYLE_ASSIGNMENT( ( #85 ) );
#40 = ADVANCED_FACE( '', ( #86 ), #87, .F. );
#41 = PRESENTATION_STYLE_ASSIGNMENT( ( #88 ) );
#42 = ADVANCED_FACE( '', ( #89, #90, #91 ), #92, .F. );
#43 = PRESENTATION_STYLE_ASSIGNMENT( ( #93 ) );
#44 = ADVANCED_FACE( '', ( #94, #95 ), #96, .F. );
#45 = PRESENTATION_STYLE_ASSIGNMENT( ( #97 ) );
#46 = ADVANCED_FACE( '', ( #98 ), #99, .F. );
#47 = PRESENTATION_STYLE_ASSIGNMENT( ( #100 ) );
#48 = ADVANCED_FACE( '', ( #101 ), #102, .F. );
#49 = PRESENTATION_STYLE_ASSIGNMENT( ( #103 ) );
#50 = ADVANCED_FACE( '', ( #104 ), #105, .T. );
#51 = PRESENTATION_STYLE_ASSIGNMENT( ( #106 ) );
#52 = ADVANCED_FACE( '', ( #107 ), #108, .F. );
#53 = PRESENTATION_STYLE_ASSIGNMENT( ( #109 ) );
#54 = ADVANCED_FACE( '', ( #110 ), #111, .T. );
#55 = PRESENTATION_STYLE_ASSIGNMENT( ( #112 ) );
#56 = ADVANCED_FACE( '', ( #113 ), #114, .F. );
#57 = PRESENTATION_STYLE_ASSIGNMENT( ( #115 ) );
#58 = ADVANCED_FACE( '', ( #116 ), #117, .F. );
#59 = PRODUCT( '_K0046.9142141', '_K0046.9142141', 'PART-_K0046.9142141-DESC', ( #118 ) );
#60 = PRODUCT_DEFINITION( 'NONE', 'NONE', #119, #2 );
#61 = MANIFOLD_SOLID_BREP( '_K0046.9142141', #120 );
#62 = AXIS2_PLACEMENT_3D( '', #121, #122, #123 );
#65 = LENGTH_MEASURE_WITH_UNIT( LENGTH_MEASURE( 1.00000000000000 ), #124 );
#68 = DIMENSIONAL_EXPONENTS( 1.00000000000000, 0.000000000000000, 0.000000000000000, 0.000000000000000, 0.000000000000000, 0.000000000000000, 0.000000000000000 );
#70 = DIMENSIONAL_EXPONENTS( 0.000000000000000, 0.000000000000000, 0.000000000000000, 0.000000000000000, 0.000000000000000, 0.000000000000000, 0.000000000000000 );
#76 = SURFACE_STYLE_USAGE( .BOTH., #125 );
#77 = FACE_OUTER_BOUND( '', #126, .T. );
#78 = FACE_OUTER_BOUND( '', #127, .T. );
#79 = CYLINDRICAL_SURFACE( '', #128, 2.10000000000000 );
#80 = SURFACE_STYLE_USAGE( .BOTH., #129 );
#81 = FACE_BOUND( '', #130, .T. );
#82 = FACE_BOUND( '', #131, .T. );
#83 = FACE_OUTER_BOUND( '', #132, .T. );
#84 = PLANE( '', #133 );
#85 = SURFACE_STYLE_USAGE( .BOTH., #134 );
#86 = FACE_OUTER_BOUND( '', #135, .T. );
#87 = PLANE( '', #136 );
#88 = SURFACE_STYLE_USAGE( .BOTH., #137 );
#89 = FACE_BOUND( '', #138, .T. );
#90 = FACE_BOUND( '', #139, .T. );
#91 = FACE_OUTER_BOUND( '', #140, .T. );
#92 = PLANE( '', #141 );
#93 = SURFACE_STYLE_USAGE( .BOTH., #142 );
#94 = FACE_OUTER_BOUND( '', #143, .T. );
#95 = FACE_OUTER_BOUND( '', #144, .T. );
#96 = CYLINDRICAL_SURFACE( '', #145, 2.10000000000000 );
#97 = SURFACE_STYLE_USAGE( .BOTH., #146 );
#98 = FACE_OUTER_BOUND( '', #147, .T. );
#99 = PLANE( '', #148 );
#100 = SURFACE_STYLE_USAGE( .BOTH., #149 );
#101 = FACE_OUTER_BOUND( '', #150, .T. );
#102 = PLANE( '', #151 );
#103 = SURFACE_STYLE_USAGE( .BOTH., #152 );
#104 = FACE_OUTER_BOUND( '', #153, .T. );
#105 = CYLINDRICAL_SURFACE( '', #154, 3.50000000000000 );
#106 = SURFACE_STYLE_USAGE( .BOTH., #155 );
#107 = FACE_OUTER_BOUND( '', #156, .T. );
#108 = CYLINDRICAL_SURFACE( '', #157, 1.50000000000000 );
#109 = SURFACE_STYLE_USAGE( .BOTH., #158 );
#110 = FACE_OUTER_BOUND( '', #159, .T. );
#111 = PLANE( '', #160 );
#112 = SURFACE_STYLE_USAGE( .BOTH., #161 );
#113 = FACE_OUTER_BOUND( '', #162, .T. );
#114 = PLANE( '', #163 );
#115 = SURFACE_STYLE_USAGE( .BOTH., #164 );
#116 = FACE_OUTER_BOUND( '', #165, .T. );
#117 = PLANE( '', #166 );
#118 = PRODUCT_CONTEXT( '', #22, 'mechanical' );
#119 = PRODUCT_DEFINITION_FORMATION_WITH_SPECIFIED_SOURCE( ' ', 'NONE', #59, .NOT_KNOWN. );
#120 = CLOSED_SHELL( '', ( #56, #54, #58, #40, #50, #38, #46, #42, #52, #36, #44, #48 ) );
#121 = CARTESIAN_POINT( '', ( 0.000000000000000, 0.000000000000000, 0.000000000000000 ) );
#122 = DIRECTION( '', ( 0.000000000000000, 0.000000000000000, 1.00000000000000 ) );
#123 = DIRECTION( '', ( 1.00000000000000, 0.000000000000000, 0.000000000000000 ) );
#124 =  ( LENGTH_UNIT(  )NAMED_UNIT( #68 )SI_UNIT( .MILLI., .METRE. ) );
#125 = SURFACE_SIDE_STYLE( '', ( #168 ) );
#126 = EDGE_LOOP( '', ( #169 ) );
#127 = EDGE_LOOP( '', ( #170 ) );
#128 = AXIS2_PLACEMENT_3D( '', #171, #172, #173 );
#129 = SURFACE_SIDE_STYLE( '', ( #174 ) );
#130 = EDGE_LOOP( '', ( #175 ) );
#131 = EDGE_LOOP( '', ( #176 ) );
#132 = EDGE_LOOP( '', ( #177, #178, #179, #180 ) );
#133 = AXIS2_PLACEMENT_3D( '', #181, #182, #183 );
#134 = SURFACE_SIDE_STYLE( '', ( #184 ) );
#135 = EDGE_LOOP( '', ( #185, #186, #187, #188 ) );
#136 = AXIS2_PLACEMENT_3D( '', #189, #190, #191 );
#137 = SURFACE_SIDE_STYLE( '', ( #192 ) );
#138 = EDGE_LOOP( '', ( #193 ) );
#139 = EDGE_LOOP( '', ( #194 ) );
#140 = EDGE_LOOP( '', ( #195, #196, #197, #198 ) );
#141 = AXIS2_PLACEMENT_3D( '', #199, #200, #201 );
#142 = SURFACE_SIDE_STYLE( '', ( #202 ) );
#143 = EDGE_LOOP( '', ( #203 ) );
#144 = EDGE_LOOP( '', ( #204 ) );
#145 = AXIS2_PLACEMENT_3D( '', #205, #206, #207 );
#146 = SURFACE_SIDE_STYLE( '', ( #208 ) );
#147 = EDGE_LOOP( '', ( #209, #210, #211, #212 ) );
#148 = AXIS2_PLACEMENT_3D( '', #213, #214, #215 );
#149 = SURFACE_SIDE_STYLE( '', ( #216 ) );
#150 = EDGE_LOOP( '', ( #217, #218, #219, #220, #221, #222, #223, #224 ) );
#151 = AXIS2_PLACEMENT_3D( '', #225, #226, #227 );
#152 = SURFACE_SIDE_STYLE( '', ( #228 ) );
#153 = EDGE_LOOP( '', ( #229, #230, #231, #232 ) );
#154 = AXIS2_PLACEMENT_3D( '', #233, #234, #235 );
#155 = SURFACE_SIDE_STYLE( '', ( #236 ) );
#156 = EDGE_LOOP( '', ( #237, #238, #239, #240 ) );
#157 = AXIS2_PLACEMENT_3D( '', #241, #242, #243 );
#158 = SURFACE_SIDE_STYLE( '', ( #244 ) );
#159 = EDGE_LOOP( '', ( #245, #246, #247, #248, #249, #250, #251, #252 ) );
#160 = AXIS2_PLACEMENT_3D( '', #253, #254, #255 );
#161 = SURFACE_SIDE_STYLE( '', ( #256 ) );
#162 = EDGE_LOOP( '', ( #257, #258, #259, #260 ) );
#163 = AXIS2_PLACEMENT_3D( '', #261, #262, #263 );
#164 = SURFACE_SIDE_STYLE( '', ( #264 ) );
#165 = EDGE_LOOP( '', ( #265, #266, #267, #268 ) );
#166 = AXIS2_PLACEMENT_3D( '', #269, #270, #271 );
#168 = SURFACE_STYLE_FILL_AREA( #272 );
#169 = ORIENTED_EDGE( '', *, *, #273, .F. );
#170 = ORIENTED_EDGE( '', *, *, #274, .T. );
#171 = CARTESIAN_POINT( '', ( -4.00000000000000, 8.00000000000000, -4.00000000000000 ) );
#172 = DIRECTION( '', ( -0.000000000000000, 1.00000000000000, 0.000000000000000 ) );
#173 = DIRECTION( '', ( 0.000000000000000, 0.000000000000000, -1.00000000000000 ) );
#174 = SURFACE_STYLE_FILL_AREA( #275 );
#175 = ORIENTED_EDGE( '', *, *, #273, .T. );
#176 = ORIENTED_EDGE( '', *, *, #276, .T. );
#177 = ORIENTED_EDGE( '', *, *, #277, .T. );
#178 = ORIENTED_EDGE( '', *, *, #278, .F. );
#179 = ORIENTED_EDGE( '', *, *, #279, .F. );
#180 = ORIENTED_EDGE( '', *, *, #280, .T. );
#181 = CARTESIAN_POINT( '', ( -10.5000000000000, 0.000000000000000, 8.00000000000000 ) );
#182 = DIRECTION( '', ( 0.000000000000000, 1.00000000000000, 0.000000000000000 ) );
#183 = DIRECTION( '', ( 0.000000000000000, -0.000000000000000, 1.00000000000000 ) );
#184 = SURFACE_STYLE_FILL_AREA( #281 );
#185 = ORIENTED_EDGE( '', *, *, #282, .T. );
#186 = ORIENTED_EDGE( '', *, *, #283, .F. );
#187 = ORIENTED_EDGE( '', *, *, #284, .F. );
#188 = ORIENTED_EDGE( '', *, *, #285, .T. );
#189 = CARTESIAN_POINT( '', ( -9.50000000000002, 8.00000000000000, 8.00000000000000 ) );
#190 = DIRECTION( '', ( 0.470588235294120, -0.882352941176469, 0.000000000000000 ) );
#191 = DIRECTION( '', ( 0.882352941176469, 0.470588235294120, 0.000000000000000 ) );
#192 = SURFACE_STYLE_FILL_AREA( #286 );
#193 = ORIENTED_EDGE( '', *, *, #274, .F. );
#194 = ORIENTED_EDGE( '', *, *, #287, .F. );
#195 = ORIENTED_EDGE( '', *, *, #288, .T. );
#196 = ORIENTED_EDGE( '', *, *, #289, .F. );
#197 = ORIENTED_EDGE( '', *, *, #290, .F. );
#198 = ORIENTED_EDGE( '', *, *, #291, .T. );
#199 = CARTESIAN_POINT( '', ( 0.000000000000000, 2.00000000000000, 8.00000000000000 ) );
#200 = DIRECTION( '', ( 0.000000000000000, -1.00000000000000, 0.000000000000000 ) );
#201 = DIRECTION( '', ( 0.000000000000000, 0.000000000000000, -1.00000000000000 ) );
#202 = SURFACE_STYLE_FILL_AREA( #292 );
#203 = ORIENTED_EDGE( '', *, *, #276, .F. );
#204 = ORIENTED_EDGE( '', *, *, #287, .T. );
#205 = CARTESIAN_POINT( '', ( -4.00000000000000, 8.00000000000000, 4.00000000000000 ) );
#206 = DIRECTION( '', ( -0.000000000000000, 1.00000000000000, 0.000000000000000 ) );
#207 = DIRECTION( '', ( 0.000000000000000, 0.000000000000000, -1.00000000000000 ) );
#208 = SURFACE_STYLE_FILL_AREA( #293 );
#209 = ORIENTED_EDGE( '', *, *, #294, .T. );
#210 = ORIENTED_EDGE( '', *, *, #291, .F. );
#211 = ORIENTED_EDGE( '', *, *, #295, .F. );
#212 = ORIENTED_EDGE( '', *, *, #278, .T. );
#213 = CARTESIAN_POINT( '', ( 0.000000000000000, 0.000000000000000, 8.00000000000000 ) );
#214 = DIRECTION( '', ( -1.00000000000000, 0.000000000000000, 0.000000000000000 ) );
#215 = DIRECTION( '', ( 0.000000000000000, 0.000000000000000, 1.00000000000000 ) );
#216 = SURFACE_STYLE_FILL_AREA( #296 );
#217 = ORIENTED_EDGE( '', *, *, #282, .F. );
#218 = ORIENTED_EDGE( '', *, *, #297, .F. );
#219 = ORIENTED_EDGE( '', *, *, #298, .F. );
#220 = ORIENTED_EDGE( '', *, *, #299, .T. );
#221 = ORIENTED_EDGE( '', *, *, #288, .F. );
#222 = ORIENTED_EDGE( '', *, *, #294, .F. );
#223 = ORIENTED_EDGE( '', *, *, #277, .F. );
#224 = ORIENTED_EDGE( '', *, *, #300, .F. );
#225 = CARTESIAN_POINT( '', ( -10.5000000000000, 3.50000000000000, -8.00000000000000 ) );
#226 = DIRECTION( '', ( 0.000000000000000, 0.000000000000000, 1.00000000000000 ) );
#227 = DIRECTION( '', ( 1.00000000000000, 0.000000000000000, -0.000000000000000 ) );
#228 = SURFACE_STYLE_FILL_AREA( #301 );
#229 = ORIENTED_EDGE( '', *, *, #300, .T. );
#230 = ORIENTED_EDGE( '', *, *, #280, .F. );
#231 = ORIENTED_EDGE( '', *, *, #302, .F. );
#232 = ORIENTED_EDGE( '', *, *, #283, .T. );
#233 = CARTESIAN_POINT( '', ( -10.5000000000000, 3.50000000000000, 8.00000000000000 ) );
#234 = DIRECTION( '', ( 0.000000000000000, -0.000000000000000, 1.00000000000000 ) );
#235 = DIRECTION( '', ( -1.00000000000000, 0.000000000000000, 0.000000000000000 ) );
#236 = SURFACE_STYLE_FILL_AREA( #303 );
#237 = ORIENTED_EDGE( '', *, *, #299, .F. );
#238 = ORIENTED_EDGE( '', *, *, #304, .F. );
#239 = ORIENTED_EDGE( '', *, *, #305, .T. );
#240 = ORIENTED_EDGE( '', *, *, #289, .T. );
#241 = CARTESIAN_POINT( '', ( -10.5000000000000, 3.50000000000000, 8.00000000000000 ) );
#242 = DIRECTION( '', ( 0.000000000000000, -0.000000000000000, 1.00000000000000 ) );
#243 = DIRECTION( '', ( -1.00000000000000, 0.000000000000000, 0.000000000000000 ) );
#244 = SURFACE_STYLE_FILL_AREA( #306 );
#245 = ORIENTED_EDGE( '', *, *, #284, .T. );
#246 = ORIENTED_EDGE( '', *, *, #302, .T. );
#247 = ORIENTED_EDGE( '', *, *, #279, .T. );
#248 = ORIENTED_EDGE( '', *, *, #295, .T. );
#249 = ORIENTED_EDGE( '', *, *, #290, .T. );
#250 = ORIENTED_EDGE( '', *, *, #305, .F. );
#251 = ORIENTED_EDGE( '', *, *, #307, .T. );
#252 = ORIENTED_EDGE( '', *, *, #308, .T. );
#253 = CARTESIAN_POINT( '', ( -10.5000000000000, 3.50000000000000, 8.00000000000000 ) );
#254 = DIRECTION( '', ( 0.000000000000000, 0.000000000000000, 1.00000000000000 ) );
#255 = DIRECTION( '', ( 1.00000000000000, 0.000000000000000, -0.000000000000000 ) );
#256 = SURFACE_STYLE_FILL_AREA( #309 );
#257 = ORIENTED_EDGE( '', *, *, #297, .T. );
#258 = ORIENTED_EDGE( '', *, *, #285, .F. );
#259 = ORIENTED_EDGE( '', *, *, #308, .F. );
#260 = ORIENTED_EDGE( '', *, *, #310, .T. );
#261 = CARTESIAN_POINT( '', ( -9.00000000000000, 6.00000000000001, 8.00000000000000 ) );
#262 = DIRECTION( '', ( -0.970142500145329, -0.242535625036343, 0.000000000000000 ) );
#263 = DIRECTION( '', ( 0.242535625036343, -0.970142500145329, 0.000000000000000 ) );
#264 = SURFACE_STYLE_FILL_AREA( #311 );
#265 = ORIENTED_EDGE( '', *, *, #298, .T. );
#266 = ORIENTED_EDGE( '', *, *, #310, .F. );
#267 = ORIENTED_EDGE( '', *, *, #307, .F. );
#268 = ORIENTED_EDGE( '', *, *, #304, .T. );
#269 = CARTESIAN_POINT( '', ( -11.2058823529412, 4.82352941176471, 8.00000000000000 ) );
#270 = DIRECTION( '', ( -0.470588235294120, 0.882352941176470, 0.000000000000000 ) );
#271 = DIRECTION( '', ( -0.882352941176470, -0.470588235294119, 0.000000000000000 ) );
#272 = FILL_AREA_STYLE( '', ( #312 ) );
#273 = EDGE_CURVE( '', #313, #313, #314, .T. );
#274 = EDGE_CURVE( '', #315, #315, #316, .F. );
#275 = FILL_AREA_STYLE( '', ( #317 ) );
#276 = EDGE_CURVE( '', #318, #318, #319, .T. );
#277 = EDGE_CURVE( '', #320, #321, #322, .T. );
#278 = EDGE_CURVE( '', #323, #321, #324, .T. );
#279 = EDGE_CURVE( '', #325, #323, #326, .T. );
#280 = EDGE_CURVE( '', #325, #320, #327, .T. );
#281 = FILL_AREA_STYLE( '', ( #328 ) );
#282 = EDGE_CURVE( '', #329, #330, #331, .T. );
#283 = EDGE_CURVE( '', #332, #330, #333, .T. );
#284 = EDGE_CURVE( '', #334, #332, #335, .T. );
#285 = EDGE_CURVE( '', #334, #329, #336, .T. );
#286 = FILL_AREA_STYLE( '', ( #337 ) );
#287 = EDGE_CURVE( '', #338, #338, #339, .F. );
#288 = EDGE_CURVE( '', #340, #341, #342, .T. );
#289 = EDGE_CURVE( '', #343, #341, #344, .T. );
#290 = EDGE_CURVE( '', #345, #343, #346, .T. );
#291 = EDGE_CURVE( '', #345, #340, #347, .T. );
#292 = FILL_AREA_STYLE( '', ( #348 ) );
#293 = FILL_AREA_STYLE( '', ( #349 ) );
#294 = EDGE_CURVE( '', #321, #340, #350, .T. );
#295 = EDGE_CURVE( '', #323, #345, #351, .T. );
#296 = FILL_AREA_STYLE( '', ( #352 ) );
#297 = EDGE_CURVE( '', #353, #329, #354, .T. );
#298 = EDGE_CURVE( '', #355, #353, #356, .T. );
#299 = EDGE_CURVE( '', #355, #341, #357, .T. );
#300 = EDGE_CURVE( '', #330, #320, #358, .T. );
#301 = FILL_AREA_STYLE( '', ( #359 ) );
#302 = EDGE_CURVE( '', #332, #325, #360, .T. );
#303 = FILL_AREA_STYLE( '', ( #361 ) );
#304 = EDGE_CURVE( '', #362, #355, #363, .T. );
#305 = EDGE_CURVE( '', #362, #343, #364, .T. );
#306 = FILL_AREA_STYLE( '', ( #365 ) );
#307 = EDGE_CURVE( '', #362, #366, #367, .T. );
#308 = EDGE_CURVE( '', #366, #334, #368, .T. );
#309 = FILL_AREA_STYLE( '', ( #369 ) );
#310 = EDGE_CURVE( '', #366, #353, #370, .T. );
#311 = FILL_AREA_STYLE( '', ( #371 ) );
#312 = FILL_AREA_STYLE_COLOUR( '', #372 );
#313 = VERTEX_POINT( '', #373 );
#314 = CIRCLE( '', #374, 2.10000000000000 );
#315 = VERTEX_POINT( '', #375 );
#316 = CIRCLE( '', #376, 2.10000000000000 );
#317 = FILL_AREA_STYLE_COLOUR( '', #377 );
#318 = VERTEX_POINT( '', #378 );
#319 = CIRCLE( '', #379, 2.10000000000000 );
#320 = VERTEX_POINT( '', #380 );
#321 = VERTEX_POINT( '', #381 );
#322 = LINE( '', #382, #383 );
#323 = VERTEX_POINT( '', #384 );
#324 = LINE( '', #385, #386 );
#325 = VERTEX_POINT( '', #387 );
#326 = LINE( '', #388, #389 );
#327 = LINE( '', #390, #391 );
#328 = FILL_AREA_STYLE_COLOUR( '', #392 );
#329 = VERTEX_POINT( '', #393 );
#330 = VERTEX_POINT( '', #394 );
#331 = LINE( '', #395, #396 );
#332 = VERTEX_POINT( '', #397 );
#333 = LINE( '', #398, #399 );
#334 = VERTEX_POINT( '', #400 );
#335 = LINE( '', #401, #402 );
#336 = LINE( '', #403, #404 );
#337 = FILL_AREA_STYLE_COLOUR( '', #405 );
#338 = VERTEX_POINT( '', #406 );
#339 = CIRCLE( '', #407, 2.10000000000000 );
#340 = VERTEX_POINT( '', #408 );
#341 = VERTEX_POINT( '', #409 );
#342 = LINE( '', #410, #411 );
#343 = VERTEX_POINT( '', #412 );
#344 = LINE( '', #413, #414 );
#345 = VERTEX_POINT( '', #415 );
#346 = LINE( '', #416, #417 );
#347 = LINE( '', #418, #419 );
#348 = FILL_AREA_STYLE_COLOUR( '', #420 );
#349 = FILL_AREA_STYLE_COLOUR( '', #421 );
#350 = LINE( '', #422, #423 );
#351 = LINE( '', #424, #425 );
#352 = FILL_AREA_STYLE_COLOUR( '', #426 );
#353 = VERTEX_POINT( '', #427 );
#354 = LINE( '', #428, #429 );
#355 = VERTEX_POINT( '', #430 );
#356 = LINE( '', #431, #432 );
#357 = CIRCLE( '', #433, 1.50000000000000 );
#358 = CIRCLE( '', #434, 3.50000000000000 );
#359 = FILL_AREA_STYLE_COLOUR( '', #435 );
#360 = CIRCLE( '', #436, 3.50000000000000 );
#361 = FILL_AREA_STYLE_COLOUR( '', #437 );
#362 = VERTEX_POINT( '', #438 );
#363 = LINE( '', #439, #440 );
#364 = CIRCLE( '', #441, 1.50000000000000 );
#365 = FILL_AREA_STYLE_COLOUR( '', #442 );
#366 = VERTEX_POINT( '', #443 );
#367 = LINE( '', #444, #445 );
#368 = LINE( '', #446, #447 );
#369 = FILL_AREA_STYLE_COLOUR( '', #448 );
#370 = LINE( '', #449, #450 );
#371 = FILL_AREA_STYLE_COLOUR( '', #451 );
#372 = COLOUR_RGB( '', 0.689999997600000, 0.689999997600000, 0.689999997600000 );
#373 = CARTESIAN_POINT( '', ( -1.90000000000000, 0.000000000000000, -4.00000000000000 ) );
#374 = AXIS2_PLACEMENT_3D( '', #452, #453, #454 );
#375 = CARTESIAN_POINT( '', ( -4.00000000000000, 2.00000000000000, -6.10000000000000 ) );
#376 = AXIS2_PLACEMENT_3D( '', #455, #456, #457 );
#377 = COLOUR_RGB( '', 0.689999997600000, 0.689999997600000, 0.689999997600000 );
#378 = CARTESIAN_POINT( '', ( -1.90000000000000, 0.000000000000000, 4.00000000000000 ) );
#379 = AXIS2_PLACEMENT_3D( '', #458, #459, #460 );
#380 = CARTESIAN_POINT( '', ( -10.5000000000000, 1.73472347597681E-15, -8.00000000000000 ) );
#381 = CARTESIAN_POINT( '', ( -1.73472347597681E-15, 0.000000000000000, -8.00000000000000 ) );
#382 = CARTESIAN_POINT( '', ( -10.5000000000000, 0.000000000000000, -8.00000000000000 ) );
#383 = VECTOR( '', #461, 1000.00000000000 );
#384 = CARTESIAN_POINT( '', ( -1.73472347597681E-15, 0.000000000000000, 8.00000000000000 ) );
#385 = CARTESIAN_POINT( '', ( -1.73472347597681E-15, 0.000000000000000, 8.00000000000000 ) );
#386 = VECTOR( '', #462, 1000.00000000000 );
#387 = CARTESIAN_POINT( '', ( -10.5000000000000, 1.73472347597681E-15, 8.00000000000000 ) );
#388 = CARTESIAN_POINT( '', ( -10.5000000000000, 0.000000000000000, 8.00000000000000 ) );
#389 = VECTOR( '', #463, 1000.00000000000 );
#390 = CARTESIAN_POINT( '', ( -10.5000000000000, 1.73472347597681E-15, 8.00000000000000 ) );
#391 = VECTOR( '', #464, 1000.00000000000 );
#392 = COLOUR_RGB( '', 0.689999997600000, 0.689999997600000, 0.689999997600000 );
#393 = CARTESIAN_POINT( '', ( -9.50000000000002, 8.00000000000000, -8.00000000000000 ) );
#394 = CARTESIAN_POINT( '', ( -12.1470588235294, 6.58823529411764, -8.00000000000000 ) );
#395 = CARTESIAN_POINT( '', ( -9.50000000000002, 8.00000000000000, -8.00000000000000 ) );
#396 = VECTOR( '', #465, 1000.00000000000 );
#397 = CARTESIAN_POINT( '', ( -12.1470588235294, 6.58823529411764, 8.00000000000000 ) );
#398 = CARTESIAN_POINT( '', ( -12.1470588235294, 6.58823529411764, 8.00000000000000 ) );
#399 = VECTOR( '', #466, 1000.00000000000 );
#400 = CARTESIAN_POINT( '', ( -9.50000000000002, 8.00000000000000, 8.00000000000000 ) );
#401 = CARTESIAN_POINT( '', ( -9.50000000000002, 8.00000000000000, 8.00000000000000 ) );
#402 = VECTOR( '', #467, 1000.00000000000 );
#403 = CARTESIAN_POINT( '', ( -9.50000000000002, 8.00000000000000, 8.00000000000000 ) );
#404 = VECTOR( '', #468, 1000.00000000000 );
#405 = COLOUR_RGB( '', 0.689999997600000, 0.689999997600000, 0.689999997600000 );
#406 = CARTESIAN_POINT( '', ( -4.00000000000000, 2.00000000000000, 1.90000000000000 ) );
#407 = AXIS2_PLACEMENT_3D( '', #469, #470, #471 );
#408 = CARTESIAN_POINT( '', ( 0.000000000000000, 2.00000000000000, -8.00000000000000 ) );
#409 = CARTESIAN_POINT( '', ( -10.5000000000000, 2.00000000000000, -8.00000000000000 ) );
#410 = CARTESIAN_POINT( '', ( 0.000000000000000, 2.00000000000000, -8.00000000000000 ) );
#411 = VECTOR( '', #472, 1000.00000000000 );
#412 = CARTESIAN_POINT( '', ( -10.5000000000000, 2.00000000000000, 8.00000000000000 ) );
#413 = CARTESIAN_POINT( '', ( -10.5000000000000, 2.00000000000000, 8.00000000000000 ) );
#414 = VECTOR( '', #473, 1000.00000000000 );
#415 = CARTESIAN_POINT( '', ( 0.000000000000000, 2.00000000000000, 8.00000000000000 ) );
#416 = CARTESIAN_POINT( '', ( 0.000000000000000, 2.00000000000000, 8.00000000000000 ) );
#417 = VECTOR( '', #474, 1000.00000000000 );
#418 = CARTESIAN_POINT( '', ( 0.000000000000000, 2.00000000000000, 8.00000000000000 ) );
#419 = VECTOR( '', #475, 1000.00000000000 );
#420 = COLOUR_RGB( '', 0.689999997600000, 0.689999997600000, 0.689999997600000 );
#421 = COLOUR_RGB( '', 0.689999997600000, 0.689999997600000, 0.689999997600000 );
#422 = CARTESIAN_POINT( '', ( 0.000000000000000, 0.000000000000000, -8.00000000000000 ) );
#423 = VECTOR( '', #476, 1000.00000000000 );
#424 = CARTESIAN_POINT( '', ( 0.000000000000000, 0.000000000000000, 8.00000000000000 ) );
#425 = VECTOR( '', #477, 1000.00000000000 );
#426 = COLOUR_RGB( '', 0.689999997600000, 0.689999997600000, 0.689999997600000 );
#427 = CARTESIAN_POINT( '', ( -9.00000000000000, 6.00000000000001, -8.00000000000000 ) );
#428 = CARTESIAN_POINT( '', ( -9.00000000000000, 6.00000000000001, -8.00000000000000 ) );
#429 = VECTOR( '', #478, 1000.00000000000 );
#430 = CARTESIAN_POINT( '', ( -11.2058823529412, 4.82352941176471, -8.00000000000000 ) );
#431 = CARTESIAN_POINT( '', ( -11.2058823529412, 4.82352941176471, -8.00000000000000 ) );
#432 = VECTOR( '', #479, 1000.00000000000 );
#433 = AXIS2_PLACEMENT_3D( '', #480, #481, #482 );
#434 = AXIS2_PLACEMENT_3D( '', #483, #484, #485 );
#435 = COLOUR_RGB( '', 0.689999997600000, 0.689999997600000, 0.689999997600000 );
#436 = AXIS2_PLACEMENT_3D( '', #486, #487, #488 );
#437 = COLOUR_RGB( '', 0.689999997600000, 0.689999997600000, 0.689999997600000 );
#438 = CARTESIAN_POINT( '', ( -11.2058823529412, 4.82352941176471, 8.00000000000000 ) );
#439 = CARTESIAN_POINT( '', ( -11.2058823529412, 4.82352941176471, 8.00000000000000 ) );
#440 = VECTOR( '', #489, 1000.00000000000 );
#441 = AXIS2_PLACEMENT_3D( '', #490, #491, #492 );
#442 = COLOUR_RGB( '', 0.689999997600000, 0.689999997600000, 0.689999997600000 );
#443 = CARTESIAN_POINT( '', ( -9.00000000000000, 6.00000000000001, 8.00000000000000 ) );
#444 = CARTESIAN_POINT( '', ( -11.2058823529412, 4.82352941176471, 8.00000000000000 ) );
#445 = VECTOR( '', #493, 1000.00000000000 );
#446 = CARTESIAN_POINT( '', ( -9.00000000000000, 6.00000000000001, 8.00000000000000 ) );
#447 = VECTOR( '', #494, 1000.00000000000 );
#448 = COLOUR_RGB( '', 0.689999997600000, 0.689999997600000, 0.689999997600000 );
#449 = CARTESIAN_POINT( '', ( -9.00000000000000, 6.00000000000001, 8.00000000000000 ) );
#450 = VECTOR( '', #495, 1000.00000000000 );
#451 = COLOUR_RGB( '', 0.689999997600000, 0.689999997600000, 0.689999997600000 );
#452 = CARTESIAN_POINT( '', ( -4.00000000000000, 0.000000000000000, -4.00000000000000 ) );
#453 = DIRECTION( '', ( -0.000000000000000, 1.00000000000000, 0.000000000000000 ) );
#454 = DIRECTION( '', ( 1.00000000000000, 0.000000000000000, 0.000000000000000 ) );
#455 = CARTESIAN_POINT( '', ( -4.00000000000000, 2.00000000000000, -4.00000000000000 ) );
#456 = DIRECTION( '', ( 0.000000000000000, -1.00000000000000, 0.000000000000000 ) );
#457 = DIRECTION( '', ( 0.000000000000000, 0.000000000000000, -1.00000000000000 ) );
#458 = CARTESIAN_POINT( '', ( -4.00000000000000, 0.000000000000000, 4.00000000000000 ) );
#459 = DIRECTION( '', ( -0.000000000000000, 1.00000000000000, 0.000000000000000 ) );
#460 = DIRECTION( '', ( 1.00000000000000, 0.000000000000000, 0.000000000000000 ) );
#461 = DIRECTION( '', ( 1.00000000000000, 0.000000000000000, 0.000000000000000 ) );
#462 = DIRECTION( '', ( -0.000000000000000, -0.000000000000000, -1.00000000000000 ) );
#463 = DIRECTION( '', ( 1.00000000000000, 0.000000000000000, 0.000000000000000 ) );
#464 = DIRECTION( '', ( -0.000000000000000, -0.000000000000000, -1.00000000000000 ) );
#465 = DIRECTION( '', ( -0.882352941176469, -0.470588235294120, 0.000000000000000 ) );
#466 = DIRECTION( '', ( -0.000000000000000, -0.000000000000000, -1.00000000000000 ) );
#467 = DIRECTION( '', ( -0.882352941176469, -0.470588235294120, 0.000000000000000 ) );
#468 = DIRECTION( '', ( -0.000000000000000, -0.000000000000000, -1.00000000000000 ) );
#469 = CARTESIAN_POINT( '', ( -4.00000000000000, 2.00000000000000, 4.00000000000000 ) );
#470 = DIRECTION( '', ( 0.000000000000000, -1.00000000000000, 0.000000000000000 ) );
#471 = DIRECTION( '', ( 0.000000000000000, 0.000000000000000, -1.00000000000000 ) );
#472 = DIRECTION( '', ( -1.00000000000000, 0.000000000000000, 0.000000000000000 ) );
#473 = DIRECTION( '', ( -0.000000000000000, -0.000000000000000, -1.00000000000000 ) );
#474 = DIRECTION( '', ( -1.00000000000000, 0.000000000000000, 0.000000000000000 ) );
#475 = DIRECTION( '', ( -0.000000000000000, -0.000000000000000, -1.00000000000000 ) );
#476 = DIRECTION( '', ( 0.000000000000000, 1.00000000000000, 0.000000000000000 ) );
#477 = DIRECTION( '', ( 0.000000000000000, 1.00000000000000, 0.000000000000000 ) );
#478 = DIRECTION( '', ( -0.242535625036343, 0.970142500145329, 0.000000000000000 ) );
#479 = DIRECTION( '', ( 0.882352941176470, 0.470588235294119, 0.000000000000000 ) );
#480 = CARTESIAN_POINT( '', ( -10.5000000000000, 3.50000000000000, -8.00000000000000 ) );
#481 = DIRECTION( '', ( 0.000000000000000, 0.000000000000000, 1.00000000000000 ) );
#482 = DIRECTION( '', ( 1.00000000000000, 0.000000000000000, 0.000000000000000 ) );
#483 = CARTESIAN_POINT( '', ( -10.5000000000000, 3.50000000000000, -8.00000000000000 ) );
#484 = DIRECTION( '', ( 0.000000000000000, 0.000000000000000, 1.00000000000000 ) );
#485 = DIRECTION( '', ( 1.00000000000000, 0.000000000000000, 0.000000000000000 ) );
#486 = CARTESIAN_POINT( '', ( -10.5000000000000, 3.50000000000000, 8.00000000000000 ) );
#487 = DIRECTION( '', ( 0.000000000000000, 0.000000000000000, 1.00000000000000 ) );
#488 = DIRECTION( '', ( 1.00000000000000, 0.000000000000000, 0.000000000000000 ) );
#489 = DIRECTION( '', ( -0.000000000000000, -0.000000000000000, -1.00000000000000 ) );
#490 = CARTESIAN_POINT( '', ( -10.5000000000000, 3.50000000000000, 8.00000000000000 ) );
#491 = DIRECTION( '', ( 0.000000000000000, 0.000000000000000, 1.00000000000000 ) );
#492 = DIRECTION( '', ( 1.00000000000000, 0.000000000000000, 0.000000000000000 ) );
#493 = DIRECTION( '', ( 0.882352941176470, 0.470588235294119, 0.000000000000000 ) );
#494 = DIRECTION( '', ( -0.242535625036343, 0.970142500145329, 0.000000000000000 ) );
#495 = DIRECTION( '', ( -0.000000000000000, -0.000000000000000, -1.00000000000000 ) );
ENDSEC;
END-ISO-10303-21;
