ISO-10303-21;
HEADER;
FILE_DESCRIPTION( ( 'STEP AP214' ), '1' );
FILE_NAME( '//goodhand-server/Shared Folders/GoodHand Data/Kipp CAD/K0344/K0344.91.stp', '2020-12-03T13:53:19', ( '' ), ( '' ), ' ', 'PARTsolutions', ' ' );
FILE_SCHEMA( ( 'AUTOMOTIVE_DESIGN { 1 0 10303 214 1 1 1 1 }' ) );
ENDSEC;
DATA;
#1 = MECHANICAL_DESIGN_GEOMETRIC_PRESENTATION_REPRESENTATION( ' ', ( #10, #11, #12, #13, #14, #15, #16, #17, #18, #19, #20, #21, #22, #23 ), #6 );
#2 = PRODUCT_DEFINITION_CONTEXT( '', #24, 'design' );
#3 = APPLICATION_PROTOCOL_DEFINITION( 'international standard', 'automotive_design', 2001, #24 );
#4 = PRODUCT_CATEGORY_RELATIONSHIP( 'NONE', 'NONE', #25, #26 );
#5 = SHAPE_DEFINITION_REPRESENTATION( #27, #28 );
#6 =  ( GEOMETRIC_REPRESENTATION_CONTEXT( 3 )GLOBAL_UNCERTAINTY_ASSIGNED_CONTEXT( ( #31 ) )GLOBAL_UNIT_ASSIGNED_CONTEXT( ( #33, #34, #35 ) )REPRESENTATION_CONTEXT( 'NONE', 'WORKSPACE' ) );
#10 = STYLED_ITEM( '', ( #37 ), #38 );
#11 = STYLED_ITEM( '', ( #39 ), #40 );
#12 = STYLED_ITEM( '', ( #41 ), #42 );
#13 = STYLED_ITEM( '', ( #43 ), #44 );
#14 = STYLED_ITEM( '', ( #45 ), #46 );
#15 = STYLED_ITEM( '', ( #47 ), #48 );
#16 = STYLED_ITEM( '', ( #49 ), #50 );
#17 = STYLED_ITEM( '', ( #51 ), #52 );
#18 = STYLED_ITEM( '', ( #53 ), #54 );
#19 = STYLED_ITEM( '', ( #55 ), #56 );
#20 = STYLED_ITEM( '', ( #57 ), #58 );
#21 = STYLED_ITEM( '', ( #59 ), #60 );
#22 = STYLED_ITEM( '', ( #61 ), #62 );
#23 = STYLED_ITEM( '', ( #63 ), #64 );
#24 = APPLICATION_CONTEXT( 'core data for automotive mechanical design processes' );
#25 = PRODUCT_CATEGORY( 'part', 'NONE' );
#26 = PRODUCT_RELATED_PRODUCT_CATEGORY( 'detail', ' ', ( #65 ) );
#27 = PRODUCT_DEFINITION_SHAPE( 'NONE', 'NONE', #66 );
#28 = ADVANCED_BREP_SHAPE_REPRESENTATION( '_K0344.91', ( #67, #68 ), #6 );
#31 = UNCERTAINTY_MEASURE_WITH_UNIT( LENGTH_MEASURE( 0.00100000000000000 ), #33, '', '' );
#33 =  ( CONVERSION_BASED_UNIT( 'MILLIMETRE', #71 )LENGTH_UNIT(  )NAMED_UNIT( #74 ) );
#34 =  ( NAMED_UNIT( #76 )PLANE_ANGLE_UNIT(  )SI_UNIT( $, .RADIAN. ) );
#35 =  ( NAMED_UNIT( #76 )SI_UNIT( $, .STERADIAN. )SOLID_ANGLE_UNIT(  ) );
#37 = PRESENTATION_STYLE_ASSIGNMENT( ( #82 ) );
#38 = ADVANCED_FACE( '', ( #83, #84 ), #85, .T. );
#39 = PRESENTATION_STYLE_ASSIGNMENT( ( #86 ) );
#40 = ADVANCED_FACE( '', ( #87 ), #88, .T. );
#41 = PRESENTATION_STYLE_ASSIGNMENT( ( #89 ) );
#42 = ADVANCED_FACE( '', ( #90 ), #91, .F. );
#43 = PRESENTATION_STYLE_ASSIGNMENT( ( #92 ) );
#44 = ADVANCED_FACE( '', ( #93 ), #94, .F. );
#45 = PRESENTATION_STYLE_ASSIGNMENT( ( #95 ) );
#46 = ADVANCED_FACE( '', ( #96 ), #97, .T. );
#47 = PRESENTATION_STYLE_ASSIGNMENT( ( #98 ) );
#48 = ADVANCED_FACE( '', ( #99, #100 ), #101, .T. );
#49 = PRESENTATION_STYLE_ASSIGNMENT( ( #102 ) );
#50 = ADVANCED_FACE( '', ( #103, #104, #105 ), #106, .F. );
#51 = PRESENTATION_STYLE_ASSIGNMENT( ( #107 ) );
#52 = ADVANCED_FACE( '', ( #108, #109 ), #110, .T. );
#53 = PRESENTATION_STYLE_ASSIGNMENT( ( #111 ) );
#54 = ADVANCED_FACE( '', ( #112 ), #113, .T. );
#55 = PRESENTATION_STYLE_ASSIGNMENT( ( #114 ) );
#56 = ADVANCED_FACE( '', ( #115 ), #116, .T. );
#57 = PRESENTATION_STYLE_ASSIGNMENT( ( #117 ) );
#58 = ADVANCED_FACE( '', ( #118, #119 ), #120, .T. );
#59 = PRESENTATION_STYLE_ASSIGNMENT( ( #121 ) );
#60 = ADVANCED_FACE( '', ( #122 ), #123, .F. );
#61 = PRESENTATION_STYLE_ASSIGNMENT( ( #124 ) );
#62 = ADVANCED_FACE( '', ( #125 ), #126, .F. );
#63 = PRESENTATION_STYLE_ASSIGNMENT( ( #127 ) );
#64 = ADVANCED_FACE( '', ( #128 ), #129, .T. );
#65 = PRODUCT( '_K0344.91', '_K0344.91', 'PART-_K0344.91-DESC', ( #130 ) );
#66 = PRODUCT_DEFINITION( 'NONE', 'NONE', #131, #2 );
#67 = MANIFOLD_SOLID_BREP( '_K0344.91', #132 );
#68 = AXIS2_PLACEMENT_3D( '', #133, #134, #135 );
#71 = LENGTH_MEASURE_WITH_UNIT( LENGTH_MEASURE( 1.00000000000000 ), #136 );
#74 = DIMENSIONAL_EXPONENTS( 1.00000000000000, 0.000000000000000, 0.000000000000000, 0.000000000000000, 0.000000000000000, 0.000000000000000, 0.000000000000000 );
#76 = DIMENSIONAL_EXPONENTS( 0.000000000000000, 0.000000000000000, 0.000000000000000, 0.000000000000000, 0.000000000000000, 0.000000000000000, 0.000000000000000 );
#82 = SURFACE_STYLE_USAGE( .BOTH., #137 );
#83 = FACE_BOUND( '', #138, .T. );
#84 = FACE_OUTER_BOUND( '', #139, .T. );
#85 = CONICAL_SURFACE( '', #140, 0.600000000000000, 0.261799387800000 );
#86 = SURFACE_STYLE_USAGE( .BOTH., #141 );
#87 = FACE_OUTER_BOUND( '', #142, .T. );
#88 = PLANE( '', #143 );
#89 = SURFACE_STYLE_USAGE( .BOTH., #144 );
#90 = FACE_OUTER_BOUND( '', #145, .T. );
#91 = PLANE( '', #146 );
#92 = SURFACE_STYLE_USAGE( .BOTH., #147 );
#93 = FACE_OUTER_BOUND( '', #148, .T. );
#94 = PLANE( '', #149 );
#95 = SURFACE_STYLE_USAGE( .BOTH., #150 );
#96 = FACE_OUTER_BOUND( '', #151, .T. );
#97 = PLANE( '', #152 );
#98 = SURFACE_STYLE_USAGE( .BOTH., #153 );
#99 = FACE_OUTER_BOUND( '', #154, .T. );
#100 = FACE_OUTER_BOUND( '', #155, .T. );
#101 = CYLINDRICAL_SURFACE( '', #156, 0.600000000000000 );
#102 = SURFACE_STYLE_USAGE( .BOTH., #157 );
#103 = FACE_OUTER_BOUND( '', #158, .T. );
#104 = FACE_BOUND( '', #159, .T. );
#105 = FACE_BOUND( '', #160, .T. );
#106 = PLANE( '', #161 );
#107 = SURFACE_STYLE_USAGE( .BOTH., #162 );
#108 = FACE_BOUND( '', #163, .T. );
#109 = FACE_OUTER_BOUND( '', #164, .T. );
#110 = CONICAL_SURFACE( '', #165, 0.600000000000000, 0.261799387800000 );
#111 = SURFACE_STYLE_USAGE( .BOTH., #166 );
#112 = FACE_OUTER_BOUND( '', #167, .T. );
#113 = CYLINDRICAL_SURFACE( '', #168, 10.0000000000000 );
#114 = SURFACE_STYLE_USAGE( .BOTH., #169 );
#115 = FACE_OUTER_BOUND( '', #170, .T. );
#116 = CONICAL_SURFACE( '', #171, 9.50000000000000, 0.785398163400000 );
#117 = SURFACE_STYLE_USAGE( .BOTH., #172 );
#118 = FACE_OUTER_BOUND( '', #173, .T. );
#119 = FACE_OUTER_BOUND( '', #174, .T. );
#120 = CYLINDRICAL_SURFACE( '', #175, 0.600000000000000 );
#121 = SURFACE_STYLE_USAGE( .BOTH., #176 );
#122 = FACE_OUTER_BOUND( '', #177, .T. );
#123 = CYLINDRICAL_SURFACE( '', #178, 2.50000000000000 );
#124 = SURFACE_STYLE_USAGE( .BOTH., #179 );
#125 = FACE_OUTER_BOUND( '', #180, .T. );
#126 = PLANE( '', #181 );
#127 = SURFACE_STYLE_USAGE( .BOTH., #182 );
#128 = FACE_OUTER_BOUND( '', #183, .T. );
#129 = CONICAL_SURFACE( '', #184, 10.0000000000000, 0.785398163400000 );
#130 = PRODUCT_CONTEXT( '', #24, 'mechanical' );
#131 = PRODUCT_DEFINITION_FORMATION_WITH_SPECIFIED_SOURCE( ' ', 'NONE', #65, .NOT_KNOWN. );
#132 = CLOSED_SHELL( '', ( #46, #56, #50, #58, #42, #52, #44, #48, #38, #62, #60, #40, #54, #64 ) );
#133 = CARTESIAN_POINT( '', ( 0.000000000000000, 0.000000000000000, 0.000000000000000 ) );
#134 = DIRECTION( '', ( 0.000000000000000, 0.000000000000000, 1.00000000000000 ) );
#135 = DIRECTION( '', ( 1.00000000000000, 0.000000000000000, 0.000000000000000 ) );
#136 =  ( LENGTH_UNIT(  )NAMED_UNIT( #74 )SI_UNIT( .MILLI., .METRE. ) );
#137 = SURFACE_SIDE_STYLE( '', ( #186 ) );
#138 = EDGE_LOOP( '', ( #187 ) );
#139 = EDGE_LOOP( '', ( #188 ) );
#140 = AXIS2_PLACEMENT_3D( '', #189, #190, #191 );
#141 = SURFACE_SIDE_STYLE( '', ( #192 ) );
#142 = EDGE_LOOP( '', ( #193, #194, #195, #196, #197, #198 ) );
#143 = AXIS2_PLACEMENT_3D( '', #199, #200, #201 );
#144 = SURFACE_SIDE_STYLE( '', ( #202 ) );
#145 = EDGE_LOOP( '', ( #203, #204, #205, #206 ) );
#146 = AXIS2_PLACEMENT_3D( '', #207, #208, #209 );
#147 = SURFACE_SIDE_STYLE( '', ( #210 ) );
#148 = EDGE_LOOP( '', ( #211 ) );
#149 = AXIS2_PLACEMENT_3D( '', #212, #213, #214 );
#150 = SURFACE_SIDE_STYLE( '', ( #215 ) );
#151 = EDGE_LOOP( '', ( #216, #217, #218, #219, #220, #221 ) );
#152 = AXIS2_PLACEMENT_3D( '', #222, #223, #224 );
#153 = SURFACE_SIDE_STYLE( '', ( #225 ) );
#154 = EDGE_LOOP( '', ( #226 ) );
#155 = EDGE_LOOP( '', ( #227 ) );
#156 = AXIS2_PLACEMENT_3D( '', #228, #229, #230 );
#157 = SURFACE_SIDE_STYLE( '', ( #231 ) );
#158 = EDGE_LOOP( '', ( #232, #233, #234, #235 ) );
#159 = EDGE_LOOP( '', ( #236 ) );
#160 = EDGE_LOOP( '', ( #237 ) );
#161 = AXIS2_PLACEMENT_3D( '', #238, #239, #240 );
#162 = SURFACE_SIDE_STYLE( '', ( #241 ) );
#163 = EDGE_LOOP( '', ( #242 ) );
#164 = EDGE_LOOP( '', ( #243 ) );
#165 = AXIS2_PLACEMENT_3D( '', #244, #245, #246 );
#166 = SURFACE_SIDE_STYLE( '', ( #247 ) );
#167 = EDGE_LOOP( '', ( #248, #249, #250, #251 ) );
#168 = AXIS2_PLACEMENT_3D( '', #252, #253, #254 );
#169 = SURFACE_SIDE_STYLE( '', ( #255 ) );
#170 = EDGE_LOOP( '', ( #256, #257, #258, #259 ) );
#171 = AXIS2_PLACEMENT_3D( '', #260, #261, #262 );
#172 = SURFACE_SIDE_STYLE( '', ( #263 ) );
#173 = EDGE_LOOP( '', ( #264 ) );
#174 = EDGE_LOOP( '', ( #265 ) );
#175 = AXIS2_PLACEMENT_3D( '', #266, #267, #268 );
#176 = SURFACE_SIDE_STYLE( '', ( #269 ) );
#177 = EDGE_LOOP( '', ( #270, #271, #272, #273 ) );
#178 = AXIS2_PLACEMENT_3D( '', #274, #275, #276 );
#179 = SURFACE_SIDE_STYLE( '', ( #277 ) );
#180 = EDGE_LOOP( '', ( #278 ) );
#181 = AXIS2_PLACEMENT_3D( '', #279, #280, #281 );
#182 = SURFACE_SIDE_STYLE( '', ( #282 ) );
#183 = EDGE_LOOP( '', ( #283, #284, #285, #286 ) );
#184 = AXIS2_PLACEMENT_3D( '', #287, #288, #289 );
#186 = SURFACE_STYLE_FILL_AREA( #290 );
#187 = ORIENTED_EDGE( '', *, *, #291, .F. );
#188 = ORIENTED_EDGE( '', *, *, #292, .T. );
#189 = CARTESIAN_POINT( '', ( -3.62500000000000, -2.10000000000000, 0.000000000000000 ) );
#190 = DIRECTION( '', ( -0.000000000000000, 1.00000000000000, 0.000000000000000 ) );
#191 = DIRECTION( '', ( 0.000000000000000, -0.000000000000000, 1.00000000000000 ) );
#192 = SURFACE_STYLE_FILL_AREA( #293 );
#193 = ORIENTED_EDGE( '', *, *, #294, .T. );
#194 = ORIENTED_EDGE( '', *, *, #295, .T. );
#195 = ORIENTED_EDGE( '', *, *, #296, .T. );
#196 = ORIENTED_EDGE( '', *, *, #297, .F. );
#197 = ORIENTED_EDGE( '', *, *, #298, .F. );
#198 = ORIENTED_EDGE( '', *, *, #299, .T. );
#199 = CARTESIAN_POINT( '', ( -2.50000000000000, 2.50000000000000, 0.000000000000000 ) );
#200 = DIRECTION( '', ( 1.00000000000000, 0.000000000000000, 0.000000000000000 ) );
#201 = DIRECTION( '', ( 0.000000000000000, 0.000000000000000, -1.00000000000000 ) );
#202 = SURFACE_STYLE_FILL_AREA( #300 );
#203 = ORIENTED_EDGE( '', *, *, #301, .F. );
#204 = ORIENTED_EDGE( '', *, *, #302, .F. );
#205 = ORIENTED_EDGE( '', *, *, #299, .F. );
#206 = ORIENTED_EDGE( '', *, *, #303, .F. );
#207 = CARTESIAN_POINT( '', ( 0.000000000000000, 2.50000000000000, 0.000000000000000 ) );
#208 = DIRECTION( '', ( 0.000000000000000, -1.00000000000000, -0.000000000000000 ) );
#209 = DIRECTION( '', ( 0.000000000000000, 0.000000000000000, -1.00000000000000 ) );
#210 = SURFACE_STYLE_FILL_AREA( #304 );
#211 = ORIENTED_EDGE( '', *, *, #305, .T. );
#212 = CARTESIAN_POINT( '', ( 4.11782032302755, -2.50000000000000, 0.000000000000000 ) );
#213 = DIRECTION( '', ( 0.000000000000000, 1.00000000000000, 0.000000000000000 ) );
#214 = DIRECTION( '', ( 0.000000000000000, -0.000000000000000, 1.00000000000000 ) );
#215 = SURFACE_STYLE_FILL_AREA( #306 );
#216 = ORIENTED_EDGE( '', *, *, #307, .T. );
#217 = ORIENTED_EDGE( '', *, *, #301, .T. );
#218 = ORIENTED_EDGE( '', *, *, #308, .T. );
#219 = ORIENTED_EDGE( '', *, *, #309, .T. );
#220 = ORIENTED_EDGE( '', *, *, #310, .T. );
#221 = ORIENTED_EDGE( '', *, *, #311, .T. );
#222 = CARTESIAN_POINT( '', ( 2.50000000000000, 2.50000000000000, 11.0000000000000 ) );
#223 = DIRECTION( '', ( -1.00000000000000, 0.000000000000000, 0.000000000000000 ) );
#224 = DIRECTION( '', ( 0.000000000000000, 0.000000000000000, 1.00000000000000 ) );
#225 = SURFACE_STYLE_FILL_AREA( #312 );
#226 = ORIENTED_EDGE( '', *, *, #292, .F. );
#227 = ORIENTED_EDGE( '', *, *, #313, .T. );
#228 = CARTESIAN_POINT( '', ( -3.62500000000000, -2.50000000000000, 0.000000000000000 ) );
#229 = DIRECTION( '', ( -0.000000000000000, 1.00000000000000, 0.000000000000000 ) );
#230 = DIRECTION( '', ( 0.000000000000000, 0.000000000000000, -1.00000000000000 ) );
#231 = SURFACE_STYLE_FILL_AREA( #314 );
#232 = ORIENTED_EDGE( '', *, *, #309, .F. );
#233 = ORIENTED_EDGE( '', *, *, #315, .T. );
#234 = ORIENTED_EDGE( '', *, *, #297, .T. );
#235 = ORIENTED_EDGE( '', *, *, #316, .T. );
#236 = ORIENTED_EDGE( '', *, *, #317, .F. );
#237 = ORIENTED_EDGE( '', *, *, #313, .F. );
#238 = CARTESIAN_POINT( '', ( 9.50000000000000, 0.000000000000000, 0.000000000000000 ) );
#239 = DIRECTION( '', ( 0.000000000000000, 1.00000000000000, 0.000000000000000 ) );
#240 = DIRECTION( '', ( 0.000000000000000, -0.000000000000000, 1.00000000000000 ) );
#241 = SURFACE_STYLE_FILL_AREA( #318 );
#242 = ORIENTED_EDGE( '', *, *, #305, .F. );
#243 = ORIENTED_EDGE( '', *, *, #319, .T. );
#244 = CARTESIAN_POINT( '', ( 3.62500000000000, -2.10000000000000, 0.000000000000000 ) );
#245 = DIRECTION( '', ( -0.000000000000000, 1.00000000000000, 0.000000000000000 ) );
#246 = DIRECTION( '', ( 0.000000000000000, -0.000000000000000, 1.00000000000000 ) );
#247 = SURFACE_STYLE_FILL_AREA( #320 );
#248 = ORIENTED_EDGE( '', *, *, #311, .F. );
#249 = ORIENTED_EDGE( '', *, *, #321, .F. );
#250 = ORIENTED_EDGE( '', *, *, #295, .F. );
#251 = ORIENTED_EDGE( '', *, *, #322, .T. );
#252 = CARTESIAN_POINT( '', ( 0.000000000000000, 0.000000000000000, 0.000000000000000 ) );
#253 = DIRECTION( '', ( -0.000000000000000, 1.00000000000000, 0.000000000000000 ) );
#254 = DIRECTION( '', ( 0.000000000000000, 0.000000000000000, -1.00000000000000 ) );
#255 = SURFACE_STYLE_FILL_AREA( #323 );
#256 = ORIENTED_EDGE( '', *, *, #307, .F. );
#257 = ORIENTED_EDGE( '', *, *, #322, .F. );
#258 = ORIENTED_EDGE( '', *, *, #294, .F. );
#259 = ORIENTED_EDGE( '', *, *, #302, .T. );
#260 = CARTESIAN_POINT( '', ( 0.000000000000000, 2.50000000000000, 0.000000000000000 ) );
#261 = DIRECTION( '', ( -0.000000000000000, -1.00000000000000, -0.000000000000000 ) );
#262 = DIRECTION( '', ( 0.000000000000000, 0.000000000000000, -1.00000000000000 ) );
#263 = SURFACE_STYLE_FILL_AREA( #324 );
#264 = ORIENTED_EDGE( '', *, *, #319, .F. );
#265 = ORIENTED_EDGE( '', *, *, #317, .T. );
#266 = CARTESIAN_POINT( '', ( 3.62500000000000, -2.50000000000000, 0.000000000000000 ) );
#267 = DIRECTION( '', ( -0.000000000000000, 1.00000000000000, 0.000000000000000 ) );
#268 = DIRECTION( '', ( 0.000000000000000, 0.000000000000000, -1.00000000000000 ) );
#269 = SURFACE_STYLE_FILL_AREA( #325 );
#270 = ORIENTED_EDGE( '', *, *, #315, .F. );
#271 = ORIENTED_EDGE( '', *, *, #308, .F. );
#272 = ORIENTED_EDGE( '', *, *, #303, .T. );
#273 = ORIENTED_EDGE( '', *, *, #298, .T. );
#274 = CARTESIAN_POINT( '', ( 4.33680868994202E-16, 2.50000000000000, 4.33680868994202E-16 ) );
#275 = DIRECTION( '', ( -0.000000000000000, 1.00000000000000, 0.000000000000000 ) );
#276 = DIRECTION( '', ( 0.000000000000000, 0.000000000000000, -1.00000000000000 ) );
#277 = SURFACE_STYLE_FILL_AREA( #326 );
#278 = ORIENTED_EDGE( '', *, *, #291, .T. );
#279 = CARTESIAN_POINT( '', ( -3.13217967697245, -2.50000000000000, 0.000000000000000 ) );
#280 = DIRECTION( '', ( 0.000000000000000, 1.00000000000000, 0.000000000000000 ) );
#281 = DIRECTION( '', ( 0.000000000000000, -0.000000000000000, 1.00000000000000 ) );
#282 = SURFACE_STYLE_FILL_AREA( #327 );
#283 = ORIENTED_EDGE( '', *, *, #310, .F. );
#284 = ORIENTED_EDGE( '', *, *, #316, .F. );
#285 = ORIENTED_EDGE( '', *, *, #296, .F. );
#286 = ORIENTED_EDGE( '', *, *, #321, .T. );
#287 = CARTESIAN_POINT( '', ( 0.000000000000000, 0.500000000000000, 0.000000000000000 ) );
#288 = DIRECTION( '', ( -0.000000000000000, 1.00000000000000, 0.000000000000000 ) );
#289 = DIRECTION( '', ( 0.000000000000000, -0.000000000000000, 1.00000000000000 ) );
#290 = FILL_AREA_STYLE( '', ( #328 ) );
#291 = EDGE_CURVE( '', #329, #329, #330, .T. );
#292 = EDGE_CURVE( '', #331, #331, #332, .T. );
#293 = FILL_AREA_STYLE( '', ( #333 ) );
#294 = EDGE_CURVE( '', #334, #335, #336, .T. );
#295 = EDGE_CURVE( '', #335, #337, #338, .T. );
#296 = EDGE_CURVE( '', #337, #339, #340, .T. );
#297 = EDGE_CURVE( '', #341, #339, #342, .T. );
#298 = EDGE_CURVE( '', #343, #341, #344, .T. );
#299 = EDGE_CURVE( '', #343, #334, #345, .T. );
#300 = FILL_AREA_STYLE( '', ( #346 ) );
#301 = EDGE_CURVE( '', #347, #348, #349, .T. );
#302 = EDGE_CURVE( '', #334, #347, #350, .T. );
#303 = EDGE_CURVE( '', #348, #343, #351, .T. );
#304 = FILL_AREA_STYLE( '', ( #352 ) );
#305 = EDGE_CURVE( '', #353, #353, #354, .T. );
#306 = FILL_AREA_STYLE( '', ( #355 ) );
#307 = EDGE_CURVE( '', #356, #347, #357, .T. );
#308 = EDGE_CURVE( '', #348, #358, #359, .T. );
#309 = EDGE_CURVE( '', #358, #360, #361, .T. );
#310 = EDGE_CURVE( '', #360, #362, #363, .T. );
#311 = EDGE_CURVE( '', #362, #356, #364, .F. );
#312 = FILL_AREA_STYLE( '', ( #365 ) );
#313 = EDGE_CURVE( '', #366, #366, #367, .F. );
#314 = FILL_AREA_STYLE( '', ( #368 ) );
#315 = EDGE_CURVE( '', #358, #341, #369, .T. );
#316 = EDGE_CURVE( '', #339, #360, #370, .T. );
#317 = EDGE_CURVE( '', #371, #371, #372, .F. );
#318 = FILL_AREA_STYLE( '', ( #373 ) );
#319 = EDGE_CURVE( '', #374, #374, #375, .T. );
#320 = FILL_AREA_STYLE( '', ( #376 ) );
#321 = EDGE_CURVE( '', #337, #362, #377, .T. );
#322 = EDGE_CURVE( '', #335, #356, #378, .T. );
#323 = FILL_AREA_STYLE( '', ( #379 ) );
#324 = FILL_AREA_STYLE( '', ( #380 ) );
#325 = FILL_AREA_STYLE( '', ( #381 ) );
#326 = FILL_AREA_STYLE( '', ( #382 ) );
#327 = FILL_AREA_STYLE( '', ( #383 ) );
#328 = FILL_AREA_STYLE_COLOUR( '', #384 );
#329 = VERTEX_POINT( '', #385 );
#330 = CIRCLE( '', #386, 0.492820323000000 );
#331 = VERTEX_POINT( '', #387 );
#332 = CIRCLE( '', #388, 0.600000000000000 );
#333 = FILL_AREA_STYLE_COLOUR( '', #389 );
#334 = VERTEX_POINT( '', #390 );
#335 = VERTEX_POINT( '', #391 );
#336 = B_SPLINE_CURVE_WITH_KNOTS( '', 3, ( #392, #393, #394, #395 ), .UNSPECIFIED., .F., .F., ( 4, 4 ), ( 0.00646633689356469, 0.00718568643994940 ), .UNSPECIFIED. );
#337 = VERTEX_POINT( '', #396 );
#338 = LINE( '', #397, #398 );
#339 = VERTEX_POINT( '', #399 );
#340 = B_SPLINE_CURVE_WITH_KNOTS( '', 3, ( #400, #401, #402, #403 ), .UNSPECIFIED., .F., .F., ( 4, 4 ), ( 0.0101824675639051, 0.0109018982244664 ), .UNSPECIFIED. );
#341 = VERTEX_POINT( '', #404 );
#342 = LINE( '', #405, #406 );
#343 = VERTEX_POINT( '', #407 );
#344 = LINE( '', #408, #409 );
#345 = LINE( '', #410, #411 );
#346 = FILL_AREA_STYLE_COLOUR( '', #412 );
#347 = VERTEX_POINT( '', #413 );
#348 = VERTEX_POINT( '', #414 );
#349 = LINE( '', #415, #416 );
#350 = CIRCLE( '', #417, 9.50000000000000 );
#351 = CIRCLE( '', #418, 2.50000000000000 );
#352 = FILL_AREA_STYLE_COLOUR( '', #419 );
#353 = VERTEX_POINT( '', #420 );
#354 = CIRCLE( '', #421, 0.492820323000000 );
#355 = FILL_AREA_STYLE_COLOUR( '', #422 );
#356 = VERTEX_POINT( '', #423 );
#357 = B_SPLINE_CURVE_WITH_KNOTS( '', 3, ( #424, #425, #426, #427 ), .UNSPECIFIED., .F., .F., ( 4, 4 ), ( 0.0101824675639051, 0.0109018982244664 ), .UNSPECIFIED. );
#358 = VERTEX_POINT( '', #428 );
#359 = LINE( '', #429, #430 );
#360 = VERTEX_POINT( '', #431 );
#361 = LINE( '', #432, #433 );
#362 = VERTEX_POINT( '', #434 );
#363 = B_SPLINE_CURVE_WITH_KNOTS( '', 3, ( #435, #436, #437, #438 ), .UNSPECIFIED., .F., .F., ( 4, 4 ), ( 0.00646633689356468, 0.00718568643994940 ), .UNSPECIFIED. );
#364 = LINE( '', #439, #440 );
#365 = FILL_AREA_STYLE_COLOUR( '', #441 );
#366 = VERTEX_POINT( '', #442 );
#367 = CIRCLE( '', #443, 0.600000000000000 );
#368 = FILL_AREA_STYLE_COLOUR( '', #444 );
#369 = CIRCLE( '', #445, 2.50000000000000 );
#370 = CIRCLE( '', #446, 9.50000000000000 );
#371 = VERTEX_POINT( '', #447 );
#372 = CIRCLE( '', #448, 0.600000000000000 );
#373 = FILL_AREA_STYLE_COLOUR( '', #449 );
#374 = VERTEX_POINT( '', #450 );
#375 = CIRCLE( '', #451, 0.600000000000000 );
#376 = FILL_AREA_STYLE_COLOUR( '', #452 );
#377 = CIRCLE( '', #453, 10.0000000000000 );
#378 = CIRCLE( '', #454, 10.0000000000000 );
#379 = FILL_AREA_STYLE_COLOUR( '', #455 );
#380 = FILL_AREA_STYLE_COLOUR( '', #456 );
#381 = FILL_AREA_STYLE_COLOUR( '', #457 );
#382 = FILL_AREA_STYLE_COLOUR( '', #458 );
#383 = FILL_AREA_STYLE_COLOUR( '', #459 );
#384 = COLOUR_RGB( '', 0.689999997600000, 0.689999997600000, 0.689999997600000 );
#385 = CARTESIAN_POINT( '', ( -3.62500000000000, -2.50000000000000, -0.492820323027551 ) );
#386 = AXIS2_PLACEMENT_3D( '', #460, #461, #462 );
#387 = CARTESIAN_POINT( '', ( -3.62500000000000, -2.10000000000000, -0.600000000000000 ) );
#388 = AXIS2_PLACEMENT_3D( '', #463, #464, #465 );
#389 = COLOUR_RGB( '', 0.689999997600000, 0.689999997600000, 0.689999997600000 );
#390 = CARTESIAN_POINT( '', ( -2.50000000000000, 2.50000000000000, 9.16515138991168 ) );
#391 = CARTESIAN_POINT( '', ( -2.50000000000000, 2.00000000000000, 9.68245836551854 ) );
#392 = CARTESIAN_POINT( '', ( -2.50000000000000, 2.50000000000000, 9.16515138991168 ) );
#393 = CARTESIAN_POINT( '', ( -2.50000000000000, 2.33349207827581, 9.33774267499629 ) );
#394 = CARTESIAN_POINT( '', ( -2.50000000000000, 2.16681720941986, 9.51017029246684 ) );
#395 = CARTESIAN_POINT( '', ( -2.50000000000000, 2.00000000000000, 9.68245836551854 ) );
#396 = CARTESIAN_POINT( '', ( -2.50000000000000, 0.500000000000000, 9.68245836551854 ) );
#397 = CARTESIAN_POINT( '', ( -2.50000000000000, 0.000000000000000, 9.68245836551854 ) );
#398 = VECTOR( '', #466, 1000.00000000000 );
#399 = CARTESIAN_POINT( '', ( -2.50000000000000, 0.000000000000000, 9.16515138991168 ) );
#400 = CARTESIAN_POINT( '', ( -2.50000000000000, 0.500000000000001, 9.68245836551854 ) );
#401 = CARTESIAN_POINT( '', ( -2.50000000000000, 0.333182790580145, 9.51017029246684 ) );
#402 = CARTESIAN_POINT( '', ( -2.50000000000000, 0.166507921724195, 9.33774267499629 ) );
#403 = CARTESIAN_POINT( '', ( -2.50000000000000, 1.17173206445930E-15, 9.16515138991168 ) );
#404 = CARTESIAN_POINT( '', ( -2.50000000000000, 0.000000000000000, 0.000000000000000 ) );
#405 = CARTESIAN_POINT( '', ( -2.50000000000000, 0.000000000000000, 0.000000000000000 ) );
#406 = VECTOR( '', #467, 1000.00000000000 );
#407 = CARTESIAN_POINT( '', ( -2.50000000000000, 2.50000000000000, 0.000000000000000 ) );
#408 = CARTESIAN_POINT( '', ( -2.50000000000000, 2.50000000000000, 0.000000000000000 ) );
#409 = VECTOR( '', #468, 1000.00000000000 );
#410 = CARTESIAN_POINT( '', ( -2.50000000000000, 2.50000000000000, 0.000000000000000 ) );
#411 = VECTOR( '', #469, 1000.00000000000 );
#412 = COLOUR_RGB( '', 0.689999997600000, 0.689999997600000, 0.689999997600000 );
#413 = CARTESIAN_POINT( '', ( 2.50000000000000, 2.50000000000000, 9.16515138991168 ) );
#414 = CARTESIAN_POINT( '', ( 2.50000000000000, 2.50000000000000, 0.000000000000000 ) );
#415 = CARTESIAN_POINT( '', ( 2.50000000000000, 2.50000000000000, 11.0000000000000 ) );
#416 = VECTOR( '', #470, 1000.00000000000 );
#417 = AXIS2_PLACEMENT_3D( '', #471, #472, #473 );
#418 = AXIS2_PLACEMENT_3D( '', #474, #475, #476 );
#419 = COLOUR_RGB( '', 0.689999997600000, 0.689999997600000, 0.689999997600000 );
#420 = CARTESIAN_POINT( '', ( 3.62500000000000, -2.50000000000000, -0.492820323027550 ) );
#421 = AXIS2_PLACEMENT_3D( '', #477, #478, #479 );
#422 = COLOUR_RGB( '', 0.689999997600000, 0.689999997600000, 0.689999997600000 );
#423 = CARTESIAN_POINT( '', ( 2.50000000000000, 2.00000000000000, 9.68245836551854 ) );
#424 = CARTESIAN_POINT( '', ( 2.50000000000000, 2.00000000000000, 9.68245836551854 ) );
#425 = CARTESIAN_POINT( '', ( 2.50000000000000, 2.16681720941986, 9.51017029246684 ) );
#426 = CARTESIAN_POINT( '', ( 2.50000000000000, 2.33349207827581, 9.33774267499629 ) );
#427 = CARTESIAN_POINT( '', ( 2.50000000000000, 2.50000000000000, 9.16515138991168 ) );
#428 = CARTESIAN_POINT( '', ( 2.50000000000000, 0.000000000000000, 0.000000000000000 ) );
#429 = CARTESIAN_POINT( '', ( 2.50000000000000, 2.50000000000000, 0.000000000000000 ) );
#430 = VECTOR( '', #480, 1000.00000000000 );
#431 = CARTESIAN_POINT( '', ( 2.50000000000000, 0.000000000000000, 9.16515138991168 ) );
#432 = CARTESIAN_POINT( '', ( 2.50000000000000, 0.000000000000000, 0.000000000000000 ) );
#433 = VECTOR( '', #481, 1000.00000000000 );
#434 = CARTESIAN_POINT( '', ( 2.50000000000000, 0.500000000000000, 9.68245836551854 ) );
#435 = CARTESIAN_POINT( '', ( 2.50000000000000, -3.36002307694029E-16, 9.16515138991168 ) );
#436 = CARTESIAN_POINT( '', ( 2.50000000000000, 0.166507921724194, 9.33774267499629 ) );
#437 = CARTESIAN_POINT( '', ( 2.50000000000000, 0.333182790580144, 9.51017029246684 ) );
#438 = CARTESIAN_POINT( '', ( 2.50000000000000, 0.500000000000000, 9.68245836551854 ) );
#439 = CARTESIAN_POINT( '', ( 2.50000000000000, 0.000000000000000, 9.68245836551854 ) );
#440 = VECTOR( '', #482, 1000.00000000000 );
#441 = COLOUR_RGB( '', 0.689999997600000, 0.689999997600000, 0.689999997600000 );
#442 = CARTESIAN_POINT( '', ( -3.62500000000000, 0.000000000000000, 0.600000000000000 ) );
#443 = AXIS2_PLACEMENT_3D( '', #483, #484, #485 );
#444 = COLOUR_RGB( '', 0.689999997600000, 0.689999997600000, 0.689999997600000 );
#445 = AXIS2_PLACEMENT_3D( '', #486, #487, #488 );
#446 = AXIS2_PLACEMENT_3D( '', #489, #490, #491 );
#447 = CARTESIAN_POINT( '', ( 3.62500000000000, 0.000000000000000, 0.599999999999999 ) );
#448 = AXIS2_PLACEMENT_3D( '', #492, #493, #494 );
#449 = COLOUR_RGB( '', 0.689999997600000, 0.689999997600000, 0.689999997600000 );
#450 = CARTESIAN_POINT( '', ( 3.62500000000000, -2.10000000000000, -0.599999999999999 ) );
#451 = AXIS2_PLACEMENT_3D( '', #495, #496, #497 );
#452 = COLOUR_RGB( '', 0.689999997600000, 0.689999997600000, 0.689999997600000 );
#453 = AXIS2_PLACEMENT_3D( '', #498, #499, #500 );
#454 = AXIS2_PLACEMENT_3D( '', #501, #502, #503 );
#455 = COLOUR_RGB( '', 0.689999997600000, 0.689999997600000, 0.689999997600000 );
#456 = COLOUR_RGB( '', 0.689999997600000, 0.689999997600000, 0.689999997600000 );
#457 = COLOUR_RGB( '', 0.689999997600000, 0.689999997600000, 0.689999997600000 );
#458 = COLOUR_RGB( '', 0.689999997600000, 0.689999997600000, 0.689999997600000 );
#459 = COLOUR_RGB( '', 0.689999997600000, 0.689999997600000, 0.689999997600000 );
#460 = CARTESIAN_POINT( '', ( -3.62500000000000, -2.50000000000000, 0.000000000000000 ) );
#461 = DIRECTION( '', ( 0.000000000000000, -1.00000000000000, -0.000000000000000 ) );
#462 = DIRECTION( '', ( 0.000000000000000, 0.000000000000000, -1.00000000000000 ) );
#463 = CARTESIAN_POINT( '', ( -3.62500000000000, -2.10000000000000, 0.000000000000000 ) );
#464 = DIRECTION( '', ( 0.000000000000000, -1.00000000000000, -0.000000000000000 ) );
#465 = DIRECTION( '', ( 0.000000000000000, 0.000000000000000, -1.00000000000000 ) );
#466 = DIRECTION( '', ( -0.000000000000000, -1.00000000000000, -0.000000000000000 ) );
#467 = DIRECTION( '', ( 0.000000000000000, 0.000000000000000, 1.00000000000000 ) );
#468 = DIRECTION( '', ( -0.000000000000000, -1.00000000000000, -0.000000000000000 ) );
#469 = DIRECTION( '', ( 0.000000000000000, 0.000000000000000, 1.00000000000000 ) );
#470 = DIRECTION( '', ( 0.000000000000000, 0.000000000000000, -1.00000000000000 ) );
#471 = CARTESIAN_POINT( '', ( 0.000000000000000, 2.50000000000000, 0.000000000000000 ) );
#472 = DIRECTION( '', ( 0.000000000000000, -1.00000000000000, -0.000000000000000 ) );
#473 = DIRECTION( '', ( 0.000000000000000, 0.000000000000000, -1.00000000000000 ) );
#474 = CARTESIAN_POINT( '', ( 0.000000000000000, 2.50000000000000, 2.16840434497101E-16 ) );
#475 = DIRECTION( '', ( -0.000000000000000, 1.00000000000000, 0.000000000000000 ) );
#476 = DIRECTION( '', ( 1.00000000000000, 0.000000000000000, 0.000000000000000 ) );
#477 = CARTESIAN_POINT( '', ( 3.62500000000000, -2.50000000000000, 0.000000000000000 ) );
#478 = DIRECTION( '', ( 0.000000000000000, -1.00000000000000, -0.000000000000000 ) );
#479 = DIRECTION( '', ( 0.000000000000000, 0.000000000000000, -1.00000000000000 ) );
#480 = DIRECTION( '', ( -0.000000000000000, -1.00000000000000, -0.000000000000000 ) );
#481 = DIRECTION( '', ( 0.000000000000000, -0.000000000000000, 1.00000000000000 ) );
#482 = DIRECTION( '', ( -0.000000000000000, -1.00000000000000, -0.000000000000000 ) );
#483 = CARTESIAN_POINT( '', ( -3.62500000000000, 0.000000000000000, 0.000000000000000 ) );
#484 = DIRECTION( '', ( 0.000000000000000, 1.00000000000000, 0.000000000000000 ) );
#485 = DIRECTION( '', ( 0.000000000000000, -0.000000000000000, 1.00000000000000 ) );
#486 = CARTESIAN_POINT( '', ( 4.33680868994202E-16, 0.000000000000000, 4.33680868994202E-16 ) );
#487 = DIRECTION( '', ( -0.000000000000000, 1.00000000000000, 0.000000000000000 ) );
#488 = DIRECTION( '', ( 1.00000000000000, 0.000000000000000, 0.000000000000000 ) );
#489 = CARTESIAN_POINT( '', ( 0.000000000000000, 0.000000000000000, 0.000000000000000 ) );
#490 = DIRECTION( '', ( 0.000000000000000, -1.00000000000000, -0.000000000000000 ) );
#491 = DIRECTION( '', ( 0.000000000000000, 0.000000000000000, -1.00000000000000 ) );
#492 = CARTESIAN_POINT( '', ( 3.62500000000000, 0.000000000000000, 0.000000000000000 ) );
#493 = DIRECTION( '', ( 0.000000000000000, 1.00000000000000, 0.000000000000000 ) );
#494 = DIRECTION( '', ( 0.000000000000000, -0.000000000000000, 1.00000000000000 ) );
#495 = CARTESIAN_POINT( '', ( 3.62500000000000, -2.10000000000000, 0.000000000000000 ) );
#496 = DIRECTION( '', ( 0.000000000000000, -1.00000000000000, -0.000000000000000 ) );
#497 = DIRECTION( '', ( 0.000000000000000, 0.000000000000000, -1.00000000000000 ) );
#498 = CARTESIAN_POINT( '', ( 0.000000000000000, 0.500000000000000, 0.000000000000000 ) );
#499 = DIRECTION( '', ( 0.000000000000000, -1.00000000000000, -0.000000000000000 ) );
#500 = DIRECTION( '', ( 0.000000000000000, 0.000000000000000, -1.00000000000000 ) );
#501 = CARTESIAN_POINT( '', ( 0.000000000000000, 2.00000000000000, 0.000000000000000 ) );
#502 = DIRECTION( '', ( 0.000000000000000, -1.00000000000000, -0.000000000000000 ) );
#503 = DIRECTION( '', ( 0.000000000000000, 0.000000000000000, -1.00000000000000 ) );
ENDSEC;
END-ISO-10303-21;
