ISO-10303-21;
HEADER;
FILE_DESCRIPTION( ( 'STEP AP214' ), '1' );
FILE_NAME( '//goodhand-server/Shared Folders/GoodHand Data/Kipp CAD/K0390/K0390.121X100.stp', '2020-12-07T10:15:52', ( '' ), ( '' ), ' ', 'PARTsolutions', ' ' );
FILE_SCHEMA( ( 'AUTOMOTIVE_DESIGN { 1 0 10303 214 1 1 1 1 }' ) );
ENDSEC;
DATA;
#1 = MECHANICAL_DESIGN_GEOMETRIC_PRESENTATION_REPRESENTATION( ' ', ( #10, #11, #12, #13, #14, #15, #16, #17, #18, #19, #20, #21, #22 ), #6 );
#2 = PRODUCT_DEFINITION_CONTEXT( '', #23, 'design' );
#3 = APPLICATION_PROTOCOL_DEFINITION( 'international standard', 'automotive_design', 2001, #23 );
#4 = PRODUCT_CATEGORY_RELATIONSHIP( 'NONE', 'NONE', #24, #25 );
#5 = SHAPE_DEFINITION_REPRESENTATION( #26, #27 );
#6 =  ( GEOMETRIC_REPRESENTATION_CONTEXT( 3 )GLOBAL_UNCERTAINTY_ASSIGNED_CONTEXT( ( #30 ) )GLOBAL_UNIT_ASSIGNED_CONTEXT( ( #32, #33, #34 ) )REPRESENTATION_CONTEXT( 'NONE', 'WORKSPACE' ) );
#10 = STYLED_ITEM( '', ( #36 ), #37 );
#11 = STYLED_ITEM( '', ( #38 ), #39 );
#12 = STYLED_ITEM( '', ( #40 ), #41 );
#13 = STYLED_ITEM( '', ( #42 ), #43 );
#14 = STYLED_ITEM( '', ( #44 ), #45 );
#15 = STYLED_ITEM( '', ( #46 ), #47 );
#16 = STYLED_ITEM( '', ( #48 ), #49 );
#17 = STYLED_ITEM( '', ( #50 ), #51 );
#18 = STYLED_ITEM( '', ( #52 ), #53 );
#19 = STYLED_ITEM( '', ( #54 ), #55 );
#20 = STYLED_ITEM( '', ( #56 ), #57 );
#21 = STYLED_ITEM( '', ( #58 ), #59 );
#22 = STYLED_ITEM( '', ( #60 ), #61 );
#23 = APPLICATION_CONTEXT( 'core data for automotive mechanical design processes' );
#24 = PRODUCT_CATEGORY( 'part', 'NONE' );
#25 = PRODUCT_RELATED_PRODUCT_CATEGORY( 'detail', ' ', ( #62 ) );
#26 = PRODUCT_DEFINITION_SHAPE( 'NONE', 'NONE', #63 );
#27 = ADVANCED_BREP_SHAPE_REPRESENTATION( '_K0390.121X100', ( #64, #65 ), #6 );
#30 = UNCERTAINTY_MEASURE_WITH_UNIT( LENGTH_MEASURE( 0.00100000000000000 ), #32, '', '' );
#32 =  ( CONVERSION_BASED_UNIT( 'MILLIMETRE', #68 )LENGTH_UNIT(  )NAMED_UNIT( #71 ) );
#33 =  ( NAMED_UNIT( #73 )PLANE_ANGLE_UNIT(  )SI_UNIT( $, .RADIAN. ) );
#34 =  ( NAMED_UNIT( #73 )SI_UNIT( $, .STERADIAN. )SOLID_ANGLE_UNIT(  ) );
#36 = PRESENTATION_STYLE_ASSIGNMENT( ( #79 ) );
#37 = ADVANCED_FACE( '', ( #80, #81 ), #82, .T. );
#38 = PRESENTATION_STYLE_ASSIGNMENT( ( #83 ) );
#39 = ADVANCED_FACE( '', ( #84 ), #85, .T. );
#40 = PRESENTATION_STYLE_ASSIGNMENT( ( #86 ) );
#41 = ADVANCED_FACE( '', ( #87, #88 ), #89, .F. );
#42 = PRESENTATION_STYLE_ASSIGNMENT( ( #90 ) );
#43 = ADVANCED_FACE( '', ( #91 ), #92, .T. );
#44 = PRESENTATION_STYLE_ASSIGNMENT( ( #93 ) );
#45 = ADVANCED_FACE( '', ( #94 ), #95, .T. );
#46 = PRESENTATION_STYLE_ASSIGNMENT( ( #96 ) );
#47 = ADVANCED_FACE( '', ( #97 ), #98, .F. );
#48 = PRESENTATION_STYLE_ASSIGNMENT( ( #99 ) );
#49 = ADVANCED_FACE( '', ( #100 ), #101, .F. );
#50 = PRESENTATION_STYLE_ASSIGNMENT( ( #102 ) );
#51 = ADVANCED_FACE( '', ( #103, #104 ), #105, .T. );
#52 = PRESENTATION_STYLE_ASSIGNMENT( ( #106 ) );
#53 = ADVANCED_FACE( '', ( #107 ), #108, .F. );
#54 = PRESENTATION_STYLE_ASSIGNMENT( ( #109 ) );
#55 = ADVANCED_FACE( '', ( #110, #111 ), #112, .T. );
#56 = PRESENTATION_STYLE_ASSIGNMENT( ( #113 ) );
#57 = ADVANCED_FACE( '', ( #114 ), #115, .F. );
#58 = PRESENTATION_STYLE_ASSIGNMENT( ( #116 ) );
#59 = ADVANCED_FACE( '', ( #117, #118 ), #119, .T. );
#60 = PRESENTATION_STYLE_ASSIGNMENT( ( #120 ) );
#61 = ADVANCED_FACE( '', ( #121, #122 ), #123, .T. );
#62 = PRODUCT( '_K0390.121X100', '_K0390.121X100', 'PART-_K0390.121X100-DESC', ( #124 ) );
#63 = PRODUCT_DEFINITION( 'NONE', 'NONE', #125, #2 );
#64 = MANIFOLD_SOLID_BREP( '_K0390.121X100', #126 );
#65 = AXIS2_PLACEMENT_3D( '', #127, #128, #129 );
#68 = LENGTH_MEASURE_WITH_UNIT( LENGTH_MEASURE( 1.00000000000000 ), #130 );
#71 = DIMENSIONAL_EXPONENTS( 1.00000000000000, 0.000000000000000, 0.000000000000000, 0.000000000000000, 0.000000000000000, 0.000000000000000, 0.000000000000000 );
#73 = DIMENSIONAL_EXPONENTS( 0.000000000000000, 0.000000000000000, 0.000000000000000, 0.000000000000000, 0.000000000000000, 0.000000000000000, 0.000000000000000 );
#79 = SURFACE_STYLE_USAGE( .BOTH., #131 );
#80 = FACE_OUTER_BOUND( '', #132, .T. );
#81 = FACE_OUTER_BOUND( '', #133, .T. );
#82 = CYLINDRICAL_SURFACE( '', #134, 4.00000000000000 );
#83 = SURFACE_STYLE_USAGE( .BOTH., #135 );
#84 = FACE_OUTER_BOUND( '', #136, .T. );
#85 = CONICAL_SURFACE( '', #137, 4.92650000000000, 0.785398163400000 );
#86 = SURFACE_STYLE_USAGE( .BOTH., #138 );
#87 = FACE_OUTER_BOUND( '', #139, .T. );
#88 = FACE_BOUND( '', #140, .T. );
#89 = PLANE( '', #141 );
#90 = SURFACE_STYLE_USAGE( .BOTH., #142 );
#91 = FACE_OUTER_BOUND( '', #143, .T. );
#92 = PLANE( '', #144 );
#93 = SURFACE_STYLE_USAGE( .BOTH., #145 );
#94 = FACE_OUTER_BOUND( '', #146, .T. );
#95 = CONICAL_SURFACE( '', #147, 4.92650000000000, 0.785398163400000 );
#96 = SURFACE_STYLE_USAGE( .BOTH., #148 );
#97 = FACE_OUTER_BOUND( '', #149, .T. );
#98 = PLANE( '', #150 );
#99 = SURFACE_STYLE_USAGE( .BOTH., #151 );
#100 = FACE_OUTER_BOUND( '', #152, .T. );
#101 = PLANE( '', #153 );
#102 = SURFACE_STYLE_USAGE( .BOTH., #154 );
#103 = FACE_OUTER_BOUND( '', #155, .T. );
#104 = FACE_OUTER_BOUND( '', #156, .T. );
#105 = CYLINDRICAL_SURFACE( '', #157, 6.00000000000000 );
#106 = SURFACE_STYLE_USAGE( .BOTH., #158 );
#107 = FACE_OUTER_BOUND( '', #159, .T. );
#108 = PLANE( '', #160 );
#109 = SURFACE_STYLE_USAGE( .BOTH., #161 );
#110 = FACE_BOUND( '', #162, .T. );
#111 = FACE_OUTER_BOUND( '', #163, .T. );
#112 = CONICAL_SURFACE( '', #164, 6.00000000000000, 1.18946407340000 );
#113 = SURFACE_STYLE_USAGE( .BOTH., #165 );
#114 = FACE_OUTER_BOUND( '', #166, .T. );
#115 = PLANE( '', #167 );
#116 = SURFACE_STYLE_USAGE( .BOTH., #168 );
#117 = FACE_BOUND( '', #169, .T. );
#118 = FACE_OUTER_BOUND( '', #170, .T. );
#119 = SPHERICAL_SURFACE( '', #171, 6.70960000000000 );
#120 = SURFACE_STYLE_USAGE( .BOTH., #172 );
#121 = FACE_OUTER_BOUND( '', #173, .T. );
#122 = FACE_OUTER_BOUND( '', #174, .T. );
#123 = CYLINDRICAL_SURFACE( '', #175, 3.60000000000000 );
#124 = PRODUCT_CONTEXT( '', #23, 'mechanical' );
#125 = PRODUCT_DEFINITION_FORMATION_WITH_SPECIFIED_SOURCE( ' ', 'NONE', #62, .NOT_KNOWN. );
#126 = CLOSED_SHELL( '', ( #53, #49, #59, #37, #41, #61, #55, #51, #39, #57, #45, #47, #43 ) );
#127 = CARTESIAN_POINT( '', ( 0.000000000000000, 0.000000000000000, 0.000000000000000 ) );
#128 = DIRECTION( '', ( 0.000000000000000, 0.000000000000000, 1.00000000000000 ) );
#129 = DIRECTION( '', ( 1.00000000000000, 0.000000000000000, 0.000000000000000 ) );
#130 =  ( LENGTH_UNIT(  )NAMED_UNIT( #71 )SI_UNIT( .MILLI., .METRE. ) );
#131 = SURFACE_SIDE_STYLE( '', ( #177 ) );
#132 = EDGE_LOOP( '', ( #178 ) );
#133 = EDGE_LOOP( '', ( #179 ) );
#134 = AXIS2_PLACEMENT_3D( '', #180, #181, #182 );
#135 = SURFACE_SIDE_STYLE( '', ( #183 ) );
#136 = EDGE_LOOP( '', ( #184, #185, #186, #187 ) );
#137 = AXIS2_PLACEMENT_3D( '', #188, #189, #190 );
#138 = SURFACE_SIDE_STYLE( '', ( #191 ) );
#139 = EDGE_LOOP( '', ( #192 ) );
#140 = EDGE_LOOP( '', ( #193 ) );
#141 = AXIS2_PLACEMENT_3D( '', #194, #195, #196 );
#142 = SURFACE_SIDE_STYLE( '', ( #197 ) );
#143 = EDGE_LOOP( '', ( #198, #199, #200, #201 ) );
#144 = AXIS2_PLACEMENT_3D( '', #202, #203, #204 );
#145 = SURFACE_SIDE_STYLE( '', ( #205 ) );
#146 = EDGE_LOOP( '', ( #206, #207, #208, #209 ) );
#147 = AXIS2_PLACEMENT_3D( '', #210, #211, #212 );
#148 = SURFACE_SIDE_STYLE( '', ( #213 ) );
#149 = EDGE_LOOP( '', ( #214, #215 ) );
#150 = AXIS2_PLACEMENT_3D( '', #216, #217, #218 );
#151 = SURFACE_SIDE_STYLE( '', ( #219 ) );
#152 = EDGE_LOOP( '', ( #220, #221, #222, #223, #224, #225 ) );
#153 = AXIS2_PLACEMENT_3D( '', #226, #227, #228 );
#154 = SURFACE_SIDE_STYLE( '', ( #229 ) );
#155 = EDGE_LOOP( '', ( #230 ) );
#156 = EDGE_LOOP( '', ( #231, #232, #233, #234, #235, #236, #237, #238 ) );
#157 = AXIS2_PLACEMENT_3D( '', #239, #240, #241 );
#158 = SURFACE_SIDE_STYLE( '', ( #242 ) );
#159 = EDGE_LOOP( '', ( #243, #244, #245, #246, #247, #248 ) );
#160 = AXIS2_PLACEMENT_3D( '', #249, #250, #251 );
#161 = SURFACE_SIDE_STYLE( '', ( #252 ) );
#162 = EDGE_LOOP( '', ( #253 ) );
#163 = EDGE_LOOP( '', ( #254 ) );
#164 = AXIS2_PLACEMENT_3D( '', #255, #256, #257 );
#165 = SURFACE_SIDE_STYLE( '', ( #258 ) );
#166 = EDGE_LOOP( '', ( #259, #260 ) );
#167 = AXIS2_PLACEMENT_3D( '', #261, #262, #263 );
#168 = SURFACE_SIDE_STYLE( '', ( #264 ) );
#169 = VERTEX_LOOP( '', #265 );
#170 = EDGE_LOOP( '', ( #266 ) );
#171 = AXIS2_PLACEMENT_3D( '', #267, #268, #269 );
#172 = SURFACE_SIDE_STYLE( '', ( #270 ) );
#173 = EDGE_LOOP( '', ( #271 ) );
#174 = EDGE_LOOP( '', ( #272 ) );
#175 = AXIS2_PLACEMENT_3D( '', #273, #274, #275 );
#177 = SURFACE_STYLE_FILL_AREA( #276 );
#178 = ORIENTED_EDGE( '', *, *, #277, .F. );
#179 = ORIENTED_EDGE( '', *, *, #278, .T. );
#180 = CARTESIAN_POINT( '', ( 100.000000000000, -5.32907051820075E-15, 0.000000000000000 ) );
#181 = DIRECTION( '', ( -1.00000000000000, 6.12323399573677E-17, 0.000000000000000 ) );
#182 = DIRECTION( '', ( 6.12323399573677E-17, 1.00000000000000, 0.000000000000000 ) );
#183 = SURFACE_STYLE_FILL_AREA( #279 );
#184 = ORIENTED_EDGE( '', *, *, #280, .T. );
#185 = ORIENTED_EDGE( '', *, *, #281, .T. );
#186 = ORIENTED_EDGE( '', *, *, #282, .F. );
#187 = ORIENTED_EDGE( '', *, *, #283, .T. );
#188 = CARTESIAN_POINT( '', ( 0.000000000000000, 7.94163477536016E-16, 0.000000000000000 ) );
#189 = DIRECTION( '', ( 1.00000000000000, -6.12323399573677E-17, -0.000000000000000 ) );
#190 = DIRECTION( '', ( 6.12323399573677E-17, 1.00000000000000, 0.000000000000000 ) );
#191 = SURFACE_STYLE_FILL_AREA( #284 );
#192 = ORIENTED_EDGE( '', *, *, #278, .F. );
#193 = ORIENTED_EDGE( '', *, *, #285, .T. );
#194 = CARTESIAN_POINT( '', ( 95.5000000000000, 3.60000000000000, 0.000000000000000 ) );
#195 = DIRECTION( '', ( 1.00000000000000, -6.12323399573677E-17, -0.000000000000000 ) );
#196 = DIRECTION( '', ( 6.12323399573677E-17, 1.00000000000000, 0.000000000000000 ) );
#197 = SURFACE_STYLE_FILL_AREA( #286 );
#198 = ORIENTED_EDGE( '', *, *, #287, .T. );
#199 = ORIENTED_EDGE( '', *, *, #288, .T. );
#200 = ORIENTED_EDGE( '', *, *, #289, .T. );
#201 = ORIENTED_EDGE( '', *, *, #290, .T. );
#202 = CARTESIAN_POINT( '', ( 3.00000000000000, 0.000000000000000, 0.000000000000000 ) );
#203 = DIRECTION( '', ( -1.00000000000000, 0.000000000000000, 0.000000000000000 ) );
#204 = DIRECTION( '', ( 0.000000000000000, 0.000000000000000, 1.00000000000000 ) );
#205 = SURFACE_STYLE_FILL_AREA( #291 );
#206 = ORIENTED_EDGE( '', *, *, #292, .F. );
#207 = ORIENTED_EDGE( '', *, *, #293, .T. );
#208 = ORIENTED_EDGE( '', *, *, #294, .T. );
#209 = ORIENTED_EDGE( '', *, *, #295, .T. );
#210 = CARTESIAN_POINT( '', ( 0.000000000000000, 7.94163477536016E-16, 0.000000000000000 ) );
#211 = DIRECTION( '', ( 1.00000000000000, -6.12323399573677E-17, -0.000000000000000 ) );
#212 = DIRECTION( '', ( 6.12323399573677E-17, 1.00000000000000, 0.000000000000000 ) );
#213 = SURFACE_STYLE_FILL_AREA( #296 );
#214 = ORIENTED_EDGE( '', *, *, #280, .F. );
#215 = ORIENTED_EDGE( '', *, *, #297, .F. );
#216 = CARTESIAN_POINT( '', ( -1.50830561399986E-16, 7.94163477536015E-16, 0.000000000000000 ) );
#217 = DIRECTION( '', ( 1.00000000000000, -6.12323399573677E-17, -0.000000000000000 ) );
#218 = DIRECTION( '', ( 6.12323399573677E-17, 1.00000000000000, 0.000000000000000 ) );
#219 = SURFACE_STYLE_FILL_AREA( #298 );
#220 = ORIENTED_EDGE( '', *, *, #299, .T. );
#221 = ORIENTED_EDGE( '', *, *, #293, .F. );
#222 = ORIENTED_EDGE( '', *, *, #300, .F. );
#223 = ORIENTED_EDGE( '', *, *, #288, .F. );
#224 = ORIENTED_EDGE( '', *, *, #301, .F. );
#225 = ORIENTED_EDGE( '', *, *, #295, .F. );
#226 = CARTESIAN_POINT( '', ( 3.00000000000000, -0.899999999999999, -10.5000000000000 ) );
#227 = DIRECTION( '', ( 0.000000000000000, -1.00000000000000, 0.000000000000000 ) );
#228 = DIRECTION( '', ( 0.000000000000000, 0.000000000000000, -1.00000000000000 ) );
#229 = SURFACE_STYLE_FILL_AREA( #302 );
#230 = ORIENTED_EDGE( '', *, *, #303, .F. );
#231 = ORIENTED_EDGE( '', *, *, #292, .T. );
#232 = ORIENTED_EDGE( '', *, *, #301, .T. );
#233 = ORIENTED_EDGE( '', *, *, #287, .F. );
#234 = ORIENTED_EDGE( '', *, *, #304, .T. );
#235 = ORIENTED_EDGE( '', *, *, #282, .T. );
#236 = ORIENTED_EDGE( '', *, *, #305, .T. );
#237 = ORIENTED_EDGE( '', *, *, #289, .F. );
#238 = ORIENTED_EDGE( '', *, *, #300, .T. );
#239 = CARTESIAN_POINT( '', ( 100.000000000000, -5.32907051820075E-15, 0.000000000000000 ) );
#240 = DIRECTION( '', ( -1.00000000000000, 6.12323399573677E-17, 0.000000000000000 ) );
#241 = DIRECTION( '', ( 6.12323399573677E-17, 1.00000000000000, 0.000000000000000 ) );
#242 = SURFACE_STYLE_FILL_AREA( #306 );
#243 = ORIENTED_EDGE( '', *, *, #281, .F. );
#244 = ORIENTED_EDGE( '', *, *, #297, .T. );
#245 = ORIENTED_EDGE( '', *, *, #283, .F. );
#246 = ORIENTED_EDGE( '', *, *, #304, .F. );
#247 = ORIENTED_EDGE( '', *, *, #290, .F. );
#248 = ORIENTED_EDGE( '', *, *, #305, .F. );
#249 = CARTESIAN_POINT( '', ( 3.00000000000000, 0.900000000000001, 10.5000000000000 ) );
#250 = DIRECTION( '', ( 0.000000000000000, 1.00000000000000, 0.000000000000000 ) );
#251 = DIRECTION( '', ( 0.000000000000000, -0.000000000000000, 1.00000000000000 ) );
#252 = SURFACE_STYLE_FILL_AREA( #307 );
#253 = ORIENTED_EDGE( '', *, *, #308, .F. );
#254 = ORIENTED_EDGE( '', *, *, #303, .T. );
#255 = CARTESIAN_POINT( '', ( 90.0000000000000, -4.71674711862707E-15, 0.000000000000000 ) );
#256 = DIRECTION( '', ( -1.00000000000000, 6.12323399573677E-17, -0.000000000000000 ) );
#257 = DIRECTION( '', ( -6.12323399573677E-17, -1.00000000000000, 0.000000000000000 ) );
#258 = SURFACE_STYLE_FILL_AREA( #309 );
#259 = ORIENTED_EDGE( '', *, *, #294, .F. );
#260 = ORIENTED_EDGE( '', *, *, #299, .F. );
#261 = CARTESIAN_POINT( '', ( -1.50830561399986E-16, 7.94163477536015E-16, 0.000000000000000 ) );
#262 = DIRECTION( '', ( 1.00000000000000, -6.12323399573677E-17, -0.000000000000000 ) );
#263 = DIRECTION( '', ( 6.12323399573677E-17, 1.00000000000000, 0.000000000000000 ) );
#264 = SURFACE_STYLE_FILL_AREA( #310 );
#265 = VERTEX_POINT( '', #311 );
#266 = ORIENTED_EDGE( '', *, *, #277, .T. );
#267 = CARTESIAN_POINT( '', ( 93.2904000000002, 5.24753851482984E-14, 0.000000000000000 ) );
#268 = DIRECTION( '', ( 1.00000000000000, 0.000000000000000, 0.000000000000000 ) );
#269 = DIRECTION( '', ( 0.000000000000000, -1.00000000000000, 0.000000000000000 ) );
#270 = SURFACE_STYLE_FILL_AREA( #312 );
#271 = ORIENTED_EDGE( '', *, *, #285, .F. );
#272 = ORIENTED_EDGE( '', *, *, #308, .T. );
#273 = CARTESIAN_POINT( '', ( 100.000000000000, -5.32907051820075E-15, 0.000000000000000 ) );
#274 = DIRECTION( '', ( -1.00000000000000, 6.12323399573677E-17, 0.000000000000000 ) );
#275 = DIRECTION( '', ( 6.12323399573677E-17, 1.00000000000000, 0.000000000000000 ) );
#276 = FILL_AREA_STYLE( '', ( #313 ) );
#277 = EDGE_CURVE( '', #314, #314, #315, .T. );
#278 = EDGE_CURVE( '', #316, #316, #317, .T. );
#279 = FILL_AREA_STYLE( '', ( #318 ) );
#280 = EDGE_CURVE( '', #319, #320, #321, .T. );
#281 = EDGE_CURVE( '', #320, #322, #323, .T. );
#282 = EDGE_CURVE( '', #324, #322, #325, .T. );
#283 = EDGE_CURVE( '', #324, #319, #326, .T. );
#284 = FILL_AREA_STYLE( '', ( #327 ) );
#285 = EDGE_CURVE( '', #328, #328, #329, .T. );
#286 = FILL_AREA_STYLE( '', ( #330 ) );
#287 = EDGE_CURVE( '', #331, #332, #333, .T. );
#288 = EDGE_CURVE( '', #332, #334, #335, .T. );
#289 = EDGE_CURVE( '', #334, #336, #337, .T. );
#290 = EDGE_CURVE( '', #336, #331, #338, .T. );
#291 = FILL_AREA_STYLE( '', ( #339 ) );
#292 = EDGE_CURVE( '', #340, #341, #342, .T. );
#293 = EDGE_CURVE( '', #340, #343, #344, .T. );
#294 = EDGE_CURVE( '', #343, #345, #346, .T. );
#295 = EDGE_CURVE( '', #345, #341, #347, .T. );
#296 = FILL_AREA_STYLE( '', ( #348 ) );
#297 = EDGE_CURVE( '', #320, #319, #349, .T. );
#298 = FILL_AREA_STYLE( '', ( #350 ) );
#299 = EDGE_CURVE( '', #345, #343, #351, .T. );
#300 = EDGE_CURVE( '', #334, #340, #352, .F. );
#301 = EDGE_CURVE( '', #341, #332, #353, .T. );
#302 = FILL_AREA_STYLE( '', ( #354 ) );
#303 = EDGE_CURVE( '', #355, #355, #356, .T. );
#304 = EDGE_CURVE( '', #331, #324, #357, .F. );
#305 = EDGE_CURVE( '', #322, #336, #358, .T. );
#306 = FILL_AREA_STYLE( '', ( #359 ) );
#307 = FILL_AREA_STYLE( '', ( #360 ) );
#308 = EDGE_CURVE( '', #361, #361, #362, .T. );
#309 = FILL_AREA_STYLE( '', ( #363 ) );
#310 = FILL_AREA_STYLE( '', ( #364 ) );
#311 = CARTESIAN_POINT( '', ( 100.000000000000, 5.16536961319425E-14, 0.000000000000000 ) );
#312 = FILL_AREA_STYLE( '', ( #365 ) );
#313 = FILL_AREA_STYLE_COLOUR( '', #366 );
#314 = VERTEX_POINT( '', #367 );
#315 = CIRCLE( '', #368, 4.00000000000000 );
#316 = VERTEX_POINT( '', #369 );
#317 = CIRCLE( '', #370, 4.00000000000000 );
#318 = FILL_AREA_STYLE_COLOUR( '', #371 );
#319 = VERTEX_POINT( '', #372 );
#320 = VERTEX_POINT( '', #373 );
#321 = CIRCLE( '', #374, 4.92650000000000 );
#322 = VERTEX_POINT( '', #375 );
#323 = B_SPLINE_CURVE_WITH_KNOTS( '', 3, ( #376, #377, #378, #379 ), .UNSPECIFIED., .F., .F., ( 4, 4 ), ( 0.0245656796122453, 0.0261075036220750 ), .UNSPECIFIED. );
#324 = VERTEX_POINT( '', #380 );
#325 = CIRCLE( '', #381, 6.00000000000000 );
#326 = B_SPLINE_CURVE_WITH_KNOTS( '', 3, ( #382, #383, #384, #385 ), .UNSPECIFIED., .F., .F., ( 4, 4 ), ( 0.0102495533465439, 0.0117783706769766 ), .UNSPECIFIED. );
#327 = FILL_AREA_STYLE_COLOUR( '', #386 );
#328 = VERTEX_POINT( '', #387 );
#329 = CIRCLE( '', #388, 3.60000000000000 );
#330 = FILL_AREA_STYLE_COLOUR( '', #389 );
#331 = VERTEX_POINT( '', #390 );
#332 = VERTEX_POINT( '', #391 );
#333 = CIRCLE( '', #392, 6.00000000000000 );
#334 = VERTEX_POINT( '', #393 );
#335 = LINE( '', #394, #395 );
#336 = VERTEX_POINT( '', #396 );
#337 = CIRCLE( '', #397, 6.00000000000000 );
#338 = LINE( '', #398, #399 );
#339 = FILL_AREA_STYLE_COLOUR( '', #400 );
#340 = VERTEX_POINT( '', #401 );
#341 = VERTEX_POINT( '', #402 );
#342 = CIRCLE( '', #403, 6.00000000000000 );
#343 = VERTEX_POINT( '', #404 );
#344 = B_SPLINE_CURVE_WITH_KNOTS( '', 3, ( #405, #406, #407, #408 ), .UNSPECIFIED., .F., .F., ( 4, 4 ), ( 0.0102495533465439, 0.0117783706769766 ), .UNSPECIFIED. );
#345 = VERTEX_POINT( '', #409 );
#346 = CIRCLE( '', #410, 4.92650000000000 );
#347 = B_SPLINE_CURVE_WITH_KNOTS( '', 3, ( #411, #412, #413, #414 ), .UNSPECIFIED., .F., .F., ( 4, 4 ), ( 0.0245656796122453, 0.0261075036220749 ), .UNSPECIFIED. );
#348 = FILL_AREA_STYLE_COLOUR( '', #415 );
#349 = LINE( '', #416, #417 );
#350 = FILL_AREA_STYLE_COLOUR( '', #418 );
#351 = LINE( '', #419, #420 );
#352 = LINE( '', #421, #422 );
#353 = LINE( '', #423, #424 );
#354 = FILL_AREA_STYLE_COLOUR( '', #425 );
#355 = VERTEX_POINT( '', #426 );
#356 = CIRCLE( '', #427, 6.00000000000000 );
#357 = LINE( '', #428, #429 );
#358 = LINE( '', #430, #431 );
#359 = FILL_AREA_STYLE_COLOUR( '', #432 );
#360 = FILL_AREA_STYLE_COLOUR( '', #433 );
#361 = VERTEX_POINT( '', #434 );
#362 = CIRCLE( '', #435, 3.60000000000000 );
#363 = FILL_AREA_STYLE_COLOUR( '', #436 );
#364 = FILL_AREA_STYLE_COLOUR( '', #437 );
#365 = FILL_AREA_STYLE_COLOUR( '', #438 );
#366 = COLOUR_RGB( '', 0.689999997600000, 0.689999997600000, 0.689999997600000 );
#367 = CARTESIAN_POINT( '', ( 98.6773037637589, 3.99999999999999, 0.000000000000000 ) );
#368 = AXIS2_PLACEMENT_3D( '', #439, #440, #441 );
#369 = CARTESIAN_POINT( '', ( 95.5000000000000, 4.00000000000000, 0.000000000000000 ) );
#370 = AXIS2_PLACEMENT_3D( '', #442, #443, #444 );
#371 = COLOUR_RGB( '', 0.689999997600000, 0.689999997600000, 0.689999997600000 );
#372 = CARTESIAN_POINT( '', ( 0.000000000000000, 0.900000000000001, -4.84359393942143 ) );
#373 = CARTESIAN_POINT( '', ( 0.000000000000000, 0.900000000000001, 4.84359393942143 ) );
#374 = AXIS2_PLACEMENT_3D( '', #445, #446, #447 );
#375 = CARTESIAN_POINT( '', ( 1.07350000000001, 0.900000000000007, 5.93211597998556 ) );
#376 = CARTESIAN_POINT( '', ( -1.61025414538714E-16, 0.900000000000001, 4.84359393942143 ) );
#377 = CARTESIAN_POINT( '', ( 0.357276898579810, 0.900000000000001, 5.20698621855697 ) );
#378 = CARTESIAN_POINT( '', ( 0.715211048721681, 0.900000000000001, 5.56972695810484 ) );
#379 = CARTESIAN_POINT( '', ( 1.07350000000000, 0.900000000000001, 5.93211597998556 ) );
#380 = CARTESIAN_POINT( '', ( 1.07350000000001, 0.900000000000007, -5.93211597998556 ) );
#381 = AXIS2_PLACEMENT_3D( '', #448, #449, #450 );
#382 = CARTESIAN_POINT( '', ( 1.07350000000001, 0.900000000000001, -5.93211597998556 ) );
#383 = CARTESIAN_POINT( '', ( 0.715209951210060, 0.900000000000001, -5.56972584803387 ) );
#384 = CARTESIAN_POINT( '', ( 0.357275562011626, 0.900000000000001, -5.20698485911122 ) );
#385 = CARTESIAN_POINT( '', ( 4.35165057730285E-16, 0.900000000000001, -4.84359393942143 ) );
#386 = COLOUR_RGB( '', 0.689999997600000, 0.689999997600000, 0.689999997600000 );
#387 = CARTESIAN_POINT( '', ( 95.5000000000000, 3.59999999999999, 0.000000000000000 ) );
#388 = AXIS2_PLACEMENT_3D( '', #451, #452, #453 );
#389 = COLOUR_RGB( '', 0.689999997600000, 0.689999997600000, 0.689999997600000 );
#390 = CARTESIAN_POINT( '', ( 3.00000000000000, 0.900000000000001, -5.93211597998556 ) );
#391 = CARTESIAN_POINT( '', ( 3.00000000000000, -0.899999999999999, -5.93211597998556 ) );
#392 = AXIS2_PLACEMENT_3D( '', #454, #455, #456 );
#393 = CARTESIAN_POINT( '', ( 3.00000000000000, -0.899999999999999, 5.93211597998556 ) );
#394 = CARTESIAN_POINT( '', ( 3.00000000000000, -0.899999999999999, -10.5000000000000 ) );
#395 = VECTOR( '', #457, 1000.00000000000 );
#396 = CARTESIAN_POINT( '', ( 3.00000000000000, 0.900000000000001, 5.93211597998556 ) );
#397 = AXIS2_PLACEMENT_3D( '', #458, #459, #460 );
#398 = CARTESIAN_POINT( '', ( 3.00000000000000, 0.900000000000001, 10.5000000000000 ) );
#399 = VECTOR( '', #461, 1000.00000000000 );
#400 = COLOUR_RGB( '', 0.689999997600000, 0.689999997600000, 0.689999997600000 );
#401 = CARTESIAN_POINT( '', ( 1.07350000000001, -0.899999999999993, 5.93211597998556 ) );
#402 = CARTESIAN_POINT( '', ( 1.07350000000001, -0.899999999999993, -5.93211597998556 ) );
#403 = AXIS2_PLACEMENT_3D( '', #462, #463, #464 );
#404 = CARTESIAN_POINT( '', ( 0.000000000000000, -0.899999999999999, 4.84359393942143 ) );
#405 = CARTESIAN_POINT( '', ( 1.07350000000001, -0.899999999999999, 5.93211597998556 ) );
#406 = CARTESIAN_POINT( '', ( 0.715209951210060, -0.899999999999999, 5.56972584803387 ) );
#407 = CARTESIAN_POINT( '', ( 0.357275562011624, -0.899999999999999, 5.20698485911122 ) );
#408 = CARTESIAN_POINT( '', ( -9.35312530924730E-16, -0.899999999999999, 4.84359393942143 ) );
#409 = CARTESIAN_POINT( '', ( 0.000000000000000, -0.899999999999999, -4.84359393942143 ) );
#410 = AXIS2_PLACEMENT_3D( '', #465, #466, #467 );
#411 = CARTESIAN_POINT( '', ( -3.23835936538105E-16, -0.899999999999999, -4.84359393942143 ) );
#412 = CARTESIAN_POINT( '', ( 0.357276898579810, -0.899999999999999, -5.20698621855697 ) );
#413 = CARTESIAN_POINT( '', ( 0.715211048721683, -0.899999999999999, -5.56972695810484 ) );
#414 = CARTESIAN_POINT( '', ( 1.07350000000001, -0.899999999999999, -5.93211597998556 ) );
#415 = COLOUR_RGB( '', 0.689999997600000, 0.689999997600000, 0.689999997600000 );
#416 = CARTESIAN_POINT( '', ( 0.000000000000000, 0.900000000000001, 10.5000000000000 ) );
#417 = VECTOR( '', #468, 1000.00000000000 );
#418 = COLOUR_RGB( '', 0.689999997600000, 0.689999997600000, 0.689999997600000 );
#419 = CARTESIAN_POINT( '', ( 0.000000000000000, -0.899999999999999, -10.5000000000000 ) );
#420 = VECTOR( '', #469, 1000.00000000000 );
#421 = CARTESIAN_POINT( '', ( 100.000000000000, -0.899999999999999, 5.93211597998556 ) );
#422 = VECTOR( '', #470, 1000.00000000000 );
#423 = CARTESIAN_POINT( '', ( 100.000000000000, -0.899999999999999, -5.93211597998556 ) );
#424 = VECTOR( '', #471, 1000.00000000000 );
#425 = COLOUR_RGB( '', 0.689999997600000, 0.689999997600000, 0.689999997600000 );
#426 = CARTESIAN_POINT( '', ( 90.0000000000000, 6.00000000000000, 0.000000000000000 ) );
#427 = AXIS2_PLACEMENT_3D( '', #472, #473, #474 );
#428 = CARTESIAN_POINT( '', ( 100.000000000000, 0.900000000000001, -5.93211597998556 ) );
#429 = VECTOR( '', #475, 1000.00000000000 );
#430 = CARTESIAN_POINT( '', ( 100.000000000000, 0.900000000000001, 5.93211597998556 ) );
#431 = VECTOR( '', #476, 1000.00000000000 );
#432 = COLOUR_RGB( '', 0.689999997600000, 0.689999997600000, 0.689999997600000 );
#433 = COLOUR_RGB( '', 0.689999997600000, 0.689999997600000, 0.689999997600000 );
#434 = CARTESIAN_POINT( '', ( 90.9623000000000, 3.59999999999999, 0.000000000000000 ) );
#435 = AXIS2_PLACEMENT_3D( '', #477, #478, #479 );
#436 = COLOUR_RGB( '', 0.689999997600000, 0.689999997600000, 0.689999997600000 );
#437 = COLOUR_RGB( '', 0.689999997600000, 0.689999997600000, 0.689999997600000 );
#438 = COLOUR_RGB( '', 0.689999997600000, 0.689999997600000, 0.689999997600000 );
#439 = CARTESIAN_POINT( '', ( 98.6773037637589, -5.24807873260291E-15, 0.000000000000000 ) );
#440 = DIRECTION( '', ( 1.00000000000000, -6.12323399573677E-17, -0.000000000000000 ) );
#441 = DIRECTION( '', ( 6.12323399573677E-17, 1.00000000000000, 0.000000000000000 ) );
#442 = CARTESIAN_POINT( '', ( 95.5000000000000, -5.05352498839260E-15, 0.000000000000000 ) );
#443 = DIRECTION( '', ( 1.00000000000000, -6.12323399573677E-17, -0.000000000000000 ) );
#444 = DIRECTION( '', ( 6.12323399573677E-17, 1.00000000000000, 0.000000000000000 ) );
#445 = CARTESIAN_POINT( '', ( 0.000000000000000, 7.94163477536016E-16, 0.000000000000000 ) );
#446 = DIRECTION( '', ( 1.00000000000000, -6.12323399573677E-17, -0.000000000000000 ) );
#447 = DIRECTION( '', ( 6.12323399573677E-17, 1.00000000000000, 0.000000000000000 ) );
#448 = CARTESIAN_POINT( '', ( 1.07350000000001, 7.28430560591782E-16, 0.000000000000000 ) );
#449 = DIRECTION( '', ( 1.00000000000000, -6.12323399573677E-17, -0.000000000000000 ) );
#450 = DIRECTION( '', ( 6.12323399573677E-17, 1.00000000000000, 0.000000000000000 ) );
#451 = CARTESIAN_POINT( '', ( 95.5000000000000, -5.05352498839260E-15, 0.000000000000000 ) );
#452 = DIRECTION( '', ( 1.00000000000000, -6.12323399573677E-17, -0.000000000000000 ) );
#453 = DIRECTION( '', ( 6.12323399573677E-17, 1.00000000000000, 0.000000000000000 ) );
#454 = CARTESIAN_POINT( '', ( 3.00000000000000, 6.10466457663913E-16, 0.000000000000000 ) );
#455 = DIRECTION( '', ( -1.00000000000000, 0.000000000000000, 0.000000000000000 ) );
#456 = DIRECTION( '', ( 0.000000000000000, 0.000000000000000, 1.00000000000000 ) );
#457 = DIRECTION( '', ( 0.000000000000000, 0.000000000000000, 1.00000000000000 ) );
#458 = CARTESIAN_POINT( '', ( 3.00000000000000, 6.10466457663913E-16, 0.000000000000000 ) );
#459 = DIRECTION( '', ( -1.00000000000000, 0.000000000000000, 0.000000000000000 ) );
#460 = DIRECTION( '', ( 0.000000000000000, 0.000000000000000, 1.00000000000000 ) );
#461 = DIRECTION( '', ( 0.000000000000000, 0.000000000000000, -1.00000000000000 ) );
#462 = CARTESIAN_POINT( '', ( 1.07350000000001, 7.28430560591782E-16, 0.000000000000000 ) );
#463 = DIRECTION( '', ( 1.00000000000000, -6.12323399573677E-17, -0.000000000000000 ) );
#464 = DIRECTION( '', ( 6.12323399573677E-17, 1.00000000000000, 0.000000000000000 ) );
#465 = CARTESIAN_POINT( '', ( 0.000000000000000, 7.94163477536016E-16, 0.000000000000000 ) );
#466 = DIRECTION( '', ( 1.00000000000000, -6.12323399573677E-17, -0.000000000000000 ) );
#467 = DIRECTION( '', ( 6.12323399573677E-17, 1.00000000000000, 0.000000000000000 ) );
#468 = DIRECTION( '', ( 0.000000000000000, 0.000000000000000, -1.00000000000000 ) );
#469 = DIRECTION( '', ( 0.000000000000000, 0.000000000000000, 1.00000000000000 ) );
#470 = DIRECTION( '', ( 1.00000000000000, -6.12323399573677E-17, -0.000000000000000 ) );
#471 = DIRECTION( '', ( 1.00000000000000, -6.12323399573677E-17, -0.000000000000000 ) );
#472 = CARTESIAN_POINT( '', ( 90.0000000000000, -4.71674711862707E-15, 0.000000000000000 ) );
#473 = DIRECTION( '', ( 1.00000000000000, -6.12323399573677E-17, -0.000000000000000 ) );
#474 = DIRECTION( '', ( 6.12323399573677E-17, 1.00000000000000, 0.000000000000000 ) );
#475 = DIRECTION( '', ( 1.00000000000000, -6.12323399573677E-17, -0.000000000000000 ) );
#476 = DIRECTION( '', ( 1.00000000000000, -6.12323399573677E-17, -0.000000000000000 ) );
#477 = CARTESIAN_POINT( '', ( 90.9623000000000, -4.77567099936805E-15, 0.000000000000000 ) );
#478 = DIRECTION( '', ( 1.00000000000000, -6.12323399573677E-17, -0.000000000000000 ) );
#479 = DIRECTION( '', ( 6.12323399573677E-17, 1.00000000000000, 0.000000000000000 ) );
ENDSEC;
END-ISO-10303-21;
