ISO-10303-21;
HEADER;
FILE_DESCRIPTION( ( 'STEP AP214' ), '1' );
FILE_NAME( '//goodhand-server/Shared Folders/GoodHand Data/Kipp CAD/K0676/K0676.2508X040.stp', '2020-12-09T11:09:54', ( '' ), ( '' ), ' ', 'PARTsolutions', ' ' );
FILE_SCHEMA( ( 'AUTOMOTIVE_DESIGN { 1 0 10303 214 1 1 1 1 }' ) );
ENDSEC;
DATA;
#1 = MECHANICAL_DESIGN_GEOMETRIC_PRESENTATION_REPRESENTATION( ' ', ( #10, #11, #12, #13, #14, #15, #16, #17, #18, #19, #20 ), #6 );
#2 = PRODUCT_DEFINITION_CONTEXT( '', #21, 'design' );
#3 = APPLICATION_PROTOCOL_DEFINITION( 'international standard', 'automotive_design', 2001, #21 );
#4 = PRODUCT_CATEGORY_RELATIONSHIP( 'NONE', 'NONE', #22, #23 );
#5 = SHAPE_DEFINITION_REPRESENTATION( #24, #25 );
#6 =  ( GEOMETRIC_REPRESENTATION_CONTEXT( 3 )GLOBAL_UNCERTAINTY_ASSIGNED_CONTEXT( ( #28 ) )GLOBAL_UNIT_ASSIGNED_CONTEXT( ( #30, #31, #32 ) )REPRESENTATION_CONTEXT( 'NONE', 'WORKSPACE' ) );
#10 = STYLED_ITEM( '', ( #34 ), #35 );
#11 = STYLED_ITEM( '', ( #36 ), #37 );
#12 = STYLED_ITEM( '', ( #38 ), #39 );
#13 = STYLED_ITEM( '', ( #40 ), #41 );
#14 = STYLED_ITEM( '', ( #42 ), #43 );
#15 = STYLED_ITEM( '', ( #44 ), #45 );
#16 = STYLED_ITEM( '', ( #46 ), #47 );
#17 = STYLED_ITEM( '', ( #48 ), #49 );
#18 = STYLED_ITEM( '', ( #50 ), #51 );
#19 = STYLED_ITEM( '', ( #52 ), #53 );
#20 = STYLED_ITEM( '', ( #54 ), #55 );
#21 = APPLICATION_CONTEXT( 'core data for automotive mechanical design processes' );
#22 = PRODUCT_CATEGORY( 'part', 'NONE' );
#23 = PRODUCT_RELATED_PRODUCT_CATEGORY( 'detail', ' ', ( #56 ) );
#24 = PRODUCT_DEFINITION_SHAPE( 'NONE', 'NONE', #57 );
#25 = ADVANCED_BREP_SHAPE_REPRESENTATION( '_K0676.2508X040', ( #58, #59 ), #6 );
#28 = UNCERTAINTY_MEASURE_WITH_UNIT( LENGTH_MEASURE( 0.00100000000000000 ), #30, '', '' );
#30 =  ( CONVERSION_BASED_UNIT( 'MILLIMETRE', #62 )LENGTH_UNIT(  )NAMED_UNIT( #65 ) );
#31 =  ( NAMED_UNIT( #67 )PLANE_ANGLE_UNIT(  )SI_UNIT( $, .RADIAN. ) );
#32 =  ( NAMED_UNIT( #67 )SI_UNIT( $, .STERADIAN. )SOLID_ANGLE_UNIT(  ) );
#34 = PRESENTATION_STYLE_ASSIGNMENT( ( #73 ) );
#35 = ADVANCED_FACE( '', ( #74 ), #75, .T. );
#36 = PRESENTATION_STYLE_ASSIGNMENT( ( #76 ) );
#37 = ADVANCED_FACE( '', ( #77 ), #78, .T. );
#38 = PRESENTATION_STYLE_ASSIGNMENT( ( #79 ) );
#39 = ADVANCED_FACE( '', ( #80 ), #81, .T. );
#40 = PRESENTATION_STYLE_ASSIGNMENT( ( #82 ) );
#41 = ADVANCED_FACE( '', ( #83, #84 ), #85, .T. );
#42 = PRESENTATION_STYLE_ASSIGNMENT( ( #86 ) );
#43 = ADVANCED_FACE( '', ( #87 ), #88, .T. );
#44 = PRESENTATION_STYLE_ASSIGNMENT( ( #89 ) );
#45 = ADVANCED_FACE( '', ( #90, #91 ), #92, .T. );
#46 = PRESENTATION_STYLE_ASSIGNMENT( ( #93 ) );
#47 = ADVANCED_FACE( '', ( #94 ), #95, .F. );
#48 = PRESENTATION_STYLE_ASSIGNMENT( ( #96 ) );
#49 = ADVANCED_FACE( '', ( #97 ), #98, .T. );
#50 = PRESENTATION_STYLE_ASSIGNMENT( ( #99 ) );
#51 = ADVANCED_FACE( '', ( #100, #101 ), #102, .T. );
#52 = PRESENTATION_STYLE_ASSIGNMENT( ( #103 ) );
#53 = ADVANCED_FACE( '', ( #104 ), #105, .T. );
#54 = PRESENTATION_STYLE_ASSIGNMENT( ( #106 ) );
#55 = ADVANCED_FACE( '', ( #107 ), #108, .F. );
#56 = PRODUCT( '_K0676.2508X040', '_K0676.2508X040', 'PART-_K0676.2508X040-DESC', ( #109 ) );
#57 = PRODUCT_DEFINITION( 'NONE', 'NONE', #110, #2 );
#58 = MANIFOLD_SOLID_BREP( '_K0676.2508X040', #111 );
#59 = AXIS2_PLACEMENT_3D( '', #112, #113, #114 );
#62 = LENGTH_MEASURE_WITH_UNIT( LENGTH_MEASURE( 1.00000000000000 ), #115 );
#65 = DIMENSIONAL_EXPONENTS( 1.00000000000000, 0.000000000000000, 0.000000000000000, 0.000000000000000, 0.000000000000000, 0.000000000000000, 0.000000000000000 );
#67 = DIMENSIONAL_EXPONENTS( 0.000000000000000, 0.000000000000000, 0.000000000000000, 0.000000000000000, 0.000000000000000, 0.000000000000000, 0.000000000000000 );
#73 = SURFACE_STYLE_USAGE( .BOTH., #116 );
#74 = FACE_OUTER_BOUND( '', #117, .T. );
#75 = PLANE( '', #118 );
#76 = SURFACE_STYLE_USAGE( .BOTH., #119 );
#77 = FACE_OUTER_BOUND( '', #120, .T. );
#78 = PLANE( '', #121 );
#79 = SURFACE_STYLE_USAGE( .BOTH., #122 );
#80 = FACE_OUTER_BOUND( '', #123, .T. );
#81 = PLANE( '', #124 );
#82 = SURFACE_STYLE_USAGE( .BOTH., #125 );
#83 = FACE_OUTER_BOUND( '', #126, .T. );
#84 = FACE_BOUND( '', #127, .T. );
#85 = CONICAL_SURFACE( '', #128, 3.23300000000000, 0.785398163400000 );
#86 = SURFACE_STYLE_USAGE( .BOTH., #129 );
#87 = FACE_OUTER_BOUND( '', #130, .T. );
#88 = PLANE( '', #131 );
#89 = SURFACE_STYLE_USAGE( .BOTH., #132 );
#90 = FACE_BOUND( '', #133, .T. );
#91 = FACE_OUTER_BOUND( '', #134, .T. );
#92 = PLANE( '', #135 );
#93 = SURFACE_STYLE_USAGE( .BOTH., #136 );
#94 = FACE_OUTER_BOUND( '', #137, .T. );
#95 = PLANE( '', #138 );
#96 = SURFACE_STYLE_USAGE( .BOTH., #139 );
#97 = FACE_OUTER_BOUND( '', #140, .T. );
#98 = PLANE( '', #141 );
#99 = SURFACE_STYLE_USAGE( .BOTH., #142 );
#100 = FACE_OUTER_BOUND( '', #143, .T. );
#101 = FACE_OUTER_BOUND( '', #144, .T. );
#102 = CYLINDRICAL_SURFACE( '', #145, 4.00000000000000 );
#103 = SURFACE_STYLE_USAGE( .BOTH., #146 );
#104 = FACE_OUTER_BOUND( '', #147, .T. );
#105 = PLANE( '', #148 );
#106 = SURFACE_STYLE_USAGE( .BOTH., #149 );
#107 = FACE_OUTER_BOUND( '', #150, .T. );
#108 = PLANE( '', #151 );
#109 = PRODUCT_CONTEXT( '', #21, 'mechanical' );
#110 = PRODUCT_DEFINITION_FORMATION_WITH_SPECIFIED_SOURCE( ' ', 'NONE', #56, .NOT_KNOWN. );
#111 = CLOSED_SHELL( '', ( #49, #55, #39, #53, #43, #35, #37, #45, #47, #41, #51 ) );
#112 = CARTESIAN_POINT( '', ( 0.000000000000000, 0.000000000000000, 0.000000000000000 ) );
#113 = DIRECTION( '', ( 0.000000000000000, 0.000000000000000, 1.00000000000000 ) );
#114 = DIRECTION( '', ( 1.00000000000000, 0.000000000000000, 0.000000000000000 ) );
#115 =  ( LENGTH_UNIT(  )NAMED_UNIT( #65 )SI_UNIT( .MILLI., .METRE. ) );
#116 = SURFACE_SIDE_STYLE( '', ( #153 ) );
#117 = EDGE_LOOP( '', ( #154, #155, #156, #157 ) );
#118 = AXIS2_PLACEMENT_3D( '', #158, #159, #160 );
#119 = SURFACE_SIDE_STYLE( '', ( #161 ) );
#120 = EDGE_LOOP( '', ( #162, #163, #164, #165 ) );
#121 = AXIS2_PLACEMENT_3D( '', #166, #167, #168 );
#122 = SURFACE_SIDE_STYLE( '', ( #169 ) );
#123 = EDGE_LOOP( '', ( #170, #171, #172, #173 ) );
#124 = AXIS2_PLACEMENT_3D( '', #174, #175, #176 );
#125 = SURFACE_SIDE_STYLE( '', ( #177 ) );
#126 = EDGE_LOOP( '', ( #178 ) );
#127 = EDGE_LOOP( '', ( #179 ) );
#128 = AXIS2_PLACEMENT_3D( '', #180, #181, #182 );
#129 = SURFACE_SIDE_STYLE( '', ( #183 ) );
#130 = EDGE_LOOP( '', ( #184, #185, #186, #187 ) );
#131 = AXIS2_PLACEMENT_3D( '', #188, #189, #190 );
#132 = SURFACE_SIDE_STYLE( '', ( #191 ) );
#133 = EDGE_LOOP( '', ( #192 ) );
#134 = EDGE_LOOP( '', ( #193, #194, #195, #196, #197, #198 ) );
#135 = AXIS2_PLACEMENT_3D( '', #199, #200, #201 );
#136 = SURFACE_SIDE_STYLE( '', ( #202 ) );
#137 = EDGE_LOOP( '', ( #203 ) );
#138 = AXIS2_PLACEMENT_3D( '', #204, #205, #206 );
#139 = SURFACE_SIDE_STYLE( '', ( #207 ) );
#140 = EDGE_LOOP( '', ( #208, #209, #210, #211 ) );
#141 = AXIS2_PLACEMENT_3D( '', #212, #213, #214 );
#142 = SURFACE_SIDE_STYLE( '', ( #215 ) );
#143 = EDGE_LOOP( '', ( #216 ) );
#144 = EDGE_LOOP( '', ( #217 ) );
#145 = AXIS2_PLACEMENT_3D( '', #218, #219, #220 );
#146 = SURFACE_SIDE_STYLE( '', ( #221 ) );
#147 = EDGE_LOOP( '', ( #222, #223, #224, #225 ) );
#148 = AXIS2_PLACEMENT_3D( '', #226, #227, #228 );
#149 = SURFACE_SIDE_STYLE( '', ( #229 ) );
#150 = EDGE_LOOP( '', ( #230, #231, #232, #233, #234, #235 ) );
#151 = AXIS2_PLACEMENT_3D( '', #236, #237, #238 );
#153 = SURFACE_STYLE_FILL_AREA( #239 );
#154 = ORIENTED_EDGE( '', *, *, #240, .F. );
#155 = ORIENTED_EDGE( '', *, *, #241, .F. );
#156 = ORIENTED_EDGE( '', *, *, #242, .T. );
#157 = ORIENTED_EDGE( '', *, *, #243, .T. );
#158 = CARTESIAN_POINT( '', ( 0.000000000000000, 7.50000000000000, 14.4337567297406 ) );
#159 = DIRECTION( '', ( 0.499524110790929, -0.0436193873653360, 0.865201139495554 ) );
#160 = DIRECTION( '', ( 0.866025403784439, -2.42136240865198E-18, -0.500000000000000 ) );
#161 = SURFACE_STYLE_FILL_AREA( #244 );
#162 = ORIENTED_EDGE( '', *, *, #245, .F. );
#163 = ORIENTED_EDGE( '', *, *, #243, .F. );
#164 = ORIENTED_EDGE( '', *, *, #246, .T. );
#165 = ORIENTED_EDGE( '', *, *, #247, .T. );
#166 = CARTESIAN_POINT( '', ( 12.5000000000000, 7.50000000000000, 7.21687836487032 ) );
#167 = DIRECTION( '', ( 0.999048221581858, -0.0436193873653360, 0.000000000000000 ) );
#168 = DIRECTION( '', ( 0.0436193873653360, 0.999048221581858, 0.000000000000000 ) );
#169 = SURFACE_STYLE_FILL_AREA( #248 );
#170 = ORIENTED_EDGE( '', *, *, #249, .F. );
#171 = ORIENTED_EDGE( '', *, *, #247, .F. );
#172 = ORIENTED_EDGE( '', *, *, #250, .T. );
#173 = ORIENTED_EDGE( '', *, *, #251, .T. );
#174 = CARTESIAN_POINT( '', ( 12.5000000000000, 7.50000000000000, -7.21687836487032 ) );
#175 = DIRECTION( '', ( 0.499524110790929, -0.0436193873653360, -0.865201139495554 ) );
#176 = DIRECTION( '', ( -0.866025403784439, 2.42136240865198E-18, -0.500000000000000 ) );
#177 = SURFACE_STYLE_FILL_AREA( #252 );
#178 = ORIENTED_EDGE( '', *, *, #253, .F. );
#179 = ORIENTED_EDGE( '', *, *, #254, .T. );
#180 = CARTESIAN_POINT( '', ( 0.000000000000000, 47.5000000000000, 0.000000000000000 ) );
#181 = DIRECTION( '', ( -0.000000000000000, -1.00000000000000, -0.000000000000000 ) );
#182 = DIRECTION( '', ( 0.000000000000000, 0.000000000000000, -1.00000000000000 ) );
#183 = SURFACE_STYLE_FILL_AREA( #255 );
#184 = ORIENTED_EDGE( '', *, *, #256, .F. );
#185 = ORIENTED_EDGE( '', *, *, #257, .F. );
#186 = ORIENTED_EDGE( '', *, *, #258, .T. );
#187 = ORIENTED_EDGE( '', *, *, #241, .T. );
#188 = CARTESIAN_POINT( '', ( -12.5000000000000, 7.50000000000000, 7.21687836487032 ) );
#189 = DIRECTION( '', ( -0.499524110790929, -0.0436193873653360, 0.865201139495554 ) );
#190 = DIRECTION( '', ( 0.866025403784439, 2.42136240865198E-18, 0.500000000000000 ) );
#191 = SURFACE_STYLE_FILL_AREA( #259 );
#192 = ORIENTED_EDGE( '', *, *, #260, .T. );
#193 = ORIENTED_EDGE( '', *, *, #261, .T. );
#194 = ORIENTED_EDGE( '', *, *, #256, .T. );
#195 = ORIENTED_EDGE( '', *, *, #240, .T. );
#196 = ORIENTED_EDGE( '', *, *, #245, .T. );
#197 = ORIENTED_EDGE( '', *, *, #249, .T. );
#198 = ORIENTED_EDGE( '', *, *, #262, .T. );
#199 = CARTESIAN_POINT( '', ( 0.000000000000000, 7.50000000000000, 0.000000000000000 ) );
#200 = DIRECTION( '', ( 0.000000000000000, 1.00000000000000, 0.000000000000000 ) );
#201 = DIRECTION( '', ( 0.000000000000000, -0.000000000000000, 1.00000000000000 ) );
#202 = SURFACE_STYLE_FILL_AREA( #263 );
#203 = ORIENTED_EDGE( '', *, *, #254, .F. );
#204 = CARTESIAN_POINT( '', ( 0.000000000000000, 47.5000000000000, 0.000000000000000 ) );
#205 = DIRECTION( '', ( 0.000000000000000, -1.00000000000000, -0.000000000000000 ) );
#206 = DIRECTION( '', ( 0.000000000000000, 0.000000000000000, -1.00000000000000 ) );
#207 = SURFACE_STYLE_FILL_AREA( #264 );
#208 = ORIENTED_EDGE( '', *, *, #262, .F. );
#209 = ORIENTED_EDGE( '', *, *, #251, .F. );
#210 = ORIENTED_EDGE( '', *, *, #265, .T. );
#211 = ORIENTED_EDGE( '', *, *, #266, .T. );
#212 = CARTESIAN_POINT( '', ( 0.000000000000000, 7.50000000000000, -14.4337567297406 ) );
#213 = DIRECTION( '', ( -0.499524110790929, -0.0436193873653360, -0.865201139495554 ) );
#214 = DIRECTION( '', ( -0.866025403784439, -2.42136240865198E-18, 0.500000000000000 ) );
#215 = SURFACE_STYLE_FILL_AREA( #267 );
#216 = ORIENTED_EDGE( '', *, *, #260, .F. );
#217 = ORIENTED_EDGE( '', *, *, #253, .T. );
#218 = CARTESIAN_POINT( '', ( 0.000000000000000, 7.50000000000000, 0.000000000000000 ) );
#219 = DIRECTION( '', ( -0.000000000000000, 1.00000000000000, 0.000000000000000 ) );
#220 = DIRECTION( '', ( 0.000000000000000, 0.000000000000000, -1.00000000000000 ) );
#221 = SURFACE_STYLE_FILL_AREA( #268 );
#222 = ORIENTED_EDGE( '', *, *, #261, .F. );
#223 = ORIENTED_EDGE( '', *, *, #266, .F. );
#224 = ORIENTED_EDGE( '', *, *, #269, .T. );
#225 = ORIENTED_EDGE( '', *, *, #257, .T. );
#226 = CARTESIAN_POINT( '', ( -12.5000000000000, 7.50000000000000, -7.21687836487032 ) );
#227 = DIRECTION( '', ( -0.999048221581858, -0.0436193873653360, 0.000000000000000 ) );
#228 = DIRECTION( '', ( 0.0436193873653360, -0.999048221581858, 0.000000000000000 ) );
#229 = SURFACE_STYLE_FILL_AREA( #270 );
#230 = ORIENTED_EDGE( '', *, *, #269, .F. );
#231 = ORIENTED_EDGE( '', *, *, #265, .F. );
#232 = ORIENTED_EDGE( '', *, *, #250, .F. );
#233 = ORIENTED_EDGE( '', *, *, #246, .F. );
#234 = ORIENTED_EDGE( '', *, *, #242, .F. );
#235 = ORIENTED_EDGE( '', *, *, #258, .F. );
#236 = CARTESIAN_POINT( '', ( 0.000000000000000, 0.000000000000000, 0.000000000000000 ) );
#237 = DIRECTION( '', ( 0.000000000000000, 1.00000000000000, 0.000000000000000 ) );
#238 = DIRECTION( '', ( 0.000000000000000, -0.000000000000000, 1.00000000000000 ) );
#239 = FILL_AREA_STYLE( '', ( #271 ) );
#240 = EDGE_CURVE( '', #272, #273, #274, .T. );
#241 = EDGE_CURVE( '', #275, #272, #276, .T. );
#242 = EDGE_CURVE( '', #275, #277, #278, .T. );
#243 = EDGE_CURVE( '', #277, #273, #279, .T. );
#244 = FILL_AREA_STYLE( '', ( #280 ) );
#245 = EDGE_CURVE( '', #273, #281, #282, .T. );
#246 = EDGE_CURVE( '', #277, #283, #284, .T. );
#247 = EDGE_CURVE( '', #283, #281, #285, .T. );
#248 = FILL_AREA_STYLE( '', ( #286 ) );
#249 = EDGE_CURVE( '', #281, #287, #288, .T. );
#250 = EDGE_CURVE( '', #283, #289, #290, .T. );
#251 = EDGE_CURVE( '', #289, #287, #291, .T. );
#252 = FILL_AREA_STYLE( '', ( #292 ) );
#253 = EDGE_CURVE( '', #293, #293, #294, .T. );
#254 = EDGE_CURVE( '', #295, #295, #296, .T. );
#255 = FILL_AREA_STYLE( '', ( #297 ) );
#256 = EDGE_CURVE( '', #298, #272, #299, .T. );
#257 = EDGE_CURVE( '', #300, #298, #301, .T. );
#258 = EDGE_CURVE( '', #300, #275, #302, .T. );
#259 = FILL_AREA_STYLE( '', ( #303 ) );
#260 = EDGE_CURVE( '', #304, #304, #305, .T. );
#261 = EDGE_CURVE( '', #306, #298, #307, .T. );
#262 = EDGE_CURVE( '', #287, #306, #308, .T. );
#263 = FILL_AREA_STYLE( '', ( #309 ) );
#264 = FILL_AREA_STYLE( '', ( #310 ) );
#265 = EDGE_CURVE( '', #289, #311, #312, .T. );
#266 = EDGE_CURVE( '', #311, #306, #313, .T. );
#267 = FILL_AREA_STYLE( '', ( #314 ) );
#268 = FILL_AREA_STYLE( '', ( #315 ) );
#269 = EDGE_CURVE( '', #311, #300, #316, .T. );
#270 = FILL_AREA_STYLE( '', ( #317 ) );
#271 = FILL_AREA_STYLE_COLOUR( '', #318 );
#272 = VERTEX_POINT( '', #319 );
#273 = VERTEX_POINT( '', #320 );
#274 = LINE( '', #321, #322 );
#275 = VERTEX_POINT( '', #323 );
#276 = LINE( '', #324, #325 );
#277 = VERTEX_POINT( '', #326 );
#278 = LINE( '', #327, #328 );
#279 = LINE( '', #329, #330 );
#280 = FILL_AREA_STYLE_COLOUR( '', #331 );
#281 = VERTEX_POINT( '', #332 );
#282 = LINE( '', #333, #334 );
#283 = VERTEX_POINT( '', #335 );
#284 = LINE( '', #336, #337 );
#285 = LINE( '', #338, #339 );
#286 = FILL_AREA_STYLE_COLOUR( '', #340 );
#287 = VERTEX_POINT( '', #341 );
#288 = LINE( '', #342, #343 );
#289 = VERTEX_POINT( '', #344 );
#290 = LINE( '', #345, #346 );
#291 = LINE( '', #347, #348 );
#292 = FILL_AREA_STYLE_COLOUR( '', #349 );
#293 = VERTEX_POINT( '', #350 );
#294 = CIRCLE( '', #351, 4.00000000000000 );
#295 = VERTEX_POINT( '', #352 );
#296 = CIRCLE( '', #353, 3.23300000000000 );
#297 = FILL_AREA_STYLE_COLOUR( '', #354 );
#298 = VERTEX_POINT( '', #355 );
#299 = LINE( '', #356, #357 );
#300 = VERTEX_POINT( '', #358 );
#301 = LINE( '', #359, #360 );
#302 = LINE( '', #361, #362 );
#303 = FILL_AREA_STYLE_COLOUR( '', #363 );
#304 = VERTEX_POINT( '', #364 );
#305 = CIRCLE( '', #365, 4.00000000000000 );
#306 = VERTEX_POINT( '', #366 );
#307 = LINE( '', #367, #368 );
#308 = LINE( '', #369, #370 );
#309 = FILL_AREA_STYLE_COLOUR( '', #371 );
#310 = FILL_AREA_STYLE_COLOUR( '', #372 );
#311 = VERTEX_POINT( '', #373 );
#312 = LINE( '', #374, #375 );
#313 = LINE( '', #376, #377 );
#314 = FILL_AREA_STYLE_COLOUR( '', #378 );
#315 = FILL_AREA_STYLE_COLOUR( '', #379 );
#316 = LINE( '', #380, #381 );
#317 = FILL_AREA_STYLE_COLOUR( '', #382 );
#318 = COLOUR_RGB( '', 0.689999997600000, 0.689999997600000, 0.689999997600000 );
#319 = CARTESIAN_POINT( '', ( 0.000000000000000, 7.50000000000000, 14.4337567297406 ) );
#320 = CARTESIAN_POINT( '', ( 12.5000000000000, 7.50000000000000, 7.21687836487032 ) );
#321 = CARTESIAN_POINT( '', ( 0.000000000000000, 7.50000000000000, 14.4337567297406 ) );
#322 = VECTOR( '', #383, 1000.00000000000 );
#323 = CARTESIAN_POINT( '', ( 4.39010374806836E-16, 0.000000000000000, 14.0556418726211 ) );
#324 = CARTESIAN_POINT( '', ( 0.000000000000000, 7.13708124112571, 14.4154600664529 ) );
#325 = VECTOR( '', #384, 1000.00000000000 );
#326 = CARTESIAN_POINT( '', ( 12.1725429281862, 0.000000000000000, 7.02782093631055 ) );
#327 = CARTESIAN_POINT( '', ( 6.08627146409308, 0.000000000000000, 10.5417314044658 ) );
#328 = VECTOR( '', #385, 1000.00000000000 );
#329 = CARTESIAN_POINT( '', ( 12.4841546247884, 7.13708124112571, 7.20773003322647 ) );
#330 = VECTOR( '', #386, 1000.00000000000 );
#331 = COLOUR_RGB( '', 0.689999997600000, 0.689999997600000, 0.689999997600000 );
#332 = CARTESIAN_POINT( '', ( 12.5000000000000, 7.50000000000000, -7.21687836487032 ) );
#333 = CARTESIAN_POINT( '', ( 12.5000000000000, 7.50000000000000, 7.21687836487032 ) );
#334 = VECTOR( '', #387, 1000.00000000000 );
#335 = CARTESIAN_POINT( '', ( 12.1725429281862, 0.000000000000000, -7.02782093631055 ) );
#336 = CARTESIAN_POINT( '', ( 12.1725429281862, 0.000000000000000, 0.000000000000000 ) );
#337 = VECTOR( '', #388, 1000.00000000000 );
#338 = CARTESIAN_POINT( '', ( 12.4841546247884, 7.13708124112570, -7.20773003322647 ) );
#339 = VECTOR( '', #389, 1000.00000000000 );
#340 = COLOUR_RGB( '', 0.689999997600000, 0.689999997600000, 0.689999997600000 );
#341 = CARTESIAN_POINT( '', ( 0.000000000000000, 7.50000000000000, -14.4337567297406 ) );
#342 = CARTESIAN_POINT( '', ( 12.5000000000000, 7.50000000000000, -7.21687836487032 ) );
#343 = VECTOR( '', #390, 1000.00000000000 );
#344 = CARTESIAN_POINT( '', ( -4.39010374806836E-16, 0.000000000000000, -14.0556418726211 ) );
#345 = CARTESIAN_POINT( '', ( 6.08627146409308, 0.000000000000000, -10.5417314044658 ) );
#346 = VECTOR( '', #391, 1000.00000000000 );
#347 = CARTESIAN_POINT( '', ( 0.000000000000000, 7.13708124112571, -14.4154600664529 ) );
#348 = VECTOR( '', #392, 1000.00000000000 );
#349 = COLOUR_RGB( '', 0.689999997600000, 0.689999997600000, 0.689999997600000 );
#350 = CARTESIAN_POINT( '', ( 0.000000000000000, 46.7330000000000, -4.00000000000000 ) );
#351 = AXIS2_PLACEMENT_3D( '', #393, #394, #395 );
#352 = CARTESIAN_POINT( '', ( 0.000000000000000, 47.5000000000000, -3.23300000000000 ) );
#353 = AXIS2_PLACEMENT_3D( '', #396, #397, #398 );
#354 = COLOUR_RGB( '', 0.689999997600000, 0.689999997600000, 0.689999997600000 );
#355 = CARTESIAN_POINT( '', ( -12.5000000000000, 7.50000000000000, 7.21687836487032 ) );
#356 = CARTESIAN_POINT( '', ( -12.5000000000000, 7.50000000000000, 7.21687836487032 ) );
#357 = VECTOR( '', #399, 1000.00000000000 );
#358 = CARTESIAN_POINT( '', ( -12.1725429281862, 0.000000000000000, 7.02782093631055 ) );
#359 = CARTESIAN_POINT( '', ( -12.4841546247884, 7.13708124112570, 7.20773003322647 ) );
#360 = VECTOR( '', #400, 1000.00000000000 );
#361 = CARTESIAN_POINT( '', ( -6.08627146409308, 0.000000000000000, 10.5417314044658 ) );
#362 = VECTOR( '', #401, 1000.00000000000 );
#363 = COLOUR_RGB( '', 0.689999997600000, 0.689999997600000, 0.689999997600000 );
#364 = CARTESIAN_POINT( '', ( 0.000000000000000, 7.50000000000000, -4.00000000000000 ) );
#365 = AXIS2_PLACEMENT_3D( '', #402, #403, #404 );
#366 = CARTESIAN_POINT( '', ( -12.5000000000000, 7.50000000000000, -7.21687836487032 ) );
#367 = CARTESIAN_POINT( '', ( -12.5000000000000, 7.50000000000000, -7.21687836487032 ) );
#368 = VECTOR( '', #405, 1000.00000000000 );
#369 = CARTESIAN_POINT( '', ( 0.000000000000000, 7.50000000000000, -14.4337567297406 ) );
#370 = VECTOR( '', #406, 1000.00000000000 );
#371 = COLOUR_RGB( '', 0.689999997600000, 0.689999997600000, 0.689999997600000 );
#372 = COLOUR_RGB( '', 0.689999997600000, 0.689999997600000, 0.689999997600000 );
#373 = CARTESIAN_POINT( '', ( -12.1725429281862, 0.000000000000000, -7.02782093631055 ) );
#374 = CARTESIAN_POINT( '', ( -6.08627146409308, 0.000000000000000, -10.5417314044658 ) );
#375 = VECTOR( '', #407, 1000.00000000000 );
#376 = CARTESIAN_POINT( '', ( -12.4841546247884, 7.13708124112571, -7.20773003322647 ) );
#377 = VECTOR( '', #408, 1000.00000000000 );
#378 = COLOUR_RGB( '', 0.689999997600000, 0.689999997600000, 0.689999997600000 );
#379 = COLOUR_RGB( '', 0.689999997600000, 0.689999997600000, 0.689999997600000 );
#380 = CARTESIAN_POINT( '', ( -12.1725429281862, 0.000000000000000, 0.000000000000000 ) );
#381 = VECTOR( '', #409, 1000.00000000000 );
#382 = COLOUR_RGB( '', 0.689999997600000, 0.689999997600000, 0.689999997600000 );
#383 = DIRECTION( '', ( 0.866025403784439, 0.000000000000000, -0.500000000000000 ) );
#384 = DIRECTION( '', ( 0.000000000000000, 0.998731565520054, 0.0503513657596513 ) );
#385 = DIRECTION( '', ( 0.866025403784439, 0.000000000000000, -0.500000000000000 ) );
#386 = DIRECTION( '', ( 0.0436055618630999, 0.998731565520054, 0.0251756828798256 ) );
#387 = DIRECTION( '', ( 0.000000000000000, 0.000000000000000, -1.00000000000000 ) );
#388 = DIRECTION( '', ( 0.000000000000000, 0.000000000000000, -1.00000000000000 ) );
#389 = DIRECTION( '', ( 0.0436055618630999, 0.998731565520054, -0.0251756828798256 ) );
#390 = DIRECTION( '', ( -0.866025403784439, 0.000000000000000, -0.500000000000000 ) );
#391 = DIRECTION( '', ( -0.866025403784439, 0.000000000000000, -0.500000000000000 ) );
#392 = DIRECTION( '', ( 0.000000000000000, 0.998731565520054, -0.0503513657596513 ) );
#393 = CARTESIAN_POINT( '', ( 0.000000000000000, 46.7330000000000, 0.000000000000000 ) );
#394 = DIRECTION( '', ( 0.000000000000000, -1.00000000000000, -0.000000000000000 ) );
#395 = DIRECTION( '', ( 0.000000000000000, 0.000000000000000, -1.00000000000000 ) );
#396 = CARTESIAN_POINT( '', ( 0.000000000000000, 47.5000000000000, 0.000000000000000 ) );
#397 = DIRECTION( '', ( 0.000000000000000, -1.00000000000000, -0.000000000000000 ) );
#398 = DIRECTION( '', ( 0.000000000000000, 0.000000000000000, -1.00000000000000 ) );
#399 = DIRECTION( '', ( 0.866025403784439, 0.000000000000000, 0.500000000000000 ) );
#400 = DIRECTION( '', ( -0.0436055618630999, 0.998731565520054, 0.0251756828798256 ) );
#401 = DIRECTION( '', ( 0.866025403784439, 0.000000000000000, 0.500000000000000 ) );
#402 = CARTESIAN_POINT( '', ( 0.000000000000000, 7.50000000000000, 0.000000000000000 ) );
#403 = DIRECTION( '', ( 0.000000000000000, -1.00000000000000, -0.000000000000000 ) );
#404 = DIRECTION( '', ( 0.000000000000000, 0.000000000000000, -1.00000000000000 ) );
#405 = DIRECTION( '', ( 0.000000000000000, 0.000000000000000, 1.00000000000000 ) );
#406 = DIRECTION( '', ( -0.866025403784439, 0.000000000000000, 0.500000000000000 ) );
#407 = DIRECTION( '', ( -0.866025403784439, 0.000000000000000, 0.500000000000000 ) );
#408 = DIRECTION( '', ( -0.0436055618630999, 0.998731565520054, -0.0251756828798256 ) );
#409 = DIRECTION( '', ( 0.000000000000000, 0.000000000000000, 1.00000000000000 ) );
ENDSEC;
END-ISO-10303-21;
