ISO-10303-21;
HEADER;
FILE_DESCRIPTION( ( 'STEP AP214' ), '1' );
FILE_NAME( '//goodhand-server/Shared Folders/GoodHand Data/Kipp CAD/K1129/K1129.201215.stp', '2020-12-10T10:17:13', ( '' ), ( '' ), ' ', 'PARTsolutions', ' ' );
FILE_SCHEMA( ( 'AUTOMOTIVE_DESIGN { 1 0 10303 214 1 1 1 1 }' ) );
ENDSEC;
DATA;
#1 = MECHANICAL_DESIGN_GEOMETRIC_PRESENTATION_REPRESENTATION( ' ', ( #10, #11, #12, #13, #14, #15, #16, #17, #18, #19, #20, #21 ), #6 );
#2 = PRODUCT_DEFINITION_CONTEXT( '', #22, 'design' );
#3 = APPLICATION_PROTOCOL_DEFINITION( 'international standard', 'automotive_design', 2001, #22 );
#4 = PRODUCT_CATEGORY_RELATIONSHIP( 'NONE', 'NONE', #23, #24 );
#5 = SHAPE_DEFINITION_REPRESENTATION( #25, #26 );
#6 =  ( GEOMETRIC_REPRESENTATION_CONTEXT( 3 )GLOBAL_UNCERTAINTY_ASSIGNED_CONTEXT( ( #29 ) )GLOBAL_UNIT_ASSIGNED_CONTEXT( ( #31, #32, #33 ) )REPRESENTATION_CONTEXT( 'NONE', 'WORKSPACE' ) );
#10 = STYLED_ITEM( '', ( #35 ), #36 );
#11 = STYLED_ITEM( '', ( #37 ), #38 );
#12 = STYLED_ITEM( '', ( #39 ), #40 );
#13 = STYLED_ITEM( '', ( #41 ), #42 );
#14 = STYLED_ITEM( '', ( #43 ), #44 );
#15 = STYLED_ITEM( '', ( #45 ), #46 );
#16 = STYLED_ITEM( '', ( #47 ), #48 );
#17 = STYLED_ITEM( '', ( #49 ), #50 );
#18 = STYLED_ITEM( '', ( #51 ), #52 );
#19 = STYLED_ITEM( '', ( #53 ), #54 );
#20 = STYLED_ITEM( '', ( #55 ), #56 );
#21 = STYLED_ITEM( '', ( #57 ), #58 );
#22 = APPLICATION_CONTEXT( 'core data for automotive mechanical design processes' );
#23 = PRODUCT_CATEGORY( 'part', 'NONE' );
#24 = PRODUCT_RELATED_PRODUCT_CATEGORY( 'detail', ' ', ( #59 ) );
#25 = PRODUCT_DEFINITION_SHAPE( 'NONE', 'NONE', #60 );
#26 = ADVANCED_BREP_SHAPE_REPRESENTATION( '_K1129.201215', ( #61, #62 ), #6 );
#29 = UNCERTAINTY_MEASURE_WITH_UNIT( LENGTH_MEASURE( 0.00100000000000000 ), #31, '', '' );
#31 =  ( CONVERSION_BASED_UNIT( 'MILLIMETRE', #65 )LENGTH_UNIT(  )NAMED_UNIT( #68 ) );
#32 =  ( NAMED_UNIT( #70 )PLANE_ANGLE_UNIT(  )SI_UNIT( $, .RADIAN. ) );
#33 =  ( NAMED_UNIT( #70 )SI_UNIT( $, .STERADIAN. )SOLID_ANGLE_UNIT(  ) );
#35 = PRESENTATION_STYLE_ASSIGNMENT( ( #76 ) );
#36 = ADVANCED_FACE( '', ( #77 ), #78, .T. );
#37 = PRESENTATION_STYLE_ASSIGNMENT( ( #79 ) );
#38 = ADVANCED_FACE( '', ( #80 ), #81, .F. );
#39 = PRESENTATION_STYLE_ASSIGNMENT( ( #82 ) );
#40 = ADVANCED_FACE( '', ( #83, #84 ), #85, .T. );
#41 = PRESENTATION_STYLE_ASSIGNMENT( ( #86 ) );
#42 = ADVANCED_FACE( '', ( #87 ), #88, .F. );
#43 = PRESENTATION_STYLE_ASSIGNMENT( ( #89 ) );
#44 = ADVANCED_FACE( '', ( #90, #91 ), #92, .F. );
#45 = PRESENTATION_STYLE_ASSIGNMENT( ( #93 ) );
#46 = ADVANCED_FACE( '', ( #94, #95 ), #96, .T. );
#47 = PRESENTATION_STYLE_ASSIGNMENT( ( #97 ) );
#48 = ADVANCED_FACE( '', ( #98 ), #99, .T. );
#49 = PRESENTATION_STYLE_ASSIGNMENT( ( #100 ) );
#50 = ADVANCED_FACE( '', ( #101, #102 ), #103, .T. );
#51 = PRESENTATION_STYLE_ASSIGNMENT( ( #104 ) );
#52 = ADVANCED_FACE( '', ( #105 ), #106, .T. );
#53 = PRESENTATION_STYLE_ASSIGNMENT( ( #107 ) );
#54 = ADVANCED_FACE( '', ( #108 ), #109, .T. );
#55 = PRESENTATION_STYLE_ASSIGNMENT( ( #110 ) );
#56 = ADVANCED_FACE( '', ( #111 ), #112, .T. );
#57 = PRESENTATION_STYLE_ASSIGNMENT( ( #113 ) );
#58 = ADVANCED_FACE( '', ( #114 ), #115, .T. );
#59 = PRODUCT( '_K1129.201215', '_K1129.201215', 'PART-_K1129.201215-DESC', ( #116 ) );
#60 = PRODUCT_DEFINITION( 'NONE', 'NONE', #117, #2 );
#61 = MANIFOLD_SOLID_BREP( '_K1129.201215', #118 );
#62 = AXIS2_PLACEMENT_3D( '', #119, #120, #121 );
#65 = LENGTH_MEASURE_WITH_UNIT( LENGTH_MEASURE( 1.00000000000000 ), #122 );
#68 = DIMENSIONAL_EXPONENTS( 1.00000000000000, 0.000000000000000, 0.000000000000000, 0.000000000000000, 0.000000000000000, 0.000000000000000, 0.000000000000000 );
#70 = DIMENSIONAL_EXPONENTS( 0.000000000000000, 0.000000000000000, 0.000000000000000, 0.000000000000000, 0.000000000000000, 0.000000000000000, 0.000000000000000 );
#76 = SURFACE_STYLE_USAGE( .BOTH., #123 );
#77 = FACE_OUTER_BOUND( '', #124, .T. );
#78 = PLANE( '', #125 );
#79 = SURFACE_STYLE_USAGE( .BOTH., #126 );
#80 = FACE_OUTER_BOUND( '', #127, .T. );
#81 = PLANE( '', #128 );
#82 = SURFACE_STYLE_USAGE( .BOTH., #129 );
#83 = FACE_OUTER_BOUND( '', #130, .T. );
#84 = FACE_BOUND( '', #131, .T. );
#85 = CONICAL_SURFACE( '', #132, 5.65713133020000, 0.769690200100000 );
#86 = SURFACE_STYLE_USAGE( .BOTH., #133 );
#87 = FACE_OUTER_BOUND( '', #134, .T. );
#88 = PLANE( '', #135 );
#89 = SURFACE_STYLE_USAGE( .BOTH., #136 );
#90 = FACE_OUTER_BOUND( '', #137, .T. );
#91 = FACE_BOUND( '', #138, .T. );
#92 = PLANE( '', #139 );
#93 = SURFACE_STYLE_USAGE( .BOTH., #140 );
#94 = FACE_BOUND( '', #141, .T. );
#95 = FACE_OUTER_BOUND( '', #142, .T. );
#96 = CONICAL_SURFACE( '', #143, 5.85857404930000, 0.801106126700000 );
#97 = SURFACE_STYLE_USAGE( .BOTH., #144 );
#98 = FACE_OUTER_BOUND( '', #145, .T. );
#99 = PLANE( '', #146 );
#100 = SURFACE_STYLE_USAGE( .BOTH., #147 );
#101 = FACE_BOUND( '', #148, .T. );
#102 = FACE_OUTER_BOUND( '', #149, .T. );
#103 = CONICAL_SURFACE( '', #150, 6.14142595070000, 0.0314159265000000 );
#104 = SURFACE_STYLE_USAGE( .BOTH., #151 );
#105 = FACE_OUTER_BOUND( '', #152, .T. );
#106 = PLANE( '', #153 );
#107 = SURFACE_STYLE_USAGE( .BOTH., #154 );
#108 = FACE_OUTER_BOUND( '', #155, .T. );
#109 = PLANE( '', #156 );
#110 = SURFACE_STYLE_USAGE( .BOTH., #157 );
#111 = FACE_OUTER_BOUND( '', #158, .T. );
#112 = PLANE( '', #159 );
#113 = SURFACE_STYLE_USAGE( .BOTH., #160 );
#114 = FACE_OUTER_BOUND( '', #161, .T. );
#115 = PLANE( '', #162 );
#116 = PRODUCT_CONTEXT( '', #22, 'mechanical' );
#117 = PRODUCT_DEFINITION_FORMATION_WITH_SPECIFIED_SOURCE( ' ', 'NONE', #59, .NOT_KNOWN. );
#118 = CLOSED_SHELL( '', ( #40, #44, #36, #52, #56, #42, #46, #50, #48, #54, #58, #38 ) );
#119 = CARTESIAN_POINT( '', ( 0.000000000000000, 0.000000000000000, 0.000000000000000 ) );
#120 = DIRECTION( '', ( 0.000000000000000, 0.000000000000000, 1.00000000000000 ) );
#121 = DIRECTION( '', ( 1.00000000000000, 0.000000000000000, 0.000000000000000 ) );
#122 =  ( LENGTH_UNIT(  )NAMED_UNIT( #68 )SI_UNIT( .MILLI., .METRE. ) );
#123 = SURFACE_SIDE_STYLE( '', ( #164 ) );
#124 = EDGE_LOOP( '', ( #165, #166, #167, #168 ) );
#125 = AXIS2_PLACEMENT_3D( '', #169, #170, #171 );
#126 = SURFACE_SIDE_STYLE( '', ( #172 ) );
#127 = EDGE_LOOP( '', ( #173, #174, #175, #176, #177, #178 ) );
#128 = AXIS2_PLACEMENT_3D( '', #179, #180, #181 );
#129 = SURFACE_SIDE_STYLE( '', ( #182 ) );
#130 = EDGE_LOOP( '', ( #183 ) );
#131 = EDGE_LOOP( '', ( #184 ) );
#132 = AXIS2_PLACEMENT_3D( '', #185, #186, #187 );
#133 = SURFACE_SIDE_STYLE( '', ( #188 ) );
#134 = EDGE_LOOP( '', ( #189 ) );
#135 = AXIS2_PLACEMENT_3D( '', #190, #191, #192 );
#136 = SURFACE_SIDE_STYLE( '', ( #193 ) );
#137 = EDGE_LOOP( '', ( #194 ) );
#138 = EDGE_LOOP( '', ( #195, #196, #197, #198, #199, #200 ) );
#139 = AXIS2_PLACEMENT_3D( '', #201, #202, #203 );
#140 = SURFACE_SIDE_STYLE( '', ( #204 ) );
#141 = EDGE_LOOP( '', ( #205 ) );
#142 = EDGE_LOOP( '', ( #206 ) );
#143 = AXIS2_PLACEMENT_3D( '', #207, #208, #209 );
#144 = SURFACE_SIDE_STYLE( '', ( #210 ) );
#145 = EDGE_LOOP( '', ( #211, #212, #213, #214 ) );
#146 = AXIS2_PLACEMENT_3D( '', #215, #216, #217 );
#147 = SURFACE_SIDE_STYLE( '', ( #218 ) );
#148 = EDGE_LOOP( '', ( #219 ) );
#149 = EDGE_LOOP( '', ( #220 ) );
#150 = AXIS2_PLACEMENT_3D( '', #221, #222, #223 );
#151 = SURFACE_SIDE_STYLE( '', ( #224 ) );
#152 = EDGE_LOOP( '', ( #225, #226, #227, #228 ) );
#153 = AXIS2_PLACEMENT_3D( '', #229, #230, #231 );
#154 = SURFACE_SIDE_STYLE( '', ( #232 ) );
#155 = EDGE_LOOP( '', ( #233, #234, #235, #236 ) );
#156 = AXIS2_PLACEMENT_3D( '', #237, #238, #239 );
#157 = SURFACE_SIDE_STYLE( '', ( #240 ) );
#158 = EDGE_LOOP( '', ( #241, #242, #243, #244 ) );
#159 = AXIS2_PLACEMENT_3D( '', #245, #246, #247 );
#160 = SURFACE_SIDE_STYLE( '', ( #248 ) );
#161 = EDGE_LOOP( '', ( #249, #250, #251, #252 ) );
#162 = AXIS2_PLACEMENT_3D( '', #253, #254, #255 );
#164 = SURFACE_STYLE_FILL_AREA( #256 );
#165 = ORIENTED_EDGE( '', *, *, #257, .F. );
#166 = ORIENTED_EDGE( '', *, *, #258, .F. );
#167 = ORIENTED_EDGE( '', *, *, #259, .T. );
#168 = ORIENTED_EDGE( '', *, *, #260, .T. );
#169 = CARTESIAN_POINT( '', ( 5.00000000000000, -1.73205080756888, 3.00000000000000 ) );
#170 = DIRECTION( '', ( 0.000000000000000, 0.866025403784439, -0.500000000000000 ) );
#171 = DIRECTION( '', ( 0.000000000000000, 0.500000000000000, 0.866025403784439 ) );
#172 = SURFACE_STYLE_FILL_AREA( #261 );
#173 = ORIENTED_EDGE( '', *, *, #262, .F. );
#174 = ORIENTED_EDGE( '', *, *, #263, .F. );
#175 = ORIENTED_EDGE( '', *, *, #264, .F. );
#176 = ORIENTED_EDGE( '', *, *, #265, .F. );
#177 = ORIENTED_EDGE( '', *, *, #266, .F. );
#178 = ORIENTED_EDGE( '', *, *, #259, .F. );
#179 = CARTESIAN_POINT( '', ( 5.00000000000000, 0.000000000000000, 0.000000000000000 ) );
#180 = DIRECTION( '', ( 1.00000000000000, 0.000000000000000, 0.000000000000000 ) );
#181 = DIRECTION( '', ( 0.000000000000000, 0.000000000000000, -1.00000000000000 ) );
#182 = SURFACE_STYLE_FILL_AREA( #267 );
#183 = ORIENTED_EDGE( '', *, *, #268, .F. );
#184 = ORIENTED_EDGE( '', *, *, #269, .T. );
#185 = CARTESIAN_POINT( '', ( 0.000000000000000, 0.000000000000000, 0.000000000000000 ) );
#186 = DIRECTION( '', ( 1.00000000000000, -0.000000000000000, -0.000000000000000 ) );
#187 = DIRECTION( '', ( -0.000000000000000, 0.000000000000000, -1.00000000000000 ) );
#188 = SURFACE_STYLE_FILL_AREA( #270 );
#189 = ORIENTED_EDGE( '', *, *, #271, .T. );
#190 = CARTESIAN_POINT( '', ( 10.0000000000000, 5.34286866978324, 0.000000000000000 ) );
#191 = DIRECTION( '', ( -1.00000000000000, 0.000000000000000, 0.000000000000000 ) );
#192 = DIRECTION( '', ( 0.000000000000000, 0.000000000000000, 1.00000000000000 ) );
#193 = SURFACE_STYLE_FILL_AREA( #272 );
#194 = ORIENTED_EDGE( '', *, *, #269, .F. );
#195 = ORIENTED_EDGE( '', *, *, #273, .T. );
#196 = ORIENTED_EDGE( '', *, *, #257, .T. );
#197 = ORIENTED_EDGE( '', *, *, #274, .T. );
#198 = ORIENTED_EDGE( '', *, *, #275, .T. );
#199 = ORIENTED_EDGE( '', *, *, #276, .T. );
#200 = ORIENTED_EDGE( '', *, *, #277, .T. );
#201 = CARTESIAN_POINT( '', ( 0.000000000000000, 0.000000000000000, 0.000000000000000 ) );
#202 = DIRECTION( '', ( 1.00000000000000, 0.000000000000000, -0.000000000000000 ) );
#203 = DIRECTION( '', ( -0.000000000000000, 0.000000000000000, -1.00000000000000 ) );
#204 = SURFACE_STYLE_FILL_AREA( #278 );
#205 = ORIENTED_EDGE( '', *, *, #271, .F. );
#206 = ORIENTED_EDGE( '', *, *, #279, .T. );
#207 = CARTESIAN_POINT( '', ( 9.50024671981713, 0.000000000000000, 0.000000000000000 ) );
#208 = DIRECTION( '', ( -1.00000000000000, 0.000000000000000, -0.000000000000000 ) );
#209 = DIRECTION( '', ( 0.000000000000000, 0.000000000000000, 1.00000000000000 ) );
#210 = SURFACE_STYLE_FILL_AREA( #280 );
#211 = ORIENTED_EDGE( '', *, *, #275, .F. );
#212 = ORIENTED_EDGE( '', *, *, #281, .F. );
#213 = ORIENTED_EDGE( '', *, *, #265, .T. );
#214 = ORIENTED_EDGE( '', *, *, #282, .T. );
#215 = CARTESIAN_POINT( '', ( 5.00000000000000, -1.73205080756888, -3.00000000000000 ) );
#216 = DIRECTION( '', ( 0.000000000000000, 0.000000000000000, 1.00000000000000 ) );
#217 = DIRECTION( '', ( 1.00000000000000, 0.000000000000000, -0.000000000000000 ) );
#218 = SURFACE_STYLE_FILL_AREA( #283 );
#219 = ORIENTED_EDGE( '', *, *, #279, .F. );
#220 = ORIENTED_EDGE( '', *, *, #268, .T. );
#221 = CARTESIAN_POINT( '', ( 0.499753280182865, 0.000000000000000, 0.000000000000000 ) );
#222 = DIRECTION( '', ( -1.00000000000000, 0.000000000000000, -0.000000000000000 ) );
#223 = DIRECTION( '', ( 0.000000000000000, 0.000000000000000, 1.00000000000000 ) );
#224 = SURFACE_STYLE_FILL_AREA( #284 );
#225 = ORIENTED_EDGE( '', *, *, #274, .F. );
#226 = ORIENTED_EDGE( '', *, *, #260, .F. );
#227 = ORIENTED_EDGE( '', *, *, #266, .T. );
#228 = ORIENTED_EDGE( '', *, *, #281, .T. );
#229 = CARTESIAN_POINT( '', ( 5.00000000000000, -3.46410161513775, 0.000000000000000 ) );
#230 = DIRECTION( '', ( -0.000000000000000, 0.866025403784439, 0.500000000000000 ) );
#231 = DIRECTION( '', ( 0.000000000000000, -0.500000000000000, 0.866025403784439 ) );
#232 = SURFACE_STYLE_FILL_AREA( #285 );
#233 = ORIENTED_EDGE( '', *, *, #276, .F. );
#234 = ORIENTED_EDGE( '', *, *, #282, .F. );
#235 = ORIENTED_EDGE( '', *, *, #264, .T. );
#236 = ORIENTED_EDGE( '', *, *, #286, .T. );
#237 = CARTESIAN_POINT( '', ( 5.00000000000000, 1.73205080756888, -3.00000000000000 ) );
#238 = DIRECTION( '', ( 0.000000000000000, -0.866025403784439, 0.500000000000000 ) );
#239 = DIRECTION( '', ( 0.000000000000000, -0.500000000000000, -0.866025403784439 ) );
#240 = SURFACE_STYLE_FILL_AREA( #287 );
#241 = ORIENTED_EDGE( '', *, *, #273, .F. );
#242 = ORIENTED_EDGE( '', *, *, #288, .F. );
#243 = ORIENTED_EDGE( '', *, *, #262, .T. );
#244 = ORIENTED_EDGE( '', *, *, #258, .T. );
#245 = CARTESIAN_POINT( '', ( 5.00000000000000, 1.73205080756888, 3.00000000000000 ) );
#246 = DIRECTION( '', ( 0.000000000000000, 0.000000000000000, -1.00000000000000 ) );
#247 = DIRECTION( '', ( -1.00000000000000, 0.000000000000000, 0.000000000000000 ) );
#248 = SURFACE_STYLE_FILL_AREA( #289 );
#249 = ORIENTED_EDGE( '', *, *, #277, .F. );
#250 = ORIENTED_EDGE( '', *, *, #286, .F. );
#251 = ORIENTED_EDGE( '', *, *, #263, .T. );
#252 = ORIENTED_EDGE( '', *, *, #288, .T. );
#253 = CARTESIAN_POINT( '', ( 5.00000000000000, 3.46410161513775, 0.000000000000000 ) );
#254 = DIRECTION( '', ( 0.000000000000000, -0.866025403784439, -0.500000000000000 ) );
#255 = DIRECTION( '', ( 0.000000000000000, 0.500000000000000, -0.866025403784439 ) );
#256 = FILL_AREA_STYLE( '', ( #290 ) );
#257 = EDGE_CURVE( '', #291, #292, #293, .T. );
#258 = EDGE_CURVE( '', #294, #291, #295, .T. );
#259 = EDGE_CURVE( '', #294, #296, #297, .T. );
#260 = EDGE_CURVE( '', #296, #292, #298, .T. );
#261 = FILL_AREA_STYLE( '', ( #299 ) );
#262 = EDGE_CURVE( '', #300, #294, #301, .T. );
#263 = EDGE_CURVE( '', #302, #300, #303, .T. );
#264 = EDGE_CURVE( '', #304, #302, #305, .T. );
#265 = EDGE_CURVE( '', #306, #304, #307, .T. );
#266 = EDGE_CURVE( '', #296, #306, #308, .T. );
#267 = FILL_AREA_STYLE( '', ( #309 ) );
#268 = EDGE_CURVE( '', #310, #310, #311, .T. );
#269 = EDGE_CURVE( '', #312, #312, #313, .T. );
#270 = FILL_AREA_STYLE( '', ( #314 ) );
#271 = EDGE_CURVE( '', #315, #315, #316, .T. );
#272 = FILL_AREA_STYLE( '', ( #317 ) );
#273 = EDGE_CURVE( '', #318, #291, #319, .T. );
#274 = EDGE_CURVE( '', #292, #320, #321, .T. );
#275 = EDGE_CURVE( '', #320, #322, #323, .T. );
#276 = EDGE_CURVE( '', #322, #324, #325, .T. );
#277 = EDGE_CURVE( '', #324, #318, #326, .T. );
#278 = FILL_AREA_STYLE( '', ( #327 ) );
#279 = EDGE_CURVE( '', #328, #328, #329, .T. );
#280 = FILL_AREA_STYLE( '', ( #330 ) );
#281 = EDGE_CURVE( '', #306, #320, #331, .T. );
#282 = EDGE_CURVE( '', #304, #322, #332, .T. );
#283 = FILL_AREA_STYLE( '', ( #333 ) );
#284 = FILL_AREA_STYLE( '', ( #334 ) );
#285 = FILL_AREA_STYLE( '', ( #335 ) );
#286 = EDGE_CURVE( '', #302, #324, #336, .T. );
#287 = FILL_AREA_STYLE( '', ( #337 ) );
#288 = EDGE_CURVE( '', #300, #318, #338, .T. );
#289 = FILL_AREA_STYLE( '', ( #339 ) );
#290 = FILL_AREA_STYLE_COLOUR( '', #340 );
#291 = VERTEX_POINT( '', #341 );
#292 = VERTEX_POINT( '', #342 );
#293 = LINE( '', #343, #344 );
#294 = VERTEX_POINT( '', #345 );
#295 = LINE( '', #346, #347 );
#296 = VERTEX_POINT( '', #348 );
#297 = LINE( '', #349, #350 );
#298 = LINE( '', #351, #352 );
#299 = FILL_AREA_STYLE_COLOUR( '', #353 );
#300 = VERTEX_POINT( '', #354 );
#301 = LINE( '', #355, #356 );
#302 = VERTEX_POINT( '', #357 );
#303 = LINE( '', #358, #359 );
#304 = VERTEX_POINT( '', #360 );
#305 = LINE( '', #361, #362 );
#306 = VERTEX_POINT( '', #363 );
#307 = LINE( '', #364, #365 );
#308 = LINE( '', #366, #367 );
#309 = FILL_AREA_STYLE_COLOUR( '', #368 );
#310 = VERTEX_POINT( '', #369 );
#311 = CIRCLE( '', #370, 6.14142595070000 );
#312 = VERTEX_POINT( '', #371 );
#313 = CIRCLE( '', #372, 5.65713133020000 );
#314 = FILL_AREA_STYLE_COLOUR( '', #373 );
#315 = VERTEX_POINT( '', #374 );
#316 = CIRCLE( '', #375, 5.34286866980000 );
#317 = FILL_AREA_STYLE_COLOUR( '', #376 );
#318 = VERTEX_POINT( '', #377 );
#319 = LINE( '', #378, #379 );
#320 = VERTEX_POINT( '', #380 );
#321 = LINE( '', #381, #382 );
#322 = VERTEX_POINT( '', #383 );
#323 = LINE( '', #384, #385 );
#324 = VERTEX_POINT( '', #386 );
#325 = LINE( '', #387, #388 );
#326 = LINE( '', #389, #390 );
#327 = FILL_AREA_STYLE_COLOUR( '', #391 );
#328 = VERTEX_POINT( '', #392 );
#329 = CIRCLE( '', #393, 5.85857404930000 );
#330 = FILL_AREA_STYLE_COLOUR( '', #394 );
#331 = LINE( '', #395, #396 );
#332 = LINE( '', #397, #398 );
#333 = FILL_AREA_STYLE_COLOUR( '', #399 );
#334 = FILL_AREA_STYLE_COLOUR( '', #400 );
#335 = FILL_AREA_STYLE_COLOUR( '', #401 );
#336 = LINE( '', #402, #403 );
#337 = FILL_AREA_STYLE_COLOUR( '', #404 );
#338 = LINE( '', #405, #406 );
#339 = FILL_AREA_STYLE_COLOUR( '', #407 );
#340 = COLOUR_RGB( '', 0.689999997600000, 0.689999997600000, 0.689999997600000 );
#341 = CARTESIAN_POINT( '', ( 0.000000000000000, -1.73205080756888, 3.00000000000000 ) );
#342 = CARTESIAN_POINT( '', ( 0.000000000000000, -3.46410161513775, 0.000000000000000 ) );
#343 = CARTESIAN_POINT( '', ( 0.000000000000000, -1.73205080756888, 3.00000000000000 ) );
#344 = VECTOR( '', #408, 1000.00000000000 );
#345 = CARTESIAN_POINT( '', ( 5.00000000000000, -1.73205080756888, 3.00000000000000 ) );
#346 = CARTESIAN_POINT( '', ( 5.00000000000000, -1.73205080756888, 3.00000000000000 ) );
#347 = VECTOR( '', #409, 1000.00000000000 );
#348 = CARTESIAN_POINT( '', ( 5.00000000000000, -3.46410161513775, 0.000000000000000 ) );
#349 = CARTESIAN_POINT( '', ( 5.00000000000000, -1.73205080756888, 3.00000000000000 ) );
#350 = VECTOR( '', #410, 1000.00000000000 );
#351 = CARTESIAN_POINT( '', ( 5.00000000000000, -3.46410161513775, 0.000000000000000 ) );
#352 = VECTOR( '', #411, 1000.00000000000 );
#353 = COLOUR_RGB( '', 0.689999997600000, 0.689999997600000, 0.689999997600000 );
#354 = CARTESIAN_POINT( '', ( 5.00000000000000, 1.73205080756888, 3.00000000000000 ) );
#355 = CARTESIAN_POINT( '', ( 5.00000000000000, 1.73205080756888, 3.00000000000000 ) );
#356 = VECTOR( '', #412, 1000.00000000000 );
#357 = CARTESIAN_POINT( '', ( 5.00000000000000, 3.46410161513775, 0.000000000000000 ) );
#358 = CARTESIAN_POINT( '', ( 5.00000000000000, 3.46410161513775, 0.000000000000000 ) );
#359 = VECTOR( '', #413, 1000.00000000000 );
#360 = CARTESIAN_POINT( '', ( 5.00000000000000, 1.73205080756888, -3.00000000000000 ) );
#361 = CARTESIAN_POINT( '', ( 5.00000000000000, 1.73205080756888, -3.00000000000000 ) );
#362 = VECTOR( '', #414, 1000.00000000000 );
#363 = CARTESIAN_POINT( '', ( 5.00000000000000, -1.73205080756888, -3.00000000000000 ) );
#364 = CARTESIAN_POINT( '', ( 5.00000000000000, -1.73205080756888, -3.00000000000000 ) );
#365 = VECTOR( '', #415, 1000.00000000000 );
#366 = CARTESIAN_POINT( '', ( 5.00000000000000, -3.46410161513775, 0.000000000000000 ) );
#367 = VECTOR( '', #416, 1000.00000000000 );
#368 = COLOUR_RGB( '', 0.689999997600000, 0.689999997600000, 0.689999997600000 );
#369 = CARTESIAN_POINT( '', ( 0.499753280182865, 0.000000000000000, -6.14142595067769 ) );
#370 = AXIS2_PLACEMENT_3D( '', #417, #418, #419 );
#371 = CARTESIAN_POINT( '', ( 0.000000000000000, 0.000000000000000, -5.65713133021675 ) );
#372 = AXIS2_PLACEMENT_3D( '', #420, #421, #422 );
#373 = COLOUR_RGB( '', 0.689999997600000, 0.689999997600000, 0.689999997600000 );
#374 = CARTESIAN_POINT( '', ( 10.0000000000000, 0.000000000000000, -5.34286866978324 ) );
#375 = AXIS2_PLACEMENT_3D( '', #423, #424, #425 );
#376 = COLOUR_RGB( '', 0.689999997600000, 0.689999997600000, 0.689999997600000 );
#377 = CARTESIAN_POINT( '', ( 0.000000000000000, 1.73205080756888, 3.00000000000000 ) );
#378 = CARTESIAN_POINT( '', ( 0.000000000000000, 1.73205080756888, 3.00000000000000 ) );
#379 = VECTOR( '', #426, 1000.00000000000 );
#380 = CARTESIAN_POINT( '', ( 0.000000000000000, -1.73205080756888, -3.00000000000000 ) );
#381 = CARTESIAN_POINT( '', ( 0.000000000000000, -3.46410161513775, 0.000000000000000 ) );
#382 = VECTOR( '', #427, 1000.00000000000 );
#383 = CARTESIAN_POINT( '', ( 0.000000000000000, 1.73205080756888, -3.00000000000000 ) );
#384 = CARTESIAN_POINT( '', ( 0.000000000000000, -1.73205080756888, -3.00000000000000 ) );
#385 = VECTOR( '', #428, 1000.00000000000 );
#386 = CARTESIAN_POINT( '', ( 0.000000000000000, 3.46410161513775, 0.000000000000000 ) );
#387 = CARTESIAN_POINT( '', ( 0.000000000000000, 1.73205080756888, -3.00000000000000 ) );
#388 = VECTOR( '', #429, 1000.00000000000 );
#389 = CARTESIAN_POINT( '', ( 0.000000000000000, 3.46410161513775, 0.000000000000000 ) );
#390 = VECTOR( '', #430, 1000.00000000000 );
#391 = COLOUR_RGB( '', 0.689999997600000, 0.689999997600000, 0.689999997600000 );
#392 = CARTESIAN_POINT( '', ( 9.50024671981713, 0.000000000000000, -5.85857404932231 ) );
#393 = AXIS2_PLACEMENT_3D( '', #431, #432, #433 );
#394 = COLOUR_RGB( '', 0.689999997600000, 0.689999997600000, 0.689999997600000 );
#395 = CARTESIAN_POINT( '', ( 5.00000000000000, -1.73205080756888, -3.00000000000000 ) );
#396 = VECTOR( '', #434, 1000.00000000000 );
#397 = CARTESIAN_POINT( '', ( 5.00000000000000, 1.73205080756888, -3.00000000000000 ) );
#398 = VECTOR( '', #435, 1000.00000000000 );
#399 = COLOUR_RGB( '', 0.689999997600000, 0.689999997600000, 0.689999997600000 );
#400 = COLOUR_RGB( '', 0.689999997600000, 0.689999997600000, 0.689999997600000 );
#401 = COLOUR_RGB( '', 0.689999997600000, 0.689999997600000, 0.689999997600000 );
#402 = CARTESIAN_POINT( '', ( 5.00000000000000, 3.46410161513775, 0.000000000000000 ) );
#403 = VECTOR( '', #436, 1000.00000000000 );
#404 = COLOUR_RGB( '', 0.689999997600000, 0.689999997600000, 0.689999997600000 );
#405 = CARTESIAN_POINT( '', ( 5.00000000000000, 1.73205080756888, 3.00000000000000 ) );
#406 = VECTOR( '', #437, 1000.00000000000 );
#407 = COLOUR_RGB( '', 0.689999997600000, 0.689999997600000, 0.689999997600000 );
#408 = DIRECTION( '', ( 0.000000000000000, -0.500000000000000, -0.866025403784439 ) );
#409 = DIRECTION( '', ( -1.00000000000000, -0.000000000000000, -0.000000000000000 ) );
#410 = DIRECTION( '', ( 0.000000000000000, -0.500000000000000, -0.866025403784439 ) );
#411 = DIRECTION( '', ( -1.00000000000000, -0.000000000000000, -0.000000000000000 ) );
#412 = DIRECTION( '', ( 0.000000000000000, -1.00000000000000, 0.000000000000000 ) );
#413 = DIRECTION( '', ( 0.000000000000000, -0.500000000000000, 0.866025403784439 ) );
#414 = DIRECTION( '', ( 0.000000000000000, 0.500000000000000, 0.866025403784439 ) );
#415 = DIRECTION( '', ( 0.000000000000000, 1.00000000000000, 0.000000000000000 ) );
#416 = DIRECTION( '', ( 0.000000000000000, 0.500000000000000, -0.866025403784439 ) );
#417 = CARTESIAN_POINT( '', ( 0.499753280182865, 0.000000000000000, 0.000000000000000 ) );
#418 = DIRECTION( '', ( 1.00000000000000, 0.000000000000000, -0.000000000000000 ) );
#419 = DIRECTION( '', ( -0.000000000000000, 0.000000000000000, -1.00000000000000 ) );
#420 = CARTESIAN_POINT( '', ( 0.000000000000000, 0.000000000000000, 0.000000000000000 ) );
#421 = DIRECTION( '', ( 1.00000000000000, 0.000000000000000, -0.000000000000000 ) );
#422 = DIRECTION( '', ( -0.000000000000000, 0.000000000000000, -1.00000000000000 ) );
#423 = CARTESIAN_POINT( '', ( 10.0000000000000, 0.000000000000000, 0.000000000000000 ) );
#424 = DIRECTION( '', ( 1.00000000000000, 0.000000000000000, -0.000000000000000 ) );
#425 = DIRECTION( '', ( -0.000000000000000, 0.000000000000000, -1.00000000000000 ) );
#426 = DIRECTION( '', ( 0.000000000000000, -1.00000000000000, 0.000000000000000 ) );
#427 = DIRECTION( '', ( 0.000000000000000, 0.500000000000000, -0.866025403784439 ) );
#428 = DIRECTION( '', ( 0.000000000000000, 1.00000000000000, 0.000000000000000 ) );
#429 = DIRECTION( '', ( 0.000000000000000, 0.500000000000000, 0.866025403784439 ) );
#430 = DIRECTION( '', ( 0.000000000000000, -0.500000000000000, 0.866025403784439 ) );
#431 = CARTESIAN_POINT( '', ( 9.50024671981713, 0.000000000000000, 0.000000000000000 ) );
#432 = DIRECTION( '', ( 1.00000000000000, 0.000000000000000, -0.000000000000000 ) );
#433 = DIRECTION( '', ( -0.000000000000000, 0.000000000000000, -1.00000000000000 ) );
#434 = DIRECTION( '', ( -1.00000000000000, -0.000000000000000, -0.000000000000000 ) );
#435 = DIRECTION( '', ( -1.00000000000000, -0.000000000000000, -0.000000000000000 ) );
#436 = DIRECTION( '', ( -1.00000000000000, -0.000000000000000, -0.000000000000000 ) );
#437 = DIRECTION( '', ( -1.00000000000000, -0.000000000000000, -0.000000000000000 ) );
ENDSEC;
END-ISO-10303-21;
